999
DXF file: C:\Users\sesa63760\Dev\_Creo\CAD\MCADID0000721_3D-CAD\drw0001_6.dxf
999
Pro/ENGINEER 2019471 by Parametric Technology Corporation
  0
SECTION
  2
HEADER
  9
$ACADVER
  1
AC1024
  9
$DWGCODEPAGE
  3
ANSI_1252
  9
$EXTMAX
 10
95.9423778243
 20
135.6899343514
 30
0.0
  9
$EXTMIN
 10
0.0
 20
0.0
 30
0.0
  9
$LIMMIN
 10
0.0
 20
0.0
  9
$LIMMAX
 10
95.9423778243
 20
135.6899343514
  9
$VIEWCTR
 10
47.9711889121
 20
67.8449671757
  9
$VIEWSIZE
 40
135.6899343514
  9
$CLAYER
  8
0
  9
$LTSCALE
 40
8.8449734985
  9
$CELTYPE
  6
BYLAYER
  9
$DIMSCALE
 40
1.0
  9
$DIMASZ
 40
1.1421711646
  9
$DIMEXO
 40
1.0
  9
$DIMDLI
 40
6.1110725989
  9
$DIMEXE
 40
1.0
  9
$DIMCEN
 40
1.4473592997
  9
$DIMLFAC
 40
1.0
  9
$DIMBLK
  1
_FILLED
  9
$DIMALT
 70
0
  9
$DIMALTF
 40
0.0393700787
  9
$DIMTXT
 40
1.5990396304
  9
$DIMTOL
 70
1
  9
$DIMLIM
 70
0
  9
$DIMTFAC
 40
1.0
  9
$DIMTP
 40
0.01
  9
$DIMTM
 40
0.01
  9
$DIMGAP
 40
0.625
  9
$DIMDSEP
 70
46
  9
$AUNITS
 70
0
  9
$PDMODE
 70
3
  9
$PDSIZE
 40
0.3125
  9
$HANDSEED
  5
39C
  9
$TILEMODE
 70
1
  9
$MEASUREMENT
 70
1
  9
$INSUNITS
 70
4
  0
ENDSEC
  0
SECTION
  2
CLASSES
  0
CLASS
  1
ACDBDICTIONARYWDFLT
  2
AcDbDictionaryWithDefault
  3
AutoCAD 2000
 90
0
 91
1
280
0
281
0
  0
CLASS
  1
ACDBPLACEHOLDER
  2
AcDbPlaceHolder
  3
AutoCAD 2000
 90
0
 91
1
280
0
281
0
  0
CLASS
  1
LAYOUT
  2
AcDbLayout
  3
AutoCAD 2000
 90
0
 91
0
280
0
281
0
  0
ENDSEC
  0
SECTION
  2
TABLES
  0
TABLE
  2
VPORT
  5
8
100
AcDbSymbolTable
 70
2
  0
VPORT
  5
1F4
100
AcDbSymbolTableRecord
100
AcDbViewportTableRecord
  2
*ACTIVE
 70
0
 10
0.0
 20
0.0
 11
1.0
 21
1.0
 12
47.9711889121
 22
67.8449671757
 13
0.0
 23
0.0
 14
1.0
 24
1.0
 15
0.0
 25
0.0
 16
0.0
 26
0.0
 36
1.0
 17
0.0
 27
0.0
 37
0.0
 40
135.6899343514
 41
0.7070707071
 42
50.0
 43
0.0
 44
0.0
 50
0.0
 51
0.0
 71
0
 72
100
 73
1
 74
1
 75
0
 76
0
 77
0
 78
0
  0
ENDTAB
  0
TABLE
  2
LTYPE
  5
5
100
AcDbSymbolTable
 70
6
  0
LTYPE
  5
14
100
AcDbSymbolTableRecord
100
AcDbLinetypeTableRecord
  2
BYBLOCK
 70
0
  3

 72
65
 73
0
 40
0.0
  0
LTYPE
  5
15
100
AcDbSymbolTableRecord
100
AcDbLinetypeTableRecord
  2
BYLAYER
 70
0
  3

 72
65
 73
0
 40
0.0
  0
LTYPE
  5
16
100
AcDbSymbolTableRecord
100
AcDbLinetypeTableRecord
  2
CONTINUOUS
 70
64
  3
Solid line
 72
65
 73
0
 40
0.0
  0
LTYPE
  5
1F5
100
AcDbSymbolTableRecord
100
AcDbLinetypeTableRecord
  2
CENTER
 70
64
  3
____ _ ____ _ ____ _ ____ _ ____ _ ____ _ ____
 72
65
 73
4
 40
0.6
 49
0.375
 74
0
 49
-0.075
 74
0
 49
0.075
 74
0
 49
-0.075
 74
0
  0
LTYPE
  5
1F6
100
AcDbSymbolTableRecord
100
AcDbLinetypeTableRecord
  2
HIDDEN
 70
64
  3
- - - - - - - - - - - - - - - - - - - -
 72
65
 73
2
 40
0.2
 49
0.1
 74
0
 49
-0.1
 74
0
  0
LTYPE
  5
1F7
100
AcDbSymbolTableRecord
100
AcDbLinetypeTableRecord
  2
PHANTOM
 70
64
  3
_____ _ _ _____ _ _ _____ _ _ _____
 72
65
 73
6
 40
0.8
 49
0.45
 74
0
 49
-0.05
 74
0
 49
0.1
 74
0
 49
-0.05
 74
0
 49
0.1
 74
0
 49
-0.05
 74
0
  0
LTYPE
  5
1F8
100
AcDbSymbolTableRecord
100
AcDbLinetypeTableRecord
  2
DOT
 70
64
  3
. . . . . . . . . . . . . . . . . . . .
 72
65
 73
2
 40
0.2
 49
0.1
 74
0
 49
-0.1
 74
0
  0
LTYPE
  5
1F9
100
AcDbSymbolTableRecord
100
AcDbLinetypeTableRecord
  2
DASHED
 70
64
  3
- - - - - - - - - - - - - - - - - - - -
 72
65
 73
2
 40
0.2
 49
0.1
 74
0
 49
-0.1
 74
0
  0
ENDTAB
  0
TABLE
  2
LAYER
  5
2
100
AcDbSymbolTable
 70
36
  0
LAYER
  5
10
100
AcDbSymbolTableRecord
100
AcDbLayerTableRecord
  2
0
 70
0
 62
7
  6
CONTINUOUS
370
-3
390
F
  0
LAYER
  5
1FA
100
AcDbSymbolTableRecord
100
AcDbLayerTableRecord
  2
DEFAULT_1
 70
0
 62
7
  6
CENTER
370
-3
390
F
  0
LAYER
  5
1FB
100
AcDbSymbolTableRecord
100
AcDbLayerTableRecord
  2
DEFAULT_2
 70
0
 62
8
  6
HIDDEN
370
-3
390
F
  0
LAYER
  5
1FC
100
AcDbSymbolTableRecord
100
AcDbLayerTableRecord
  2
DEFAULT_3
 70
0
 62
7
  6
PHANTOM
370
-3
390
F
  0
LAYER
  5
1FD
100
AcDbSymbolTableRecord
100
AcDbLayerTableRecord
  2
00_COMPONENTS
 70
0
 62
7
  6
CONTINUOUS
370
-3
390
F
  0
LAYER
  5
1FE
100
AcDbSymbolTableRecord
100
AcDbLayerTableRecord
  2
01_1_DEFAULT_DATUMS
 70
0
 62
7
  6
CONTINUOUS
370
-3
390
F
  0
LAYER
  5
1FF
100
AcDbSymbolTableRecord
100
AcDbLayerTableRecord
  2
01_PLANES
 70
0
 62
7
  6
CONTINUOUS
370
-3
390
F
  0
LAYER
  5
200
100
AcDbSymbolTableRecord
100
AcDbLayerTableRecord
  2
02_COORD_SYS
 70
0
 62
7
  6
CONTINUOUS
370
-3
390
F
  0
LAYER
  5
201
100
AcDbSymbolTableRecord
100
AcDbLayerTableRecord
  2
03_AXES
 70
0
 62
7
  6
CONTINUOUS
370
-3
390
F
  0
LAYER
  5
202
100
AcDbSymbolTableRecord
100
AcDbLayerTableRecord
  2
04_POINTS
 70
0
 62
7
  6
CONTINUOUS
370
-3
390
F
  0
LAYER
  5
203
100
AcDbSymbolTableRecord
100
AcDbLayerTableRecord
  2
05_CURVES
 70
0
 62
7
  6
CONTINUOUS
370
-3
390
F
  0
LAYER
  5
204
100
AcDbSymbolTableRecord
100
AcDbLayerTableRecord
  2
06_SURFS
 70
0
 62
7
  6
CONTINUOUS
370
-3
390
F
  0
LAYER
  5
205
100
AcDbSymbolTableRecord
100
AcDbLayerTableRecord
  2
07_COSMETICS
 70
0
 62
7
  6
CONTINUOUS
370
-3
390
F
  0
LAYER
  5
206
100
AcDbSymbolTableRecord
100
AcDbLayerTableRecord
  2
10_NOTES
 70
0
 62
7
  6
CONTINUOUS
370
-3
390
F
  0
LAYER
  5
207
100
AcDbSymbolTableRecord
100
AcDbLayerTableRecord
  2
11_NOTES_PUB
 70
0
 62
7
  6
CONTINUOUS
370
-3
390
F
  0
LAYER
  5
208
100
AcDbSymbolTableRecord
100
AcDbLayerTableRecord
  2
13_REF_GTOL
 70
0
 62
7
  6
CONTINUOUS
370
-3
390
F
  0
LAYER
  5
209
100
AcDbSymbolTableRecord
100
AcDbLayerTableRecord
  2
16_MISC
 70
0
 62
7
  6
CONTINUOUS
370
-3
390
F
  0
LAYER
  5
20A
100
AcDbSymbolTableRecord
100
AcDbLayerTableRecord
  2
17_NO_PRINT
 70
0
 62
7
  6
CONTINUOUS
370
-3
390
F
  0
LAYER
  5
20B
100
AcDbSymbolTableRecord
100
AcDbLayerTableRecord
  2
18_DATUM_CAMS_JOINTS
 70
0
 62
7
  6
CONTINUOUS
370
-3
390
F
  0
LAYER
  5
20C
100
AcDbSymbolTableRecord
100
AcDbLayerTableRecord
  2
19_DATUM_FUNCTIONAL
 70
0
 62
7
  6
CONTINUOUS
370
-3
390
F
  0
LAYER
  5
20D
100
AcDbSymbolTableRecord
100
AcDbLayerTableRecord
  2
20_DATUM_KINEMATIC_SCHEME
 70
0
 62
7
  6
CONTINUOUS
370
-3
390
F
  0
ENDTAB
  0
TABLE
  2
STYLE
  5
3
100
AcDbSymbolTable
 70
1
  0
STYLE
  5
11
100
AcDbSymbolTableRecord
100
AcDbTextStyleTableRecord
  2
STANDARD
 70
0
 40
0.0
 41
0.8
 50
0.0
 71
0
 42
0.2
  3
txt
  4

  0
STYLE
  5
20E
100
AcDbSymbolTableRecord
100
AcDbTextStyleTableRecord
  2
TEXTSTYLE_1
 70
0
 40
0.0
 41
0.8
 50
0.0
 71
0
 42
0.2
  3
gdt
  4

  0
ENDTAB
  0
TABLE
  2
VIEW
  5
6
100
AcDbSymbolTable
 70
0
  0
ENDTAB
  0
TABLE
  2
UCS
  5
7
100
AcDbSymbolTable
 70
0
  0
ENDTAB
  0
TABLE
  2
APPID
  5
9
100
AcDbSymbolTable
 70
1
  0
APPID
  5
20F
100
AcDbSymbolTableRecord
100
AcDbRegAppTableRecord
  2
ACAD
 70
0
  0
ENDTAB
  0
TABLE
  2
BLOCK_RECORD
  5
1
100
AcDbSymbolTable
 70
0
  0
BLOCK_RECORD
  5
210
100
AcDbSymbolTableRecord
100
AcDbBlockTableRecord
  2
*Model_Space
  0
BLOCK_RECORD
  5
211
100
AcDbSymbolTableRecord
100
AcDbBlockTableRecord
  2
*Paper_Space
  0
BLOCK_RECORD
  5
212
100
AcDbSymbolTableRecord
100
AcDbBlockTableRecord
  2
_FILLED
  0
ENDTAB
  0
TABLE
  2
DIMSTYLE
  5
A
100
AcDbSymbolTable
 70
1
100
AcDbDimStyleTable
 71
0
  0
DIMSTYLE
105
213
100
AcDbSymbolTableRecord
100
AcDbDimStyleTableRecord
  2
STANDARD
 70
0
  3

  4

 40
1.0
 41
1.1421711646
 42
1.0
 43
0.38
 44
1.0
 45
0.0
 46
0.0
 47
0.01
 48
0.01
140
1.5990396304
141
0.09
142
0.0
143
25.4
144
1.0
145
0.0
146
1.0
147
0.625
 71
1
 72
0
 73
0
 74
0
 75
0
 76
0
 77
1
 78
8
 79
2
170
0
171
1
172
0
173
0
174
0
175
0
176
0
177
0
178
0
270
2
179
2
271
2
272
2
273
2
274
2
275
0
280
0
281
0
282
0
283
1
284
8
285
0
286
0
287
3
288
0
340
11
278
46
341
212
342
212
343
212
344
212
  0
ENDTAB
  0
ENDSEC
  0
SECTION
  2
BLOCKS
  0
BLOCK
  5
20
100
AcDbEntity
  8
0
100
AcDbBlockBegin
  2
*Model_Space
 70
0
 10
0.0
 20
0.0
 30
0.0
  3
*Model_Space
  1

  0
ENDBLK
  5
21
100
AcDbEntity
  8
0
100
AcDbBlockEnd
  0
BLOCK
  5
1C
100
AcDbEntity
  8
0
100
AcDbBlockBegin
  2
*Paper_Space
 70
0
 10
0.0
 20
0.0
 30
0.0
  3
*Paper_Space
  1

  0
ENDBLK
  5
1D
100
AcDbEntity
  8
0
100
AcDbBlockEnd
  0
BLOCK
  5
214
100
AcDbEntity
  8
0
100
AcDbBlockBegin
  2
_FILLED
 70
64
 10
0.0
 20
0.0
  3
_FILLED
  1

  0
SOLID
  5
215
100
AcDbEntity
  8
0
  6
BYBLOCK
 62
0
100
AcDbTrace
 10
0.0
 20
0.0
 11
-1.0
 21
0.25
 12
-1.0
 22
-0.25
 13
-1.0
 23
-0.25
  0
ENDBLK
  5
216
100
AcDbEntity
  8
0
  6
BYBLOCK
 62
0
100
AcDbBlockEnd
  0
ENDSEC
  0
SECTION
  2
ENTITIES
  0
LINE
  5
217
100
AcDbEntity
  8
0
100
AcDbLine
 62
7
  6
CONTINUOUS
 10
80.7196211796
 20
15.7465560172
 11
84.8995780707
 21
16.4838470908
  0
LINE
  5
218
100
AcDbEntity
  8
0
100
AcDbLine
 62
7
  6
CONTINUOUS
 10
18.8516046679
 20
115.6443032022
 11
14.8516046679
 21
111.6443032022
  0
LINE
  5
219
100
AcDbEntity
  8
0
100
AcDbLine
 62
7
  6
CONTINUOUS
 10
11.0516046679
 20
107.8443032022
 11
10.8516046679
 21
107.6443032022
  0
LINE
  5
21A
100
AcDbEntity
  8
0
100
AcDbLine
 62
7
  6
CONTINUOUS
 10
79.7717741298
 20
14.7456311503
 11
70.228163438
 21
14.7456311503
  0
LINE
  5
21B
100
AcDbEntity
  8
0
100
AcDbLine
 62
7
  6
CONTINUOUS
 10
85.7517127592
 20
15.2959806471
 11
86.2517127459
 21
15.2960098695
  0
LINE
  5
21C
100
AcDbEntity
  8
0
100
AcDbLine
 62
7
  6
CONTINUOUS
 10
66.1017110351
 20
15.8248322067
 11
66.9017110325
 21
15.8248789625
  0
LINE
  5
21D
100
AcDbEntity
  8
0
100
AcDbLine
 62
7
  6
CONTINUOUS
 10
54.4516046679
 20
16.3443032022
 11
57.0516046675
 21
16.3443032022
  0
LINE
  5
21E
100
AcDbEntity
  8
0
100
AcDbLine
 62
7
  6
CONTINUOUS
 10
57.6016730605
 20
16.4743354254
 11
66.101673046
 21
16.474832206
  0
LINE
  5
21F
100
AcDbEntity
  8
0
100
AcDbLine
 62
7
  6
CONTINUOUS
 10
68.2754117509
 20
16.4749592496
 11
68.7516555034
 21
16.4749870835
  0
LINE
  5
220
100
AcDbEntity
  8
0
100
AcDbLine
 62
7
  6
CONTINUOUS
 10
10.8516046679
 20
17.6456942647
 11
80.8516046679
 21
17.6456942647
  0
LINE
  5
221
100
AcDbEntity
  8
0
100
AcDbLine
 62
7
  6
CONTINUOUS
 10
80.8516046679
 20
18.1456942642
 11
75.8516046679
 21
18.1456942642
  0
LINE
  5
222
100
AcDbEntity
  8
0
100
AcDbLine
 62
7
  6
CONTINUOUS
 10
45.5516046672
 20
22.6443032022
 11
36.1516046679
 21
22.6443032022
  0
LINE
  5
223
100
AcDbEntity
  8
0
100
AcDbLine
 62
7
  6
CONTINUOUS
 10
28.8516046679
 20
22.7443032022
 11
17.8516046679
 21
22.7443032022
  0
LINE
  5
224
100
AcDbEntity
  8
0
100
AcDbLine
 62
7
  6
CONTINUOUS
 10
86.6512919482
 20
23.0960332351
 11
86.5512802628
 21
23.0960273899
  0
LINE
  5
225
100
AcDbEntity
  8
0
100
AcDbLine
 62
7
  6
CONTINUOUS
 10
32.8516046686
 20
24.7443032018
 11
28.8516046679
 21
24.7443032018
  0
LINE
  5
226
100
AcDbEntity
  8
0
100
AcDbLine
 62
7
  6
CONTINUOUS
 10
20.7516046679
 20
25.2443032022
 11
25.9516046679
 21
25.2443032022
  0
LINE
  5
227
100
AcDbEntity
  8
0
100
AcDbLine
 62
7
  6
CONTINUOUS
 10
75.8516046679
 20
25.7456942507
 11
80.8516046679
 21
25.7456942507
  0
LINE
  5
228
100
AcDbEntity
  8
0
100
AcDbLine
 62
7
  6
CONTINUOUS
 10
25.0516046678
 20
26.0693032022
 11
23.5516046678
 21
26.0693032022
  0
LINE
  5
229
100
AcDbEntity
  8
0
100
AcDbLine
 62
7
  6
CONTINUOUS
 10
85.2511020055
 20
26.2459514064
 11
80.8660216836
 21
26.2459514064
  0
LINE
  5
22A
100
AcDbEntity
  8
0
100
AcDbLine
 62
7
  6
CONTINUOUS
 10
23.5516046682
 20
26.2693032026
 11
25.0516046682
 21
26.2693032026
  0
LINE
  5
22B
100
AcDbEntity
  8
0
100
AcDbLine
 62
7
  6
CONTINUOUS
 10
23.1516046678
 20
26.7443032022
 11
21.6516046678
 21
26.7443032022
  0
LINE
  5
22C
100
AcDbEntity
  8
0
100
AcDbLine
 62
7
  6
CONTINUOUS
 10
21.6516046679
 20
26.9443032015
 11
23.1516046714
 21
26.9443032015
  0
LINE
  5
22D
100
AcDbEntity
  8
0
100
AcDbLine
 62
7
  6
CONTINUOUS
 10
24.1166046677
 20
27.0844955817
 11
22.5866046684
 21
27.0844955817
  0
LINE
  5
22E
100
AcDbEntity
  8
0
100
AcDbLine
 62
7
  6
CONTINUOUS
 10
85.7510494048
 20
27.1459923166
 11
85.9510494037
 21
27.1459923166
  0
LINE
  5
22F
100
AcDbEntity
  8
0
100
AcDbLine
 62
7
  6
CONTINUOUS
 10
26.3516046674
 20
27.3443032021
 11
25.2516046677
 21
27.3443032025
  0
LINE
  5
230
100
AcDbEntity
  8
0
100
AcDbLine
 62
7
  6
CONTINUOUS
 10
21.4516046681
 20
27.344303204
 11
20.3516046683
 21
27.3443032044
  0
LINE
  5
231
100
AcDbEntity
  8
0
100
AcDbLine
 62
7
  6
CONTINUOUS
 10
22.7866046685
 20
27.5943032024
 11
23.9166046674
 21
27.5943032024
  0
LINE
  5
232
100
AcDbEntity
  8
0
100
AcDbLine
 62
7
  6
CONTINUOUS
 10
24.5516046682
 20
28.3943032026
 11
24.1166046677
 21
28.3943032026
  0
LINE
  5
233
100
AcDbEntity
  8
0
100
AcDbLine
 62
7
  6
CONTINUOUS
 10
22.5866046684
 20
28.3943032026
 11
22.1516046679
 21
28.3943032026
  0
LINE
  5
234
100
AcDbEntity
  8
0
100
AcDbLine
 62
7
  6
CONTINUOUS
 10
80.8516046679
 20
28.4456942485
 11
75.8516046679
 21
28.4456942474
  0
LINE
  5
235
100
AcDbEntity
  8
0
100
AcDbLine
 62
7
  6
CONTINUOUS
 10
36.1516046679
 20
28.6443032022
 11
45.5516046672
 21
28.6443032022
  0
LINE
  5
236
100
AcDbEntity
  8
0
100
AcDbLine
 62
7
  6
CONTINUOUS
 10
22.1516046679
 20
28.6943032015
 11
22.5866046684
 21
28.6943032015
  0
LINE
  5
237
100
AcDbEntity
  8
0
100
AcDbLine
 62
7
  6
CONTINUOUS
 10
24.1166046677
 20
28.6943032015
 11
24.5516046682
 21
28.6943032015
  0
LINE
  5
238
100
AcDbEntity
  8
0
100
AcDbLine
 62
7
  6
CONTINUOUS
 10
24.5516046682
 20
29.1943032015
 11
24.1166046677
 21
29.1943032015
  0
LINE
  5
239
100
AcDbEntity
  8
0
100
AcDbLine
 62
7
  6
CONTINUOUS
 10
22.5866046684
 20
29.1943032015
 11
22.1516046679
 21
29.1943032015
  0
LINE
  5
23A
100
AcDbEntity
  8
0
100
AcDbLine
 62
7
  6
CONTINUOUS
 10
10.8516046679
 20
17.6443032022
 11
10.8516046679
 21
44.9943032018
  0
LINE
  5
23B
100
AcDbEntity
  8
0
100
AcDbLine
 62
7
  6
CONTINUOUS
 10
10.8516046679
 20
80.2943032026
 11
10.8516046679
 21
107.6443032022
  0
LINE
  5
23C
100
AcDbEntity
  8
0
100
AcDbLine
 62
7
  6
CONTINUOUS
 10
11.0516046679
 20
107.6443032022
 11
11.0516046679
 21
112.1416436501
  0
LINE
  5
23D
100
AcDbEntity
  8
0
100
AcDbLine
 62
7
  6
CONTINUOUS
 10
11.5516046679
 20
107.6416436337
 11
11.5516046679
 21
112.6416436501
  0
LINE
  5
23E
100
AcDbEntity
  8
0
100
AcDbLine
 62
7
  6
CONTINUOUS
 10
13.8516046679
 20
104.3943032022
 11
13.8516046679
 21
102.8943032022
  0
LINE
  5
23F
100
AcDbEntity
  8
0
100
AcDbLine
 62
7
  6
CONTINUOUS
 10
22.1516046679
 20
29.4943032023
 11
22.5866046684
 21
29.4943032023
  0
LINE
  5
240
100
AcDbEntity
  8
0
100
AcDbLine
 62
7
  6
CONTINUOUS
 10
24.1166046677
 20
29.4943032023
 11
24.5516046682
 21
29.4943032023
  0
LINE
  5
241
100
AcDbEntity
  8
0
100
AcDbLine
 62
7
  6
CONTINUOUS
 10
24.5516046682
 20
29.9943032023
 11
24.1166046677
 21
29.9943032023
  0
LINE
  5
242
100
AcDbEntity
  8
0
100
AcDbLine
 62
7
  6
CONTINUOUS
 10
22.5866046684
 20
29.9943032023
 11
22.1516046679
 21
29.9943032023
  0
LINE
  5
243
100
AcDbEntity
  8
0
100
AcDbLine
 62
7
  6
CONTINUOUS
 10
22.1516046679
 20
30.294303203
 11
22.5866046684
 21
30.294303203
  0
LINE
  5
244
100
AcDbEntity
  8
0
100
AcDbLine
 62
7
  6
CONTINUOUS
 10
24.1166046677
 20
30.294303203
 11
24.5516046682
 21
30.294303203
  0
LINE
  5
245
100
AcDbEntity
  8
0
100
AcDbLine
 62
7
  6
CONTINUOUS
 10
51.5516046671
 20
30.6443032022
 11
47.5516046671
 21
30.6443032022
  0
LINE
  5
246
100
AcDbEntity
  8
0
100
AcDbLine
 62
7
  6
CONTINUOUS
 10
24.5516046682
 20
30.794303203
 11
24.1166046677
 21
30.794303203
  0
LINE
  5
247
100
AcDbEntity
  8
0
100
AcDbLine
 62
7
  6
CONTINUOUS
 10
22.5866046684
 20
30.794303203
 11
22.1516046679
 21
30.794303203
  0
LINE
  5
248
100
AcDbEntity
  8
0
100
AcDbLine
 62
7
  6
CONTINUOUS
 10
22.1516046679
 20
31.0943032019
 11
22.5866046684
 21
31.0943032019
  0
LINE
  5
249
100
AcDbEntity
  8
0
100
AcDbLine
 62
7
  6
CONTINUOUS
 10
24.1166046677
 20
31.0943032019
 11
24.5516046682
 21
31.0943032019
  0
LINE
  5
24A
100
AcDbEntity
  8
0
100
AcDbLine
 62
7
  6
CONTINUOUS
 10
24.5516046682
 20
31.5943032019
 11
24.1166046677
 21
31.5943032019
  0
LINE
  5
24B
100
AcDbEntity
  8
0
100
AcDbLine
 62
7
  6
CONTINUOUS
 10
22.5866046684
 20
31.5943032019
 11
22.1516046679
 21
31.5943032019
  0
LINE
  5
24C
100
AcDbEntity
  8
0
100
AcDbLine
 62
7
  6
CONTINUOUS
 10
22.1516046679
 20
31.8943032026
 11
22.5866046684
 21
31.8943032026
  0
LINE
  5
24D
100
AcDbEntity
  8
0
100
AcDbLine
 62
7
  6
CONTINUOUS
 10
24.1166046677
 20
31.8943032026
 11
24.5516046682
 21
31.8943032026
  0
LINE
  5
24E
100
AcDbEntity
  8
0
100
AcDbLine
 62
7
  6
CONTINUOUS
 10
24.5516046682
 20
32.3943032026
 11
24.1166046677
 21
32.3943032026
  0
LINE
  5
24F
100
AcDbEntity
  8
0
100
AcDbLine
 62
7
  6
CONTINUOUS
 10
22.5866046684
 20
32.3943032026
 11
22.1516046679
 21
32.3943032026
  0
LINE
  5
250
100
AcDbEntity
  8
0
100
AcDbLine
 62
7
  6
CONTINUOUS
 10
22.1516046679
 20
32.6943032015
 11
22.5866046684
 21
32.6943032015
  0
LINE
  5
251
100
AcDbEntity
  8
0
100
AcDbLine
 62
7
  6
CONTINUOUS
 10
24.1166046677
 20
32.6943032015
 11
24.5516046682
 21
32.6943032015
  0
LINE
  5
252
100
AcDbEntity
  8
0
100
AcDbLine
 62
7
  6
CONTINUOUS
 10
24.5516046682
 20
33.1943032015
 11
24.1166046677
 21
33.1943032015
  0
LINE
  5
253
100
AcDbEntity
  8
0
100
AcDbLine
 62
7
  6
CONTINUOUS
 10
22.5866046684
 20
33.1943032015
 11
22.1516046679
 21
33.1943032015
  0
LINE
  5
254
100
AcDbEntity
  8
0
100
AcDbLine
 62
7
  6
CONTINUOUS
 10
22.1516046679
 20
33.4943032023
 11
22.5866046684
 21
33.4943032023
  0
LINE
  5
255
100
AcDbEntity
  8
0
100
AcDbLine
 62
7
  6
CONTINUOUS
 10
24.1166046677
 20
33.4943032023
 11
24.5516046682
 21
33.4943032023
  0
LINE
  5
256
100
AcDbEntity
  8
0
100
AcDbLine
 62
7
  6
CONTINUOUS
 10
14.8516046679
 20
112.6416436501
 11
14.8516046679
 21
107.6443032022
  0
LINE
  5
257
100
AcDbEntity
  8
0
100
AcDbLine
 62
7
  6
CONTINUOUS
 10
14.8516046679
 20
44.9943032018
 11
14.8516046679
 21
80.2943032026
  0
LINE
  5
258
100
AcDbEntity
  8
0
100
AcDbLine
 62
7
  6
CONTINUOUS
 10
17.8516046679
 20
22.7443032022
 11
17.8516046679
 21
49.5443032022
  0
LINE
  5
259
100
AcDbEntity
  8
0
100
AcDbLine
 62
7
  6
CONTINUOUS
 10
24.5516046682
 20
33.9943032023
 11
24.1166046677
 21
33.9943032023
  0
LINE
  5
25A
100
AcDbEntity
  8
0
100
AcDbLine
 62
7
  6
CONTINUOUS
 10
22.5866046684
 20
33.9943032023
 11
22.1516046679
 21
33.9943032023
  0
LINE
  5
25B
100
AcDbEntity
  8
0
100
AcDbLine
 62
7
  6
CONTINUOUS
 10
22.1516046679
 20
34.294303203
 11
22.5866046684
 21
34.294303203
  0
LINE
  5
25C
100
AcDbEntity
  8
0
100
AcDbLine
 62
7
  6
CONTINUOUS
 10
24.1166046677
 20
34.294303203
 11
24.5516046682
 21
34.294303203
  0
LINE
  5
25D
100
AcDbEntity
  8
0
100
AcDbLine
 62
7
  6
CONTINUOUS
 10
24.5516046682
 20
34.794303203
 11
24.1166046677
 21
34.794303203
  0
LINE
  5
25E
100
AcDbEntity
  8
0
100
AcDbLine
 62
7
  6
CONTINUOUS
 10
22.5866046684
 20
34.794303203
 11
22.1516046679
 21
34.794303203
  0
LINE
  5
25F
100
AcDbEntity
  8
0
100
AcDbLine
 62
7
  6
CONTINUOUS
 10
22.1516046679
 20
35.0943032019
 11
22.5866046684
 21
35.0943032019
  0
LINE
  5
260
100
AcDbEntity
  8
0
100
AcDbLine
 62
7
  6
CONTINUOUS
 10
24.1166046677
 20
35.0943032019
 11
24.5516046682
 21
35.0943032019
  0
LINE
  5
261
100
AcDbEntity
  8
0
100
AcDbLine
 62
7
  6
CONTINUOUS
 10
24.5516046682
 20
35.5943032019
 11
24.1166046677
 21
35.5943032019
  0
LINE
  5
262
100
AcDbEntity
  8
0
100
AcDbLine
 62
7
  6
CONTINUOUS
 10
22.5866046684
 20
35.5943032019
 11
22.1516046679
 21
35.5943032019
  0
LINE
  5
263
100
AcDbEntity
  8
0
100
AcDbLine
 62
7
  6
CONTINUOUS
 10
22.1516046679
 20
35.8943032026
 11
22.5866046684
 21
35.8943032026
  0
LINE
  5
264
100
AcDbEntity
  8
0
100
AcDbLine
 62
7
  6
CONTINUOUS
 10
24.1166046677
 20
35.8943032026
 11
24.5516046682
 21
35.8943032026
  0
LINE
  5
265
100
AcDbEntity
  8
0
100
AcDbLine
 62
7
  6
CONTINUOUS
 10
24.5516046682
 20
36.3943032026
 11
24.1166046677
 21
36.3943032026
  0
LINE
  5
266
100
AcDbEntity
  8
0
100
AcDbLine
 62
7
  6
CONTINUOUS
 10
22.5866046684
 20
36.3943032026
 11
22.1516046679
 21
36.3943032026
  0
LINE
  5
267
100
AcDbEntity
  8
0
100
AcDbLine
 62
7
  6
CONTINUOUS
 10
22.1516046679
 20
36.6943032015
 11
22.5866046684
 21
36.6943032015
  0
LINE
  5
268
100
AcDbEntity
  8
0
100
AcDbLine
 62
7
  6
CONTINUOUS
 10
24.1166046677
 20
36.6943032015
 11
24.5516046682
 21
36.6943032015
  0
LINE
  5
269
100
AcDbEntity
  8
0
100
AcDbLine
 62
7
  6
CONTINUOUS
 10
22.1516046679
 20
37.1943032029
 11
22.5866046684
 21
37.1943032029
  0
LINE
  5
26A
100
AcDbEntity
  8
0
100
AcDbLine
 62
7
  6
CONTINUOUS
 10
24.1166046677
 20
37.1943032029
 11
24.5516046682
 21
37.1943032029
  0
LINE
  5
26B
100
AcDbEntity
  8
0
100
AcDbLine
 62
7
  6
CONTINUOUS
 10
22.1516046679
 20
37.4943032023
 11
22.5866046684
 21
37.4943032023
  0
LINE
  5
26C
100
AcDbEntity
  8
0
100
AcDbLine
 62
7
  6
CONTINUOUS
 10
24.1166046677
 20
37.4943032023
 11
24.5516046682
 21
37.4943032023
  0
LINE
  5
26D
100
AcDbEntity
  8
0
100
AcDbLine
 62
7
  6
CONTINUOUS
 10
57.051640916
 20
17.0243032806
 11
57.6016730605
 21
16.4743354254
  0
LINE
  5
26E
100
AcDbEntity
  8
0
100
AcDbLine
 62
7
  6
CONTINUOUS
 10
20.3516046732
 20
46.6443032287
 11
20.3516046728
 21
44.9443032025
  0
LINE
  5
26F
100
AcDbEntity
  8
0
100
AcDbLine
 62
7
  6
CONTINUOUS
 10
20.3516046683
 20
27.3443032044
 11
20.3516046679
 21
25.6443032024
  0
LINE
  5
270
100
AcDbEntity
  8
0
100
AcDbLine
 62
7
  6
CONTINUOUS
 10
20.9516046675
 20
53.3943032022
 11
20.9516046675
 21
57.8943032022
  0
LINE
  5
271
100
AcDbEntity
  8
0
100
AcDbLine
 62
7
  6
CONTINUOUS
 10
20.9516046675
 20
70.3943032022
 11
20.9516046675
 21
74.8943032022
  0
LINE
  5
272
100
AcDbEntity
  8
0
100
AcDbLine
 62
7
  6
CONTINUOUS
 10
21.4516046679
 20
26.9443032022
 11
21.4516046681
 21
27.344303204
  0
LINE
  5
273
100
AcDbEntity
  8
0
100
AcDbLine
 62
7
  6
CONTINUOUS
 10
21.4516046779
 20
44.9443032024
 11
21.4516046781
 21
45.3443032398
  0
LINE
  5
274
100
AcDbEntity
  8
0
100
AcDbLine
 62
7
  6
CONTINUOUS
 10
21.6516046679
 20
45.3443032019
 11
21.6516046679
 21
26.9443032015
  0
LINE
  5
275
100
AcDbEntity
  8
0
100
AcDbLine
 62
7
  6
CONTINUOUS
 10
21.9516046675
 20
115.6443032022
 11
21.9516046675
 21
107.6443032022
  0
LINE
  5
276
100
AcDbEntity
  8
0
100
AcDbLine
 62
7
  6
CONTINUOUS
 10
21.9516046675
 20
73.8943032022
 11
21.9516046675
 21
71.3943032022
  0
LINE
  5
277
100
AcDbEntity
  8
0
100
AcDbLine
 62
7
  6
CONTINUOUS
 10
21.9516046675
 20
56.8943032022
 11
21.9516046675
 21
54.3943032022
  0
LINE
  5
278
100
AcDbEntity
  8
0
100
AcDbLine
 62
7
  6
CONTINUOUS
 10
22.1516046679
 20
28.3943032026
 11
22.1516046679
 21
28.6943032015
  0
LINE
  5
279
100
AcDbEntity
  8
0
100
AcDbLine
 62
7
  6
CONTINUOUS
 10
22.1516046679
 20
29.1943032015
 11
22.1516046679
 21
29.4943032023
  0
LINE
  5
27A
100
AcDbEntity
  8
0
100
AcDbLine
 62
7
  6
CONTINUOUS
 10
22.1516046679
 20
29.9943032023
 11
22.1516046679
 21
30.294303203
  0
LINE
  5
27B
100
AcDbEntity
  8
0
100
AcDbLine
 62
7
  6
CONTINUOUS
 10
22.1516046679
 20
30.794303203
 11
22.1516046679
 21
31.0943032019
  0
LINE
  5
27C
100
AcDbEntity
  8
0
100
AcDbLine
 62
7
  6
CONTINUOUS
 10
22.1516046679
 20
31.5943032019
 11
22.1516046679
 21
31.8943032026
  0
LINE
  5
27D
100
AcDbEntity
  8
0
100
AcDbLine
 62
7
  6
CONTINUOUS
 10
22.1516046679
 20
32.3943032026
 11
22.1516046679
 21
32.6943032015
  0
LINE
  5
27E
100
AcDbEntity
  8
0
100
AcDbLine
 62
7
  6
CONTINUOUS
 10
22.1516046679
 20
33.1943032015
 11
22.1516046679
 21
33.4943032023
  0
LINE
  5
27F
100
AcDbEntity
  8
0
100
AcDbLine
 62
7
  6
CONTINUOUS
 10
22.1516046679
 20
33.9943032023
 11
22.1516046679
 21
34.294303203
  0
LINE
  5
280
100
AcDbEntity
  8
0
100
AcDbLine
 62
7
  6
CONTINUOUS
 10
22.1516046679
 20
34.794303203
 11
22.1516046679
 21
35.0943032019
  0
LINE
  5
281
100
AcDbEntity
  8
0
100
AcDbLine
 62
7
  6
CONTINUOUS
 10
22.1516046679
 20
35.5943032019
 11
22.1516046679
 21
35.8943032026
  0
LINE
  5
282
100
AcDbEntity
  8
0
100
AcDbLine
 62
7
  6
CONTINUOUS
 10
22.1516046679
 20
36.3943032026
 11
22.1516046679
 21
36.6943032015
  0
LINE
  5
283
100
AcDbEntity
  8
0
100
AcDbLine
 62
7
  6
CONTINUOUS
 10
22.1516046679
 20
37.1943032029
 11
22.1516046679
 21
37.4943032023
  0
LINE
  5
284
100
AcDbEntity
  8
0
100
AcDbLine
 62
7
  6
CONTINUOUS
 10
22.1516046679
 20
37.9943032023
 11
22.1516046679
 21
38.294303203
  0
LINE
  5
285
100
AcDbEntity
  8
0
100
AcDbLine
 62
7
  6
CONTINUOUS
 10
22.1516046679
 20
38.794303203
 11
22.1516046679
 21
39.0943032019
  0
LINE
  5
286
100
AcDbEntity
  8
0
100
AcDbLine
 62
7
  6
CONTINUOUS
 10
22.1516046679
 20
39.5943032019
 11
22.1516046679
 21
39.8943032026
  0
LINE
  5
287
100
AcDbEntity
  8
0
100
AcDbLine
 62
7
  6
CONTINUOUS
 10
22.1516046679
 20
40.3943032026
 11
22.1516046679
 21
40.6943032015
  0
LINE
  5
288
100
AcDbEntity
  8
0
100
AcDbLine
 62
7
  6
CONTINUOUS
 10
22.1516046679
 20
41.1943032015
 11
22.1516046679
 21
41.4943032023
  0
LINE
  5
289
100
AcDbEntity
  8
0
100
AcDbLine
 62
7
  6
CONTINUOUS
 10
22.1516046679
 20
41.9943032023
 11
22.1516046679
 21
42.294303203
  0
LINE
  5
28A
100
AcDbEntity
  8
0
100
AcDbLine
 62
7
  6
CONTINUOUS
 10
22.1516046679
 20
42.794303203
 11
22.1516046679
 21
43.0943032019
  0
LINE
  5
28B
100
AcDbEntity
  8
0
100
AcDbLine
 62
7
  6
CONTINUOUS
 10
22.1516046679
 20
43.5943032019
 11
22.1516046679
 21
43.8943032026
  0
LINE
  5
28C
100
AcDbEntity
  8
0
100
AcDbLine
 62
7
  6
CONTINUOUS
 10
22.5866046684
 20
27.0844955817
 11
22.5866046684
 21
28.3943032026
  0
LINE
  5
28D
100
AcDbEntity
  8
0
100
AcDbLine
 62
7
  6
CONTINUOUS
 10
22.5866046684
 20
28.6943032015
 11
22.5866046684
 21
29.1943032015
  0
LINE
  5
28E
100
AcDbEntity
  8
0
100
AcDbLine
 62
7
  6
CONTINUOUS
 10
22.5866046684
 20
29.4943032023
 11
22.5866046684
 21
29.9943032023
  0
LINE
  5
28F
100
AcDbEntity
  8
0
100
AcDbLine
 62
7
  6
CONTINUOUS
 10
22.5866046684
 20
30.294303203
 11
22.5866046684
 21
30.794303203
  0
LINE
  5
290
100
AcDbEntity
  8
0
100
AcDbLine
 62
7
  6
CONTINUOUS
 10
22.5866046684
 20
31.0943032019
 11
22.5866046684
 21
31.5943032019
  0
LINE
  5
291
100
AcDbEntity
  8
0
100
AcDbLine
 62
7
  6
CONTINUOUS
 10
22.5866046684
 20
31.8943032026
 11
22.5866046684
 21
32.3943032026
  0
LINE
  5
292
100
AcDbEntity
  8
0
100
AcDbLine
 62
7
  6
CONTINUOUS
 10
22.5866046684
 20
32.6943032015
 11
22.5866046684
 21
33.1943032015
  0
LINE
  5
293
100
AcDbEntity
  8
0
100
AcDbLine
 62
7
  6
CONTINUOUS
 10
22.5866046684
 20
33.4943032023
 11
22.5866046684
 21
33.9943032023
  0
LINE
  5
294
100
AcDbEntity
  8
0
100
AcDbLine
 62
7
  6
CONTINUOUS
 10
22.5866046684
 20
34.294303203
 11
22.5866046684
 21
34.794303203
  0
LINE
  5
295
100
AcDbEntity
  8
0
100
AcDbLine
 62
7
  6
CONTINUOUS
 10
22.5866046684
 20
35.0943032019
 11
22.5866046684
 21
35.5943032019
  0
LINE
  5
296
100
AcDbEntity
  8
0
100
AcDbLine
 62
7
  6
CONTINUOUS
 10
22.5866046684
 20
35.8943032026
 11
22.5866046684
 21
36.3943032026
  0
LINE
  5
297
100
AcDbEntity
  8
0
100
AcDbLine
 62
7
  6
CONTINUOUS
 10
22.5866046684
 20
36.6943032015
 11
22.5866046684
 21
37.1943032029
  0
LINE
  5
298
100
AcDbEntity
  8
0
100
AcDbLine
 62
7
  6
CONTINUOUS
 10
22.5866046684
 20
37.4943032023
 11
22.5866046684
 21
37.9943032023
  0
LINE
  5
299
100
AcDbEntity
  8
0
100
AcDbLine
 62
7
  6
CONTINUOUS
 10
22.5866046684
 20
38.294303203
 11
22.5866046684
 21
38.794303203
  0
LINE
  5
29A
100
AcDbEntity
  8
0
100
AcDbLine
 62
7
  6
CONTINUOUS
 10
22.5866046684
 20
39.0943032019
 11
22.5866046684
 21
39.5943032019
  0
LINE
  5
29B
100
AcDbEntity
  8
0
100
AcDbLine
 62
7
  6
CONTINUOUS
 10
22.5866046684
 20
39.8943032026
 11
22.5866046684
 21
40.3943032026
  0
LINE
  5
29C
100
AcDbEntity
  8
0
100
AcDbLine
 62
7
  6
CONTINUOUS
 10
22.5866046684
 20
40.6943032015
 11
22.5866046684
 21
41.1943032015
  0
LINE
  5
29D
100
AcDbEntity
  8
0
100
AcDbLine
 62
7
  6
CONTINUOUS
 10
22.5866046684
 20
41.4943032023
 11
22.5866046684
 21
41.9943032023
  0
LINE
  5
29E
100
AcDbEntity
  8
0
100
AcDbLine
 62
7
  6
CONTINUOUS
 10
22.5866046684
 20
42.294303203
 11
22.5866046684
 21
42.794303203
  0
LINE
  5
29F
100
AcDbEntity
  8
0
100
AcDbLine
 62
7
  6
CONTINUOUS
 10
22.5866046684
 20
43.0943032019
 11
22.5866046684
 21
43.5943032019
  0
LINE
  5
2A0
100
AcDbEntity
  8
0
100
AcDbLine
 62
7
  6
CONTINUOUS
 10
22.5866046684
 20
43.8943032026
 11
22.5866046684
 21
45.2041108236
  0
LINE
  5
2A1
100
AcDbEntity
  8
0
100
AcDbLine
 62
7
  6
CONTINUOUS
 10
22.7866046685
 20
44.694303202
 11
22.7866046685
 21
27.5943032024
  0
LINE
  5
2A2
100
AcDbEntity
  8
0
100
AcDbLine
 62
7
  6
CONTINUOUS
 10
23.1516046679
 20
119.4443032022
 11
23.1516046679
 21
107.6443032022
  0
LINE
  5
2A3
100
AcDbEntity
  8
0
100
AcDbLine
 62
7
  6
CONTINUOUS
 10
24.5516046682
 20
37.9943032023
 11
24.1166046677
 21
37.9943032023
  0
LINE
  5
2A4
100
AcDbEntity
  8
0
100
AcDbLine
 62
7
  6
CONTINUOUS
 10
22.5866046684
 20
37.9943032023
 11
22.1516046679
 21
37.9943032023
  0
LINE
  5
2A5
100
AcDbEntity
  8
0
100
AcDbLine
 62
7
  6
CONTINUOUS
 10
22.1516046679
 20
38.294303203
 11
22.5866046684
 21
38.294303203
  0
LINE
  5
2A6
100
AcDbEntity
  8
0
100
AcDbLine
 62
7
  6
CONTINUOUS
 10
24.1166046677
 20
38.294303203
 11
24.5516046682
 21
38.294303203
  0
LINE
  5
2A7
100
AcDbEntity
  8
0
100
AcDbLine
 62
7
  6
CONTINUOUS
 10
24.5516046682
 20
38.794303203
 11
24.1166046677
 21
38.794303203
  0
LINE
  5
2A8
100
AcDbEntity
  8
0
100
AcDbLine
 62
7
  6
CONTINUOUS
 10
22.5866046684
 20
38.794303203
 11
22.1516046679
 21
38.794303203
  0
LINE
  5
2A9
100
AcDbEntity
  8
0
100
AcDbLine
 62
7
  6
CONTINUOUS
 10
22.1516046679
 20
39.0943032019
 11
22.5866046684
 21
39.0943032019
  0
LINE
  5
2AA
100
AcDbEntity
  8
0
100
AcDbLine
 62
7
  6
CONTINUOUS
 10
24.1166046677
 20
39.0943032019
 11
24.5516046682
 21
39.0943032019
  0
LINE
  5
2AB
100
AcDbEntity
  8
0
100
AcDbLine
 62
7
  6
CONTINUOUS
 10
38.8516046679
 20
39.2443032018
 11
34.1516046675
 21
39.2443032018
  0
LINE
  5
2AC
100
AcDbEntity
  8
0
100
AcDbLine
 62
7
  6
CONTINUOUS
 10
24.5516046682
 20
39.5943032019
 11
24.1166046677
 21
39.5943032019
  0
LINE
  5
2AD
100
AcDbEntity
  8
0
100
AcDbLine
 62
7
  6
CONTINUOUS
 10
22.5866046684
 20
39.5943032019
 11
22.1516046679
 21
39.5943032019
  0
LINE
  5
2AE
100
AcDbEntity
  8
0
100
AcDbLine
 62
7
  6
CONTINUOUS
 10
47.5516046671
 20
39.6443032022
 11
51.5516046671
 21
39.6443032022
  0
LINE
  5
2AF
100
AcDbEntity
  8
0
100
AcDbLine
 62
7
  6
CONTINUOUS
 10
22.1516046679
 20
39.8943032026
 11
22.5866046684
 21
39.8943032026
  0
LINE
  5
2B0
100
AcDbEntity
  8
0
100
AcDbLine
 62
7
  6
CONTINUOUS
 10
24.1166046677
 20
39.8943032026
 11
24.5516046682
 21
39.8943032026
  0
LINE
  5
2B1
100
AcDbEntity
  8
0
100
AcDbLine
 62
7
  6
CONTINUOUS
 10
24.5516046682
 20
40.3943032026
 11
24.1166046677
 21
40.3943032026
  0
LINE
  5
2B2
100
AcDbEntity
  8
0
100
AcDbLine
 62
7
  6
CONTINUOUS
 10
22.5866046684
 20
40.3943032026
 11
22.1516046679
 21
40.3943032026
  0
LINE
  5
2B3
100
AcDbEntity
  8
0
100
AcDbLine
 62
7
  6
CONTINUOUS
 10
22.1516046679
 20
40.6943032015
 11
22.5866046684
 21
40.6943032015
  0
LINE
  5
2B4
100
AcDbEntity
  8
0
100
AcDbLine
 62
7
  6
CONTINUOUS
 10
24.1166046677
 20
40.6943032015
 11
24.5516046682
 21
40.6943032015
  0
LINE
  5
2B5
100
AcDbEntity
  8
0
100
AcDbLine
 62
7
  6
CONTINUOUS
 10
24.5516046682
 20
41.1943032015
 11
24.1166046677
 21
41.1943032015
  0
LINE
  5
2B6
100
AcDbEntity
  8
0
100
AcDbLine
 62
7
  6
CONTINUOUS
 10
22.5866046684
 20
41.1943032015
 11
22.1516046679
 21
41.1943032015
  0
LINE
  5
2B7
100
AcDbEntity
  8
0
100
AcDbLine
 62
7
  6
CONTINUOUS
 10
22.1516046679
 20
41.4943032023
 11
22.5866046684
 21
41.4943032023
  0
LINE
  5
2B8
100
AcDbEntity
  8
0
100
AcDbLine
 62
7
  6
CONTINUOUS
 10
24.1166046677
 20
41.4943032023
 11
24.5516046682
 21
41.4943032023
  0
LINE
  5
2B9
100
AcDbEntity
  8
0
100
AcDbLine
 62
7
  6
CONTINUOUS
 10
24.5516046682
 20
41.9943032023
 11
24.1166046677
 21
41.9943032023
  0
LINE
  5
2BA
100
AcDbEntity
  8
0
100
AcDbLine
 62
7
  6
CONTINUOUS
 10
22.5866046684
 20
41.9943032023
 11
22.1516046679
 21
41.9943032023
  0
LINE
  5
2BB
100
AcDbEntity
  8
0
100
AcDbLine
 62
7
  6
CONTINUOUS
 10
22.1516046679
 20
42.294303203
 11
22.5866046684
 21
42.294303203
  0
LINE
  5
2BC
100
AcDbEntity
  8
0
100
AcDbLine
 62
7
  6
CONTINUOUS
 10
24.1166046677
 20
42.294303203
 11
24.5516046682
 21
42.294303203
  0
LINE
  5
2BD
100
AcDbEntity
  8
0
100
AcDbLine
 62
7
  6
CONTINUOUS
 10
23.3516046679
 20
26.2693032017
 11
23.3516046679
 21
26.5443032019
  0
LINE
  5
2BE
100
AcDbEntity
  8
0
100
AcDbLine
 62
7
  6
CONTINUOUS
 10
23.3516046679
 20
45.7443032017
 11
23.3516046679
 21
46.0193032019
  0
LINE
  5
2BF
100
AcDbEntity
  8
0
100
AcDbLine
 62
7
  6
CONTINUOUS
 10
23.5516046682
 20
46.0193032026
 11
23.5516046682
 21
45.7443032037
  0
LINE
  5
2C0
100
AcDbEntity
  8
0
100
AcDbLine
 62
7
  6
CONTINUOUS
 10
23.5516046682
 20
26.5443032015
 11
23.5516046682
 21
26.2693032026
  0
LINE
  5
2C1
100
AcDbEntity
  8
0
100
AcDbLine
 62
7
  6
CONTINUOUS
 10
23.7516046679
 20
107.6443032022
 11
23.7516046679
 21
119.4443032022
  0
LINE
  5
2C2
100
AcDbEntity
  8
0
100
AcDbLine
 62
7
  6
CONTINUOUS
 10
23.9166046674
 20
27.5943032024
 11
23.9166046674
 21
44.694303202
  0
LINE
  5
2C3
100
AcDbEntity
  8
0
100
AcDbLine
 62
7
  6
CONTINUOUS
 10
24.1166046677
 20
45.2041108236
 11
24.1166046677
 21
43.8943032026
  0
LINE
  5
2C4
100
AcDbEntity
  8
0
100
AcDbLine
 62
7
  6
CONTINUOUS
 10
24.1166046677
 20
43.5943032019
 11
24.1166046677
 21
43.0943032019
  0
LINE
  5
2C5
100
AcDbEntity
  8
0
100
AcDbLine
 62
7
  6
CONTINUOUS
 10
24.1166046677
 20
42.794303203
 11
24.1166046677
 21
42.294303203
  0
LINE
  5
2C6
100
AcDbEntity
  8
0
100
AcDbLine
 62
7
  6
CONTINUOUS
 10
24.1166046677
 20
41.9943032023
 11
24.1166046677
 21
41.4943032023
  0
LINE
  5
2C7
100
AcDbEntity
  8
0
100
AcDbLine
 62
7
  6
CONTINUOUS
 10
24.1166046677
 20
41.1943032015
 11
24.1166046677
 21
40.6943032015
  0
LINE
  5
2C8
100
AcDbEntity
  8
0
100
AcDbLine
 62
7
  6
CONTINUOUS
 10
24.1166046677
 20
40.3943032026
 11
24.1166046677
 21
39.8943032026
  0
LINE
  5
2C9
100
AcDbEntity
  8
0
100
AcDbLine
 62
7
  6
CONTINUOUS
 10
24.1166046677
 20
39.5943032019
 11
24.1166046677
 21
39.0943032019
  0
LINE
  5
2CA
100
AcDbEntity
  8
0
100
AcDbLine
 62
7
  6
CONTINUOUS
 10
24.1166046677
 20
38.794303203
 11
24.1166046677
 21
38.294303203
  0
LINE
  5
2CB
100
AcDbEntity
  8
0
100
AcDbLine
 62
7
  6
CONTINUOUS
 10
24.1166046677
 20
37.9943032023
 11
24.1166046677
 21
37.4943032023
  0
LINE
  5
2CC
100
AcDbEntity
  8
0
100
AcDbLine
 62
7
  6
CONTINUOUS
 10
24.1166046677
 20
37.1943032029
 11
24.1166046677
 21
36.6943032015
  0
LINE
  5
2CD
100
AcDbEntity
  8
0
100
AcDbLine
 62
7
  6
CONTINUOUS
 10
24.1166046677
 20
36.3943032026
 11
24.1166046677
 21
35.8943032026
  0
LINE
  5
2CE
100
AcDbEntity
  8
0
100
AcDbLine
 62
7
  6
CONTINUOUS
 10
24.1166046677
 20
35.5943032019
 11
24.1166046677
 21
35.0943032019
  0
LINE
  5
2CF
100
AcDbEntity
  8
0
100
AcDbLine
 62
7
  6
CONTINUOUS
 10
24.1166046677
 20
34.794303203
 11
24.1166046677
 21
34.294303203
  0
LINE
  5
2D0
100
AcDbEntity
  8
0
100
AcDbLine
 62
7
  6
CONTINUOUS
 10
24.1166046677
 20
33.9943032023
 11
24.1166046677
 21
33.4943032023
  0
LINE
  5
2D1
100
AcDbEntity
  8
0
100
AcDbLine
 62
7
  6
CONTINUOUS
 10
24.1166046677
 20
33.1943032015
 11
24.1166046677
 21
32.6943032015
  0
LINE
  5
2D2
100
AcDbEntity
  8
0
100
AcDbLine
 62
7
  6
CONTINUOUS
 10
24.1166046677
 20
32.3943032026
 11
24.1166046677
 21
31.8943032026
  0
LINE
  5
2D3
100
AcDbEntity
  8
0
100
AcDbLine
 62
7
  6
CONTINUOUS
 10
24.1166046677
 20
31.5943032019
 11
24.1166046677
 21
31.0943032019
  0
LINE
  5
2D4
100
AcDbEntity
  8
0
100
AcDbLine
 62
7
  6
CONTINUOUS
 10
24.1166046677
 20
30.794303203
 11
24.1166046677
 21
30.294303203
  0
LINE
  5
2D5
100
AcDbEntity
  8
0
100
AcDbLine
 62
7
  6
CONTINUOUS
 10
24.1166046677
 20
29.9943032023
 11
24.1166046677
 21
29.4943032023
  0
LINE
  5
2D6
100
AcDbEntity
  8
0
100
AcDbLine
 62
7
  6
CONTINUOUS
 10
24.1166046677
 20
29.1943032015
 11
24.1166046677
 21
28.6943032015
  0
LINE
  5
2D7
100
AcDbEntity
  8
0
100
AcDbLine
 62
7
  6
CONTINUOUS
 10
24.1166046677
 20
28.3943032026
 11
24.1166046677
 21
27.0844955817
  0
LINE
  5
2D8
100
AcDbEntity
  8
0
100
AcDbLine
 62
7
  6
CONTINUOUS
 10
24.5516046682
 20
43.8943032026
 11
24.5516046682
 21
43.5943032019
  0
LINE
  5
2D9
100
AcDbEntity
  8
0
100
AcDbLine
 62
7
  6
CONTINUOUS
 10
24.5516046682
 20
43.0943032019
 11
24.5516046682
 21
42.794303203
  0
LINE
  5
2DA
100
AcDbEntity
  8
0
100
AcDbLine
 62
7
  6
CONTINUOUS
 10
24.5516046682
 20
42.294303203
 11
24.5516046682
 21
41.9943032023
  0
LINE
  5
2DB
100
AcDbEntity
  8
0
100
AcDbLine
 62
7
  6
CONTINUOUS
 10
24.5516046682
 20
41.4943032023
 11
24.5516046682
 21
41.1943032015
  0
LINE
  5
2DC
100
AcDbEntity
  8
0
100
AcDbLine
 62
7
  6
CONTINUOUS
 10
24.5516046682
 20
40.6943032015
 11
24.5516046682
 21
40.3943032026
  0
LINE
  5
2DD
100
AcDbEntity
  8
0
100
AcDbLine
 62
7
  6
CONTINUOUS
 10
24.5516046682
 20
39.8943032026
 11
24.5516046682
 21
39.5943032019
  0
LINE
  5
2DE
100
AcDbEntity
  8
0
100
AcDbLine
 62
7
  6
CONTINUOUS
 10
24.5516046682
 20
39.0943032019
 11
24.5516046682
 21
38.794303203
  0
LINE
  5
2DF
100
AcDbEntity
  8
0
100
AcDbLine
 62
7
  6
CONTINUOUS
 10
24.5516046682
 20
38.294303203
 11
24.5516046682
 21
37.9943032023
  0
LINE
  5
2E0
100
AcDbEntity
  8
0
100
AcDbLine
 62
7
  6
CONTINUOUS
 10
24.5516046682
 20
37.4943032023
 11
24.5516046682
 21
37.1943032029
  0
LINE
  5
2E1
100
AcDbEntity
  8
0
100
AcDbLine
 62
7
  6
CONTINUOUS
 10
24.5516046682
 20
36.6943032015
 11
24.5516046682
 21
36.3943032026
  0
LINE
  5
2E2
100
AcDbEntity
  8
0
100
AcDbLine
 62
7
  6
CONTINUOUS
 10
24.5516046682
 20
35.8943032026
 11
24.5516046682
 21
35.5943032019
  0
LINE
  5
2E3
100
AcDbEntity
  8
0
100
AcDbLine
 62
7
  6
CONTINUOUS
 10
24.5516046682
 20
35.0943032019
 11
24.5516046682
 21
34.794303203
  0
LINE
  5
2E4
100
AcDbEntity
  8
0
100
AcDbLine
 62
7
  6
CONTINUOUS
 10
24.5516046682
 20
34.294303203
 11
24.5516046682
 21
33.9943032023
  0
LINE
  5
2E5
100
AcDbEntity
  8
0
100
AcDbLine
 62
7
  6
CONTINUOUS
 10
24.5516046682
 20
33.4943032023
 11
24.5516046682
 21
33.1943032015
  0
LINE
  5
2E6
100
AcDbEntity
  8
0
100
AcDbLine
 62
7
  6
CONTINUOUS
 10
24.5516046682
 20
32.6943032015
 11
24.5516046682
 21
32.3943032026
  0
LINE
  5
2E7
100
AcDbEntity
  8
0
100
AcDbLine
 62
7
  6
CONTINUOUS
 10
24.5516046682
 20
31.8943032026
 11
24.5516046682
 21
31.5943032019
  0
LINE
  5
2E8
100
AcDbEntity
  8
0
100
AcDbLine
 62
7
  6
CONTINUOUS
 10
24.5516046682
 20
31.0943032019
 11
24.5516046682
 21
30.794303203
  0
LINE
  5
2E9
100
AcDbEntity
  8
0
100
AcDbLine
 62
7
  6
CONTINUOUS
 10
24.5516046682
 20
30.294303203
 11
24.5516046682
 21
29.9943032023
  0
LINE
  5
2EA
100
AcDbEntity
  8
0
100
AcDbLine
 62
7
  6
CONTINUOUS
 10
24.5516046682
 20
29.4943032023
 11
24.5516046682
 21
29.1943032015
  0
LINE
  5
2EB
100
AcDbEntity
  8
0
100
AcDbLine
 62
7
  6
CONTINUOUS
 10
24.5516046682
 20
28.6943032015
 11
24.5516046682
 21
28.3943032026
  0
LINE
  5
2EC
100
AcDbEntity
  8
0
100
AcDbLine
 62
7
  6
CONTINUOUS
 10
25.0516046682
 20
26.2693032026
 11
25.0516046682
 21
46.0193032026
  0
LINE
  5
2ED
100
AcDbEntity
  8
0
100
AcDbLine
 62
7
  6
CONTINUOUS
 10
25.2516046652
 20
46.019303212
 11
25.2516046654
 21
44.944303202
  0
LINE
  5
2EE
100
AcDbEntity
  8
0
100
AcDbLine
 62
7
  6
CONTINUOUS
 10
25.2516046677
 20
27.3443032025
 11
25.2516046679
 21
26.269303202
  0
LINE
  5
2EF
100
AcDbEntity
  8
0
100
AcDbLine
 62
7
  6
CONTINUOUS
 10
26.351604668
 20
25.6443032029
 11
26.3516046674
 21
27.3443032021
  0
LINE
  5
2F0
100
AcDbEntity
  8
0
100
AcDbLine
 62
7
  6
CONTINUOUS
 10
26.3516046611
 20
44.9443032019
 11
26.3516046605
 21
46.6443032389
  0
LINE
  5
2F1
100
AcDbEntity
  8
0
100
AcDbLine
 62
7
  6
CONTINUOUS
 10
57.6016046687
 20
108.8143032025
 11
57.0516046679
 21
108.2643032017
  0
LINE
  5
2F2
100
AcDbEntity
  8
0
100
AcDbLine
 62
7
  6
CONTINUOUS
 10
24.5516046682
 20
42.794303203
 11
24.1166046677
 21
42.794303203
  0
LINE
  5
2F3
100
AcDbEntity
  8
0
100
AcDbLine
 62
7
  6
CONTINUOUS
 10
22.5866046684
 20
42.794303203
 11
22.1516046679
 21
42.794303203
  0
LINE
  5
2F4
100
AcDbEntity
  8
0
100
AcDbLine
 62
7
  6
CONTINUOUS
 10
22.1516046679
 20
43.0943032019
 11
22.5866046684
 21
43.0943032019
  0
LINE
  5
2F5
100
AcDbEntity
  8
0
100
AcDbLine
 62
7
  6
CONTINUOUS
 10
24.1166046677
 20
43.0943032019
 11
24.5516046682
 21
43.0943032019
  0
LINE
  5
2F6
100
AcDbEntity
  8
0
100
AcDbLine
 62
7
  6
CONTINUOUS
 10
24.5516046682
 20
43.5943032019
 11
24.1166046677
 21
43.5943032019
  0
LINE
  5
2F7
100
AcDbEntity
  8
0
100
AcDbLine
 62
7
  6
CONTINUOUS
 10
22.5866046684
 20
43.5943032019
 11
22.1516046679
 21
43.5943032019
  0
LINE
  5
2F8
100
AcDbEntity
  8
0
100
AcDbLine
 62
7
  6
CONTINUOUS
 10
75.8516046679
 20
43.645694216
 11
80.8516046679
 21
43.645694216
  0
LINE
  5
2F9
100
AcDbEntity
  8
0
100
AcDbLine
 62
7
  6
CONTINUOUS
 10
22.1516046679
 20
43.8943032026
 11
22.5866046684
 21
43.8943032026
  0
LINE
  5
2FA
100
AcDbEntity
  8
0
100
AcDbLine
 62
7
  6
CONTINUOUS
 10
24.1166046677
 20
43.8943032026
 11
24.5516046682
 21
43.8943032026
  0
LINE
  5
2FB
100
AcDbEntity
  8
0
100
AcDbLine
 62
7
  6
CONTINUOUS
 10
57.2516046683
 20
44.4443032029
 11
55.4516046675
 21
44.4443032029
  0
LINE
  5
2FC
100
AcDbEntity
  8
0
100
AcDbLine
 62
7
  6
CONTINUOUS
 10
23.9166046674
 20
44.694303202
 11
22.7866046685
 21
44.694303202
  0
LINE
  5
2FD
100
AcDbEntity
  8
0
100
AcDbLine
 62
7
  6
CONTINUOUS
 10
20.3516046728
 20
44.9443032025
 11
21.4516046779
 21
44.9443032024
  0
LINE
  5
2FE
100
AcDbEntity
  8
0
100
AcDbLine
 62
7
  6
CONTINUOUS
 10
25.2516046654
 20
44.944303202
 11
26.3516046611
 21
44.9443032019
  0
LINE
  5
2FF
100
AcDbEntity
  8
0
100
AcDbLine
 62
7
  6
CONTINUOUS
 10
14.8516046679
 20
44.9943032018
 11
10.8516046679
 21
44.9943032018
  0
LINE
  5
300
100
AcDbEntity
  8
0
100
AcDbLine
 62
7
  6
CONTINUOUS
 10
22.5866046684
 20
45.2041108236
 11
24.1166046677
 21
45.2041108236
  0
LINE
  5
301
100
AcDbEntity
  8
0
100
AcDbLine
 62
7
  6
CONTINUOUS
 10
23.1516046664
 20
45.3443032019
 11
21.6516046679
 21
45.3443032019
  0
LINE
  5
302
100
AcDbEntity
  8
0
100
AcDbLine
 62
7
  6
CONTINUOUS
 10
21.651604668
 20
45.5443032022
 11
23.151604668
 21
45.5443032022
  0
LINE
  5
303
100
AcDbEntity
  8
0
100
AcDbLine
 62
7
  6
CONTINUOUS
 10
25.0516046682
 20
46.0193032026
 11
23.5516046682
 21
46.0193032026
  0
LINE
  5
304
100
AcDbEntity
  8
0
100
AcDbLine
 62
7
  6
CONTINUOUS
 10
23.551604668
 20
46.2193032022
 11
25.051604668
 21
46.2193032022
  0
LINE
  5
305
100
AcDbEntity
  8
0
100
AcDbLine
 62
7
  6
CONTINUOUS
 10
27.9516046675
 20
74.8943032022
 11
27.9516046675
 21
73.8943032022
  0
LINE
  5
306
100
AcDbEntity
  8
0
100
AcDbLine
 62
7
  6
CONTINUOUS
 10
27.9516046675
 20
71.3943032022
 11
27.9516046675
 21
70.3943032022
  0
LINE
  5
307
100
AcDbEntity
  8
0
100
AcDbLine
 62
7
  6
CONTINUOUS
 10
27.9516046675
 20
57.8943032022
 11
27.9516046675
 21
56.8943032022
  0
LINE
  5
308
100
AcDbEntity
  8
0
100
AcDbLine
 62
7
  6
CONTINUOUS
 10
27.9516046675
 20
54.3943032022
 11
27.9516046675
 21
53.3943032022
  0
LINE
  5
309
100
AcDbEntity
  8
0
100
AcDbLine
 62
7
  6
CONTINUOUS
 10
28.8516046679
 20
49.5443032022
 11
28.8516046679
 21
47.5443032026
  0
LINE
  5
30A
100
AcDbEntity
  8
0
100
AcDbLine
 62
7
  6
CONTINUOUS
 10
28.8516046679
 20
24.7443032018
 11
28.8516046679
 21
22.7443032022
  0
LINE
  5
30B
100
AcDbEntity
  8
0
100
AcDbLine
 62
7
  6
CONTINUOUS
 10
25.9516046679
 20
47.0443032022
 11
20.7516046679
 21
47.0443032022
  0
LINE
  5
30C
100
AcDbEntity
  8
0
100
AcDbLine
 62
7
  6
CONTINUOUS
 10
28.8516046679
 20
47.5443032026
 11
32.8516046686
 21
47.5443032026
  0
LINE
  5
30D
100
AcDbEntity
  8
0
100
AcDbLine
 62
7
  6
CONTINUOUS
 10
80.8516046679
 20
48.6456942117
 11
75.8516046679
 21
48.6456942117
  0
LINE
  5
30E
100
AcDbEntity
  8
0
100
AcDbLine
 62
7
  6
CONTINUOUS
 10
17.8516046679
 20
49.5443032022
 11
28.8516046679
 21
49.5443032022
  0
LINE
  5
30F
100
AcDbEntity
  8
0
100
AcDbLine
 62
7
  6
CONTINUOUS
 10
55.4516046675
 20
50.8443032015
 11
57.2516046683
 21
50.8443032015
  0
LINE
  5
310
100
AcDbEntity
  8
0
100
AcDbLine
 62
7
  6
CONTINUOUS
 10
69.0823079088
 20
17.6443032022
 11
69.7516438174
 21
16.9750455292
  0
LINE
  5
311
100
AcDbEntity
  8
0
100
AcDbLine
 62
7
  6
CONTINUOUS
 10
32.8516046686
 20
47.5443032026
 11
32.8516046686
 21
24.7443032018
  0
LINE
  5
312
100
AcDbEntity
  8
0
100
AcDbLine
 62
7
  6
CONTINUOUS
 10
34.1516046675
 20
39.2443032018
 11
34.1516046675
 21
51.2443032018
  0
LINE
  5
313
100
AcDbEntity
  8
0
100
AcDbLine
 62
7
  6
CONTINUOUS
 10
36.1516046679
 20
22.6443032022
 11
36.1516046679
 21
28.6443032022
  0
LINE
  5
314
100
AcDbEntity
  8
0
100
AcDbLine
 62
7
  6
CONTINUOUS
 10
36.1516046686
 20
89.6443032022
 11
36.1516046686
 21
95.6443032022
  0
LINE
  5
315
100
AcDbEntity
  8
0
100
AcDbLine
 62
7
  6
CONTINUOUS
 10
69.7516046686
 20
108.3143032017
 11
69.0816046673
 21
107.6443032022
  0
LINE
  5
316
100
AcDbEntity
  8
0
100
AcDbLine
 62
7
  6
CONTINUOUS
 10
34.1516046675
 20
51.2443032018
 11
38.8516046679
 21
51.2443032018
  0
LINE
  5
317
100
AcDbEntity
  8
0
100
AcDbLine
 62
7
  6
CONTINUOUS
 10
27.9516046675
 20
53.3943032022
 11
20.9516046675
 21
53.3943032022
  0
LINE
  5
318
100
AcDbEntity
  8
0
100
AcDbLine
 62
7
  6
CONTINUOUS
 10
21.9516046675
 20
54.3943032022
 11
27.9516046675
 21
54.3943032022
  0
LINE
  5
319
100
AcDbEntity
  8
0
100
AcDbLine
 62
7
  6
CONTINUOUS
 10
38.5516046679
 20
119.4443032022
 11
38.5516046679
 21
107.6443032022
  0
LINE
  5
31A
100
AcDbEntity
  8
0
100
AcDbLine
 62
7
  6
CONTINUOUS
 10
38.8516046679
 20
51.2443032018
 11
38.8516046679
 21
39.2443032018
  0
LINE
  5
31B
100
AcDbEntity
  8
0
100
AcDbLine
 62
7
  6
CONTINUOUS
 10
39.1516046679
 20
107.6443032022
 11
39.1516046679
 21
119.4443032022
  0
LINE
  5
31C
100
AcDbEntity
  8
0
100
AcDbLine
 62
7
  6
CONTINUOUS
 10
27.9516046675
 20
56.8943032022
 11
21.9516046675
 21
56.8943032022
  0
LINE
  5
31D
100
AcDbEntity
  8
0
100
AcDbLine
 62
7
  6
CONTINUOUS
 10
20.9516046675
 20
57.8943032022
 11
27.9516046675
 21
57.8943032022
  0
LINE
  5
31E
100
AcDbEntity
  8
0
100
AcDbLine
 62
7
  6
CONTINUOUS
 10
45.5516046672
 20
95.6443032022
 11
45.5516046672
 21
89.6443032022
  0
LINE
  5
31F
100
AcDbEntity
  8
0
100
AcDbLine
 62
7
  6
CONTINUOUS
 10
45.5516046672
 20
28.6443032022
 11
45.5516046672
 21
22.6443032022
  0
LINE
  5
320
100
AcDbEntity
  8
0
100
AcDbLine
 62
7
  6
CONTINUOUS
 10
47.5516046671
 20
30.6443032022
 11
47.5516046671
 21
39.6443032022
  0
LINE
  5
321
100
AcDbEntity
  8
0
100
AcDbLine
 62
7
  6
CONTINUOUS
 10
47.5516046671
 20
85.6443032022
 11
47.5516046671
 21
94.6443032022
  0
LINE
  5
322
100
AcDbEntity
  8
0
100
AcDbLine
 62
7
  6
CONTINUOUS
 10
51.5516046679
 20
94.6443032022
 11
51.5516046679
 21
85.6443032022
  0
LINE
  5
323
100
AcDbEntity
  8
0
100
AcDbLine
 62
7
  6
CONTINUOUS
 10
51.5516046671
 20
39.6443032022
 11
51.5516046671
 21
30.6443032022
  0
LINE
  5
324
100
AcDbEntity
  8
0
100
AcDbLine
 62
7
  6
CONTINUOUS
 10
27.9516046675
 20
70.3943032022
 11
20.9516046675
 21
70.3943032022
  0
LINE
  5
325
100
AcDbEntity
  8
0
100
AcDbLine
 62
7
  6
CONTINUOUS
 10
21.9516046675
 20
71.3943032022
 11
27.9516046675
 21
71.3943032022
  0
LINE
  5
326
100
AcDbEntity
  8
0
100
AcDbLine
 62
7
  6
CONTINUOUS
 10
54.4516046679
 20
16.3443032022
 11
54.4516046679
 21
17.6443032022
  0
LINE
  5
327
100
AcDbEntity
  8
0
100
AcDbLine
 62
7
  6
CONTINUOUS
 10
54.4516046679
 20
107.6443032022
 11
54.4516046679
 21
108.9443032029
  0
LINE
  5
328
100
AcDbEntity
  8
0
100
AcDbLine
 62
7
  6
CONTINUOUS
 10
55.4516046675
 20
44.4443032029
 11
55.4516046675
 21
50.8443032015
  0
LINE
  5
329
100
AcDbEntity
  8
0
100
AcDbLine
 62
7
  6
CONTINUOUS
 10
55.4516046675
 20
74.4443032029
 11
55.4516046675
 21
80.8443032015
  0
LINE
  5
32A
100
AcDbEntity
  8
0
100
AcDbLine
 62
7
  6
CONTINUOUS
 10
57.0516046679
 20
108.9443032029
 11
57.0516046679
 21
108.2643032018
  0
LINE
  5
32B
100
AcDbEntity
  8
0
100
AcDbLine
 62
7
  6
CONTINUOUS
 10
57.2516046683
 20
80.8443032015
 11
57.2516046683
 21
74.4443032029
  0
LINE
  5
32C
100
AcDbEntity
  8
0
100
AcDbLine
 62
7
  6
CONTINUOUS
 10
57.2516046683
 20
50.8443032015
 11
57.2516046683
 21
44.4443032029
  0
LINE
  5
32D
100
AcDbEntity
  8
0
100
AcDbLine
 62
7
  6
CONTINUOUS
 10
57.0516046675
 20
16.3443032022
 11
57.051640916
 21
17.0243032806
  0
LINE
  5
32E
100
AcDbEntity
  8
0
100
AcDbLine
 62
7
  6
CONTINUOUS
 10
27.9516046675
 20
73.8943032022
 11
21.9516046675
 21
73.8943032022
  0
LINE
  5
32F
100
AcDbEntity
  8
0
100
AcDbLine
 62
7
  6
CONTINUOUS
 10
57.2516046683
 20
74.4443032029
 11
55.4516046675
 21
74.4443032029
  0
LINE
  5
330
100
AcDbEntity
  8
0
100
AcDbLine
 62
7
  6
CONTINUOUS
 10
20.9516046675
 20
74.8943032022
 11
27.9516046675
 21
74.8943032022
  0
LINE
  5
331
100
AcDbEntity
  8
0
100
AcDbLine
 62
7
  6
CONTINUOUS
 10
14.8516046679
 20
80.2943032026
 11
10.8516046679
 21
80.2943032026
  0
LINE
  5
332
100
AcDbEntity
  8
0
100
AcDbLine
 62
7
  6
CONTINUOUS
 10
75.8516046679
 20
80.6456941571
 11
80.8516046679
 21
80.6456941571
  0
LINE
  5
333
100
AcDbEntity
  8
0
100
AcDbLine
 62
7
  6
CONTINUOUS
 10
55.4516046675
 20
80.8443032015
 11
57.2516046683
 21
80.8443032015
  0
LINE
  5
334
100
AcDbEntity
  8
0
100
AcDbLine
 62
7
  6
CONTINUOUS
 10
66.101673046
 20
16.474832206
 11
66.1017110351
 21
15.8248322067
  0
LINE
  5
335
100
AcDbEntity
  8
0
100
AcDbLine
 62
7
  6
CONTINUOUS
 10
66.1016046686
 20
108.8143032025
 11
66.1016046686
 21
109.4643032029
  0
LINE
  5
336
100
AcDbEntity
  8
0
100
AcDbLine
 62
7
  6
CONTINUOUS
 10
51.5516046679
 20
85.6443032022
 11
47.5516046671
 21
85.6443032022
  0
LINE
  5
337
100
AcDbEntity
  8
0
100
AcDbLine
 62
7
  6
CONTINUOUS
 10
80.8516046679
 20
85.6456941528
 11
75.8516046679
 21
85.6456941528
  0
LINE
  5
338
100
AcDbEntity
  8
0
100
AcDbLine
 62
7
  6
CONTINUOUS
 10
69.0516555067
 20
16.7750046184
 11
69.0516047004
 21
17.6443032022
  0
LINE
  5
339
100
AcDbEntity
  8
0
100
AcDbLine
 62
7
  6
CONTINUOUS
 10
69.0516046679
 20
107.6443032022
 11
69.0516046679
 21
108.514303202
  0
LINE
  5
33A
100
AcDbEntity
  8
0
100
AcDbLine
 62
7
  6
CONTINUOUS
 10
69.7516438174
 20
16.9750455292
 11
69.7517449268
 21
15.2450455319
  0
LINE
  5
33B
100
AcDbEntity
  8
0
100
AcDbLine
 62
7
  6
CONTINUOUS
 10
69.7516046686
 20
110.0443032021
 11
69.7516046686
 21
108.3143032017
  0
LINE
  5
33C
100
AcDbEntity
  8
0
100
AcDbLine
 62
7
  6
CONTINUOUS
 10
45.5516046672
 20
89.6443032022
 11
36.1516046686
 21
89.6443032022
  0
LINE
  5
33D
100
AcDbEntity
  8
0
100
AcDbLine
 62
7
  6
CONTINUOUS
 10
75.8516046679
 20
107.6443032022
 11
75.8516046679
 21
17.6443032022
  0
LINE
  5
33E
100
AcDbEntity
  8
0
100
AcDbLine
 62
7
  6
CONTINUOUS
 10
47.5516046671
 20
94.6443032022
 11
51.5516046679
 21
94.6443032022
  0
LINE
  5
33F
100
AcDbEntity
  8
0
100
AcDbLine
 62
7
  6
CONTINUOUS
 10
36.1516046686
 20
95.6443032022
 11
45.5516046672
 21
95.6443032022
  0
LINE
  5
340
100
AcDbEntity
  8
0
100
AcDbLine
 62
7
  6
CONTINUOUS
 10
80.8516046679
 20
96.8456941273
 11
75.8516046679
 21
96.8456941284
  0
LINE
  5
341
100
AcDbEntity
  8
0
100
AcDbLine
 62
7
  6
CONTINUOUS
 10
85.710542001
 20
98.1459921972
 11
85.9926673318
 21
98.1459921972
  0
LINE
  5
342
100
AcDbEntity
  8
0
100
AcDbLine
 62
7
  6
CONTINUOUS
 10
80.8516046679
 20
107.6456941135
 11
80.8516046679
 21
96.8456941273
  0
LINE
  5
343
100
AcDbEntity
  8
0
100
AcDbLine
 62
7
  6
CONTINUOUS
 10
80.8516046679
 20
28.4456942485
 11
80.8516046679
 21
17.645694268
  0
LINE
  5
344
100
AcDbEntity
  8
0
100
AcDbLine
 62
7
  6
CONTINUOUS
 10
80.8516046679
 20
43.645694216
 11
80.8516046679
 21
85.6456941528
  0
LINE
  5
345
100
AcDbEntity
  8
0
100
AcDbLine
 62
7
  6
CONTINUOUS
 10
80.8717760241
 20
98.1459921972
 11
80.8717760241
 21
99.0443032022
  0
LINE
  5
346
100
AcDbEntity
  8
0
100
AcDbLine
 62
7
  6
CONTINUOUS
 10
80.8717760241
 20
99.0443032022
 11
85.2516046668
 21
99.0443032022
  0
LINE
  5
347
100
AcDbEntity
  8
0
100
AcDbLine
 62
7
  6
CONTINUOUS
 10
80.8516046679
 20
99.5456941248
 11
75.8516046679
 21
99.5456941248
  0
LINE
  5
348
100
AcDbEntity
  8
0
100
AcDbLine
 62
7
  6
CONTINUOUS
 10
86.5516046684
 20
102.1943032026
 11
86.6516046665
 21
102.1943032026
  0
LINE
  5
349
100
AcDbEntity
  8
0
100
AcDbLine
 62
7
  6
CONTINUOUS
 10
85.2510786276
 20
26.6459514045
 11
85.2511020055
 21
26.2459514064
  0
LINE
  5
34A
100
AcDbEntity
  8
0
100
AcDbLine
 62
7
  6
CONTINUOUS
 10
85.2516898158
 20
16.188425346
 11
85.2517127538
 21
15.7959514258
  0
LINE
  5
34B
100
AcDbEntity
  8
0
100
AcDbLine
 62
7
  6
CONTINUOUS
 10
85.2516046668
 20
109.4943032014
 11
85.2516046668
 21
109.1018292804
  0
LINE
  5
34C
100
AcDbEntity
  8
0
100
AcDbLine
 62
7
  6
CONTINUOUS
 10
85.2516046668
 20
99.0443032022
 11
85.2516046668
 21
98.6443032019
  0
LINE
  5
34D
100
AcDbEntity
  8
0
100
AcDbLine
 62
7
  6
CONTINUOUS
 10
86.4512802597
 20
23.196021547
 11
86.4510786252
 21
26.6460215402
  0
LINE
  5
34E
100
AcDbEntity
  8
0
100
AcDbLine
 62
7
  6
CONTINUOUS
 10
86.451604666
 20
98.6443032014
 11
86.451604666
 21
102.0943032008
  0
LINE
  5
34F
100
AcDbEntity
  8
0
100
AcDbLine
 62
7
  6
CONTINUOUS
 10
86.7516046662
 20
109.4943032015
 11
86.7516046662
 21
102.2943032045
  0
LINE
  5
350
100
AcDbEntity
  8
0
100
AcDbLine
 62
7
  6
CONTINUOUS
 10
86.7516046662
 20
22.9960390797
 11
86.7516046662
 21
15.7856139968
  0
LINE
  5
351
100
AcDbEntity
  8
0
100
AcDbLine
 62
7
  6
CONTINUOUS
 10
75.8516046679
 20
107.1456941115
 11
80.8516046679
 21
107.1456941115
  0
LINE
  5
352
100
AcDbEntity
  8
0
100
AcDbLine
 62
7
  6
CONTINUOUS
 10
10.8516046679
 20
107.6456941136
 11
80.8516046679
 21
107.6456941135
  0
LINE
  5
353
100
AcDbEntity
  8
0
100
AcDbLine
 62
7
  6
CONTINUOUS
 10
57.6016046686
 20
108.8143032025
 11
66.1016046686
 21
108.8143032025
  0
LINE
  5
354
100
AcDbEntity
  8
0
100
AcDbLine
 62
7
  6
CONTINUOUS
 10
68.2753433774
 20
108.8143032025
 11
68.7516046672
 21
108.8143032025
  0
LINE
  5
355
100
AcDbEntity
  8
0
100
AcDbLine
 62
7
  6
CONTINUOUS
 10
57.0516046679
 20
108.9443032029
 11
54.4516046679
 21
108.9443032029
  0
LINE
  5
356
100
AcDbEntity
  8
0
100
AcDbLine
 62
7
  6
CONTINUOUS
 10
66.1016046686
 20
109.4643032029
 11
66.9016046675
 21
109.4643032029
  0
LINE
  5
357
100
AcDbEntity
  8
0
100
AcDbLine
 62
7
  6
CONTINUOUS
 10
86.2516046651
 20
109.9943032015
 11
85.7516046685
 21
109.9943032015
  0
LINE
  5
358
100
AcDbEntity
  8
0
100
AcDbLine
 62
7
  6
CONTINUOUS
 10
79.7716046663
 20
110.5443032003
 11
70.2516046704
 21
110.5443032022
  0
LINE
  5
359
100
AcDbEntity
  8
0
100
AcDbLine
 62
7
  6
CONTINUOUS
 10
11.5516046679
 20
111.5838053936
 11
14.8516046679
 21
111.5838053936
  0
LINE
  5
35A
100
AcDbEntity
  8
0
100
AcDbLine
 62
7
  6
CONTINUOUS
 10
84.899510214
 20
108.8063869524
 11
84.9516046664
 21
108.8018292792
  0
LINE
  5
35B
100
AcDbEntity
  8
0
100
AcDbLine
 62
7
  6
CONTINUOUS
 10
14.8516046679
 20
112.1362583427
 11
11.5516046679
 21
112.1362583427
  0
LINE
  5
35C
100
AcDbEntity
  8
0
100
AcDbLine
 62
7
  6
CONTINUOUS
 10
14.8516046679
 20
112.6416436501
 11
11.5516046679
 21
112.6416436501
  0
LINE
  5
35D
100
AcDbEntity
  8
0
100
AcDbLine
 62
7
  6
CONTINUOUS
 10
18.8516046679
 20
115.6443032022
 11
21.9516046675
 21
115.6443032022
  0
LINE
  5
35E
100
AcDbEntity
  8
0
100
AcDbLine
 62
7
  6
CONTINUOUS
 10
84.8995102147
 20
108.8063869523
 11
80.7195102141
 21
109.5434337325
  0
LINE
  5
35F
100
AcDbEntity
  8
0
100
AcDbLine
 62
7
  6
CONTINUOUS
 10
68.2753433773
 20
108.8143032025
 11
66.9016046674
 21
109.4643032029
  0
LINE
  5
360
100
AcDbEntity
  8
0
100
AcDbLine
 62
7
  6
CONTINUOUS
 10
23.1516046679
 20
119.4443032022
 11
39.1516046679
 21
119.4443032022
  0
LINE
  5
361
100
AcDbEntity
  8
0
100
AcDbLine
 62
7
  6
CONTINUOUS
 10
66.9017110325
 20
15.8248789625
 11
68.2754117509
 21
16.4749592496
  0
LINE
  5
362
100
AcDbEntity
  8
0
100
AcDbLine
 62
7
  6
CONTINUOUS
 10
37.6516046679
 20
120.9443032022
 11
24.6516046679
 21
120.9443032022
  0
CIRCLE
  5
363
100
AcDbEntity
  8
0
100
AcDbCircle
 62
7
  6
CONTINUOUS
 10
14.8516046679
 20
21.6443032022
 40
1.25
  0
ARC
  5
364
100
AcDbEntity
  8
0
100
AcDbCircle
 62
7
  6
CONTINUOUS
 10
20.7516325933
 20
25.6443311276
 40
0.4000279264
100
AcDbArc
 50
180.0039997028
 51
269.9960002586
  0
ARC
  5
365
100
AcDbEntity
  8
0
100
AcDbCircle
 62
7
  6
CONTINUOUS
 10
25.9515767425
 20
25.6443311276
 40
0.4000279264
100
AcDbArc
 50
270.0039997414
 51
359.9960003623
  0
ARC
  5
366
100
AcDbEntity
  8
0
100
AcDbCircle
 62
7
  6
CONTINUOUS
 10
25.9515767424
 20
46.6442752767
 40
0.4000279265
100
AcDbArc
 50
0.0040050087
 51
89.9960002494
  0
ARC
  5
367
100
AcDbEntity
  8
0
100
AcDbCircle
 62
7
  6
CONTINUOUS
 10
20.7516325933
 20
46.6442752767
 40
0.4000279264
100
AcDbArc
 50
90.0039997475
 51
179.9959964587
  0
ARC
  5
368
100
AcDbEntity
  8
0
100
AcDbCircle
 62
7
  6
CONTINUOUS
 10
23.1516046679
 20
45.7443032022
 40
0.4
100
AcDbArc
 50
269.9999997851
 51
0.0000002149
  0
ARC
  5
369
100
AcDbEntity
  8
0
100
AcDbCircle
 62
7
  6
CONTINUOUS
 10
23.1516046679
 20
26.5443032022
 40
0.4
100
AcDbArc
 50
359.9999999004
 51
89.9999995002
  0
ARC
  5
36A
100
AcDbEntity
  8
0
100
AcDbCircle
 62
7
  6
CONTINUOUS
 10
37.6516046679
 20
119.4443032022
 40
1.5
100
AcDbArc
 50
0.0
 51
90.0
  0
ARC
  5
36B
100
AcDbEntity
  8
0
100
AcDbCircle
 62
7
  6
CONTINUOUS
 10
24.6516046679
 20
119.4443032022
 40
1.5
100
AcDbArc
 50
90.0
 51
180.0
  0
CIRCLE
  5
36C
100
AcDbEntity
  8
0
100
AcDbCircle
 62
7
  6
CONTINUOUS
 10
14.8516046679
 20
103.6443032022
 40
1.25
  0
ARC
  5
36D
100
AcDbEntity
  8
0
100
AcDbCircle
 62
7
  6
CONTINUOUS
 10
11.5516046679
 20
112.1416436501
 40
0.5
100
AcDbArc
 50
90.0
 51
180.0
  0
CIRCLE
  5
36E
100
AcDbEntity
  8
0
100
AcDbCircle
 62
7
  6
CONTINUOUS
 10
52.8516046679
 20
21.6443032022
 40
1.25
  0
ARC
  5
36F
100
AcDbEntity
  8
0
100
AcDbCircle
 62
7
  6
CONTINUOUS
 10
79.7717332204
 20
15.445631148
 40
0.6999999981
100
AcDbArc
 50
270.0000001492
 51
0.3142979849
  0
ARC
  5
370
100
AcDbEntity
  8
0
100
AcDbCircle
 62
7
  6
CONTINUOUS
 10
85.7510786288
 20
26.6459806275
 40
0.5000000016
100
AcDbArc
 50
89.99667452
 51
180.003348702
  0
ARC
  5
371
100
AcDbEntity
  8
0
100
AcDbCircle
 62
7
  6
CONTINUOUS
 10
85.9510786245
 20
26.6459923165
 40
0.5000000016
100
AcDbArc
 50
0.0033487907
 51
89.9999991546
  0
ARC
  5
372
100
AcDbEntity
  8
0
100
AcDbCircle
 62
7
  6
CONTINUOUS
 10
86.2517127506
 20
15.796009872
 40
0.5000000016
100
AcDbArc
 50
269.9999994587
 51
358.8086345691
  0
ARC
  5
373
100
AcDbEntity
  8
0
100
AcDbCircle
 62
7
  6
CONTINUOUS
 10
85.7517127546
 20
15.7959806496
 40
0.5000000016
100
AcDbArc
 50
180.0033487957
 51
270.0000005262
  0
ARC
  5
374
100
AcDbEntity
  8
0
100
AcDbCircle
 62
7
  6
CONTINUOUS
 10
70.2517449244
 20
15.2450747526
 40
0.4999999984
100
AcDbArc
 50
180.0033484436
 51
267.2967579002
  0
ARC
  5
375
100
AcDbEntity
  8
0
100
AcDbCircle
 62
7
  6
CONTINUOUS
 10
68.7516555063
 20
16.7749870851
 40
0.3000000009
100
AcDbArc
 50
269.9999994431
 51
0.0033486176
  0
ARC
  5
376
100
AcDbEntity
  8
0
100
AcDbCircle
 62
7
  6
CONTINUOUS
 10
84.9516898159
 20
16.1884078137
 40
0.3
100
AcDbArc
 50
0.0033484358
 51
100.0033534509
  0
ARC
  5
377
100
AcDbEntity
  8
0
100
AcDbCircle
 62
7
  6
CONTINUOUS
 10
80.7717329001
 20
15.4511167366
 40
0.3
100
AcDbArc
 50
100.0033486836
 51
180.314298112
  0
ARC
  5
378
100
AcDbEntity
  8
0
100
AcDbCircle
 62
7
  6
CONTINUOUS
 10
86.6512919488
 20
22.9960332346
 40
0.1000000003
100
AcDbArc
 50
0.0033490335
 51
90.0033482508
  0
ARC
  5
379
100
AcDbEntity
  8
0
100
AcDbCircle
 62
7
  6
CONTINUOUS
 10
86.5512802598
 20
23.1960273907
 40
0.1
100
AcDbArc
 50
180.0033481605
 51
270.0000017357
  0
CIRCLE
  5
37A
100
AcDbEntity
  8
0
100
AcDbCircle
 62
7
  6
CONTINUOUS
 10
52.8516046679
 20
103.6443032022
 40
1.25
  0
ARC
  5
37B
100
AcDbEntity
  8
0
100
AcDbCircle
 62
7
  6
CONTINUOUS
 10
79.7716046683
 20
109.8443032023
 40
0.6999999981
100
AcDbArc
 50
359.689050588
 51
90.0000001644
  0
ARC
  5
37C
100
AcDbEntity
  8
0
100
AcDbCircle
 62
7
  6
CONTINUOUS
 10
85.7516046684
 20
109.4943031999
 40
0.5000000016
100
AcDbArc
 50
89.9999999886
 51
179.9999998281
  0
ARC
  5
37D
100
AcDbEntity
  8
0
100
AcDbCircle
 62
7
  6
CONTINUOUS
 10
70.2516046702
 20
110.0443032006
 40
0.5000000016
100
AcDbArc
 50
89.9999999707
 51
179.9999998281
  0
ARC
  5
37E
100
AcDbEntity
  8
0
100
AcDbCircle
 62
7
  6
CONTINUOUS
 10
85.7516046684
 20
98.6443032034
 40
0.5000000016
100
AcDbArc
 50
180.0000001713
 51
265.2892594618
  0
ARC
  5
37F
100
AcDbEntity
  8
0
100
AcDbCircle
 62
7
  6
CONTINUOUS
 10
85.9516046645
 20
98.6443032034
 40
0.5000000016
100
AcDbArc
 50
274.7107405302
 51
359.9999997683
  0
ARC
  5
380
100
AcDbEntity
  8
0
100
AcDbCircle
 62
7
  6
CONTINUOUS
 10
86.2516046652
 20
109.4943031999
 40
0.5000000016
100
AcDbArc
 50
0.0000005146
 51
90.0000000114
  0
ARC
  5
381
100
AcDbEntity
  8
0
100
AcDbCircle
 62
7
  6
CONTINUOUS
 10
68.751604667
 20
108.5143032015
 40
0.3000000009
100
AcDbArc
 50
0.000000103
 51
90.0000000113
  0
ARC
  5
382
100
AcDbEntity
  8
0
100
AcDbCircle
 62
7
  6
CONTINUOUS
 10
84.9516046664
 20
109.1018292792
 40
0.3
100
AcDbArc
 50
270.0000000016
 51
0.000000228
  0
ARC
  5
383
100
AcDbEntity
  8
0
100
AcDbCircle
 62
7
  6
CONTINUOUS
 10
80.7716046669
 20
109.8388760585
 40
0.3
100
AcDbArc
 50
179.6890506876
 51
260.0000000946
  0
ARC
  5
384
100
AcDbEntity
  8
0
100
AcDbCircle
 62
7
  6
CONTINUOUS
 10
86.6516046665
 20
102.2943032029
 40
0.1000000003
100
AcDbArc
 50
270.0000000351
 51
359.9999983604
  0
ARC
  5
385
100
AcDbEntity
  8
0
100
AcDbCircle
 62
7
  6
CONTINUOUS
 10
86.5516046663
 20
102.094303202
 40
0.1
100
AcDbArc
 50
89.9999987736
 51
180.0000006809
  0
SPLINE
  5
386
100
AcDbEntity
  8
0
100
AcDbSpline
 62
7
  6
CONTINUOUS
 70
0
 71
3
 72
8
 73
4
 74
0
 42
0.0000001
 43
0.0000001
 44
0.0000000001
 40
0.0
 40
0.0
 40
0.0
 40
0.0
 40
1.0
 40
1.0
 40
1.0
 40
1.0
 10
25.2516046679
 20
26.269303202
 30
0.0
 10
25.2516046679
 20
26.2169498946
 30
0.0
 10
25.2277905842
 20
26.1669558726
 30
0.0
 10
25.1908884699
 20
26.130047189
 30
0.0
  0
SPLINE
  5
387
100
AcDbEntity
  8
0
100
AcDbSpline
 62
7
  6
CONTINUOUS
 70
0
 71
3
 72
8
 73
4
 74
0
 42
0.0000001
 43
0.0000001
 44
0.0000000001
 40
0.0
 40
0.0
 40
0.0
 40
0.0
 40
1.0
 40
1.0
 40
1.0
 40
1.0
 10
25.1908884699
 20
26.130047189
 30
0.0
 10
25.1539770934
 20
26.0931292417
 30
0.0
 10
25.1039711155
 20
26.0693032022
 30
0.0
 10
25.0516046678
 20
26.0693032022
 30
0.0
  0
SPLINE
  5
388
100
AcDbEntity
  8
0
100
AcDbSpline
 62
7
  6
CONTINUOUS
 70
0
 71
3
 72
8
 73
4
 74
0
 42
0.0000001
 43
0.0000001
 44
0.0000000001
 40
0.0
 40
0.0
 40
0.0
 40
0.0
 40
1.0
 40
1.0
 40
1.0
 40
1.0
 10
23.5516046678
 20
26.0693032022
 30
0.0
 10
23.4992513603
 20
26.0693032022
 30
0.0
 10
23.4492573382
 20
26.093117286
 30
0.0
 10
23.4123486545
 20
26.1300194004
 30
0.0
  0
SPLINE
  5
389
100
AcDbEntity
  8
0
100
AcDbSpline
 62
7
  6
CONTINUOUS
 70
0
 71
3
 72
8
 73
4
 74
0
 42
0.0000001
 43
0.0000001
 44
0.0000000001
 40
0.0
 40
0.0
 40
0.0
 40
0.0
 40
1.0
 40
1.0
 40
1.0
 40
1.0
 10
23.4123486545
 20
26.1300194004
 30
0.0
 10
23.3754307073
 20
26.1669307768
 30
0.0
 10
23.3516046679
 20
26.2169367544
 30
0.0
 10
23.3516046679
 20
26.2693032017
 30
0.0
  0
SPLINE
  5
38A
100
AcDbEntity
  8
0
100
AcDbSpline
 62
7
  6
CONTINUOUS
 70
0
 71
3
 72
8
 73
4
 74
0
 42
0.0000001
 43
0.0000001
 44
0.0000000001
 40
0.0
 40
0.0
 40
0.0
 40
0.0
 40
1.0
 40
1.0
 40
1.0
 40
1.0
 10
23.3516046679
 20
26.5443032019
 30
0.0
 10
23.3516046679
 20
26.6490229573
 30
0.0
 10
23.256324423
 20
26.7443032022
 30
0.0
 10
23.1516046678
 20
26.7443032022
 30
0.0
  0
SPLINE
  5
38B
100
AcDbEntity
  8
0
100
AcDbSpline
 62
7
  6
CONTINUOUS
 70
0
 71
3
 72
8
 73
4
 74
0
 42
0.0000001
 43
0.0000001
 44
0.0000000001
 40
0.0
 40
0.0
 40
0.0
 40
0.0
 40
1.0
 40
1.0
 40
1.0
 40
1.0
 10
21.6516046678
 20
26.7443032022
 30
0.0
 10
21.5992513604
 20
26.7443032022
 30
0.0
 10
21.5492573384
 20
26.7681172859
 30
0.0
 10
21.5123486548
 20
26.8050194002
 30
0.0
  0
SPLINE
  5
38C
100
AcDbEntity
  8
0
100
AcDbSpline
 62
7
  6
CONTINUOUS
 70
0
 71
3
 72
8
 73
4
 74
0
 42
0.0000001
 43
0.0000001
 44
0.0000000001
 40
0.0
 40
0.0
 40
0.0
 40
0.0
 40
1.0
 40
1.0
 40
1.0
 40
1.0
 10
21.5123486548
 20
26.8050194002
 30
0.0
 10
21.4754307074
 20
26.8419307766
 30
0.0
 10
21.4516046679
 20
26.8919367545
 30
0.0
 10
21.4516046679
 20
26.9443032022
 30
0.0
  0
SPLINE
  5
38D
100
AcDbEntity
  8
0
100
AcDbSpline
 62
7
  6
CONTINUOUS
 70
0
 71
3
 72
8
 73
4
 74
0
 42
0.0000001
 43
0.0000001
 44
0.0000000001
 40
0.0
 40
0.0
 40
0.0
 40
0.0
 40
1.0
 40
1.0
 40
1.0
 40
1.0
 10
21.4516046679
 20
45.3443032398
 30
0.0
 10
21.4516046794
 20
45.3966565337
 30
0.0
 10
21.4754187605
 20
45.4466505406
 30
0.0
 10
21.512320866
 20
45.4835592153
 30
0.0
  0
SPLINE
  5
38E
100
AcDbEntity
  8
0
100
AcDbSpline
 62
7
  6
CONTINUOUS
 70
0
 71
3
 72
8
 73
4
 74
0
 42
0.0000001
 43
0.0000001
 44
0.0000000001
 40
0.0
 40
0.0
 40
0.0
 40
0.0
 40
1.0
 40
1.0
 40
1.0
 40
1.0
 10
21.512320866
 20
45.4835592153
 30
0.0
 10
21.5492322424
 20
45.5204771627
 30
0.0
 10
21.5992382203
 20
45.5443032022
 30
0.0
 10
21.651604668
 20
45.5443032022
 30
0.0
  0
SPLINE
  5
38F
100
AcDbEntity
  8
0
100
AcDbSpline
 62
7
  6
CONTINUOUS
 70
0
 71
3
 72
8
 73
4
 74
0
 42
0.0000001
 43
0.0000001
 44
0.0000000001
 40
0.0
 40
0.0
 40
0.0
 40
0.0
 40
1.0
 40
1.0
 40
1.0
 40
1.0
 10
23.151604668
 20
45.5443032022
 30
0.0
 10
23.2563244229
 20
45.5443032022
 30
0.0
 10
23.3516046679
 20
45.6395834471
 30
0.0
 10
23.3516046679
 20
45.7443032017
 30
0.0
  0
SPLINE
  5
390
100
AcDbEntity
  8
0
100
AcDbSpline
 62
7
  6
CONTINUOUS
 70
0
 71
3
 72
8
 73
4
 74
0
 42
0.0000001
 43
0.0000001
 44
0.0000000001
 40
0.0
 40
0.0
 40
0.0
 40
0.0
 40
1.0
 40
1.0
 40
1.0
 40
1.0
 10
23.3516046679
 20
46.0193032019
 30
0.0
 10
23.3516046679
 20
46.0716565098
 30
0.0
 10
23.3754187518
 20
46.1216505322
 30
0.0
 10
23.4123208665
 20
46.1585592159
 30
0.0
  0
SPLINE
  5
391
100
AcDbEntity
  8
0
100
AcDbSpline
 62
7
  6
CONTINUOUS
 70
0
 71
3
 72
8
 73
4
 74
0
 42
0.0000001
 43
0.0000001
 44
0.0000000001
 40
0.0
 40
0.0
 40
0.0
 40
0.0
 40
1.0
 40
1.0
 40
1.0
 40
1.0
 10
23.4123208665
 20
46.1585592159
 30
0.0
 10
23.4492322429
 20
46.1954771629
 30
0.0
 10
23.4992382205
 20
46.2193032022
 30
0.0
 10
23.551604668
 20
46.2193032022
 30
0.0
  0
SPLINE
  5
392
100
AcDbEntity
  8
0
100
AcDbSpline
 62
7
  6
CONTINUOUS
 70
0
 71
3
 72
8
 73
4
 74
0
 42
0.0000001
 43
0.0000001
 44
0.0000000001
 40
0.0
 40
0.0
 40
0.0
 40
0.0
 40
1.0
 40
1.0
 40
1.0
 40
1.0
 10
25.051604668
 20
46.2193032022
 30
0.0
 10
25.1039579755
 20
46.2193032022
 30
0.0
 10
25.1539519977
 20
46.1954891183
 30
0.0
 10
25.1908606813
 20
46.1585870038
 30
0.0
  0
SPLINE
  5
393
100
AcDbEntity
  8
0
100
AcDbSpline
 62
7
  6
CONTINUOUS
 70
0
 71
3
 72
8
 73
4
 74
0
 42
0.0000001
 43
0.0000001
 44
0.0000000001
 40
0.0
 40
0.0
 40
0.0
 40
0.0
 40
1.0
 40
1.0
 40
1.0
 40
1.0
 10
25.1908606813
 20
46.1585870038
 30
0.0
 10
25.2277786262
 20
46.1216756297
 30
0.0
 10
25.2516046649
 20
46.071669656
 30
0.0
 10
25.2516046679
 20
46.019303212
 30
0.0
  0
SPLINE
  5
394
100
AcDbEntity
  8
0
100
AcDbSpline
 62
7
  6
CONTINUOUS
 70
0
 71
3
 72
13
 73
9
 74
0
 42
0.0000001
 43
0.0000001
 44
0.0000000001
 40
0.0
 40
0.0
 40
0.0
 40
0.0
 40
0.0867530277
 40
0.1791479363
 40
0.2818925546
 40
0.3982883234
 40
0.6757556138
 40
1.0
 40
1.0
 40
1.0
 40
1.0
 10
24.6516046679
 20
120.9443032022
 30
0.0
 10
24.5964092194
 20
120.9443032022
 30
0.0
 10
24.4817776021
 20
120.926255855
 30
0.0
 10
24.3183927078
 20
120.8472478184
 30
0.0
 10
24.1658202742
 20
120.7179248764
 30
0.0
 10
23.9718857753
 20
120.4661114691
 30
0.0
 10
23.7979897038
 20
120.0349891545
 30
0.0
 10
23.7516046679
 20
119.6505993374
 30
0.0
 10
23.7516046679
 20
119.4443032022
 30
0.0
  0
SPLINE
  5
395
100
AcDbEntity
  8
0
100
AcDbSpline
 62
7
  6
CONTINUOUS
 70
0
 71
3
 72
8
 73
4
 74
0
 42
0.0000001
 43
0.0000001
 44
0.0000000001
 40
0.0
 40
0.0
 40
0.0
 40
0.0
 40
1.0
 40
1.0
 40
1.0
 40
1.0
 10
11.0901995292
 20
111.8340413851
 30
0.0
 10
11.0650231004
 20
111.7747502119
 30
0.0
 10
11.0516092417
 20
111.7091046269
 30
0.0
 10
11.0516046679
 20
111.6446895994
 30
0.0
  0
SPLINE
  5
396
100
AcDbEntity
  8
0
100
AcDbSpline
 62
7
  6
CONTINUOUS
 70
0
 71
3
 72
13
 73
9
 74
0
 42
0.0000001
 43
0.0000001
 44
0.0000000001
 40
0.0
 40
0.0
 40
0.0
 40
0.0
 40
0.0867530277
 40
0.1791479363
 40
0.2818925546
 40
0.3982883234
 40
0.6757556138
 40
1.0
 40
1.0
 40
1.0
 40
1.0
 10
37.6516046679
 20
120.9443032022
 30
0.0
 10
37.7068001164
 20
120.9443032022
 30
0.0
 10
37.8214317337
 20
120.926255855
 30
0.0
 10
37.984816628
 20
120.8472478184
 30
0.0
 10
38.1373890615
 20
120.7179248763
 30
0.0
 10
38.3313235605
 20
120.466111469
 30
0.0
 10
38.505219632
 20
120.0349891545
 30
0.0
 10
38.5516046679
 20
119.6505993374
 30
0.0
 10
38.5516046679
 20
119.4443032022
 30
0.0
  0
SPLINE
  5
397
100
AcDbEntity
  8
0
100
AcDbSpline
 62
7
  6
CONTINUOUS
 70
0
 71
3
 72
13
 73
9
 74
0
 42
0.0000001
 43
0.0000001
 44
0.0000000001
 40
0.0
 40
0.0
 40
0.0
 40
0.0
 40
0.0717196445
 40
0.15511233
 40
0.256310608
 40
0.3767383566
 40
0.667908469
 40
1.0
 40
1.0
 40
1.0
 40
1.0
 10
11.0516046679
 20
111.3766650503
 30
0.0
 10
11.0516046679
 20
111.3904851648
 30
0.0
 10
11.0595196195
 20
111.4205645839
 30
0.0
 10
11.0904808806
 20
111.4601420566
 30
0.0
 10
11.1380914043
 20
111.4953956453
 30
0.0
 10
11.2272056857
 20
111.5389483531
 30
0.0
 10
11.3673912322
 20
111.5744411777
 30
0.0
 10
11.4876118385
 20
111.5838053936
 30
0.0
 10
11.5516046679
 20
111.5838053936
 30
0.0
  0
SPLINE
  5
398
100
AcDbEntity
  8
0
100
AcDbSpline
 62
7
  6
CONTINUOUS
 70
0
 71
3
 72
9
 73
5
 74
0
 42
0.0000001
 43
0.0000001
 44
0.0000000001
 40
0.0
 40
0.0
 40
0.0
 40
0.0
 40
0.5011193203
 40
1.0
 40
1.0
 40
1.0
 40
1.0
 10
11.5516395747
 20
112.1362584765
 30
0.0
 10
11.4868356304
 20
112.1362584765
 30
0.0
 10
11.3562930895
 20
112.1110840182
 30
0.0
 10
11.24494314
 20
112.0382355489
 30
0.0
 10
11.198875889
 20
111.9930700506
 30
0.0
  0
SPLINE
  5
399
100
AcDbEntity
  8
0
100
AcDbSpline
 62
7
  6
CONTINUOUS
 70
0
 71
3
 72
9
 73
5
 74
0
 42
0.0000001
 43
0.0000001
 44
0.0000000001
 40
0.0
 40
0.0
 40
0.0
 40
0.0
 40
0.2516479039
 40
1.0
 40
1.0
 40
1.0
 40
1.0
 10
11.198875889
 20
111.9930700506
 30
0.0
 10
11.1872971317
 20
111.981717944
 30
0.0
 10
11.1435450001
 20
111.9343624383
 30
0.0
 10
11.1090458666
 20
111.8784273447
 30
0.0
 10
11.0901995292
 20
111.8340413851
 30
0.0
  0
ENDSEC
  0
SECTION
  2
OBJECTS
  0
DICTIONARY
  5
C
100
AcDbDictionary
280
0
281
1
  3
ACAD_GROUP
350
D
  3
ACAD_MLINESTYLE
350
17
  3
ACAD_LAYOUT
350
1A
  3
ACAD_PLOTSETTINGS
350
19
  3
ACAD_PLOTSTYLENAME
350
E
  0
DICTIONARY
  5
D
102
{ACAD_REACTORS
330
C
102
}
100
AcDbDictionary
280
0
281
1
  0
ACDBDICTIONARYWDFLT
  5
E
102
{ACAD_REACTORS
330
C
102
}
100
AcDbDictionary
281
1
  3
Normal
350
F
100
AcDbDictionaryWithDefault
340
F
  0
DICTIONARY
  5
17
102
{ACAD_REACTORS
330
C
102
}
100
AcDbDictionary
280
0
281
1
  3
Standard
350
18
  0
DICTIONARY
  5
19
102
{ACAD_REACTORS
330
C
102
}
100
AcDbDictionary
281
1
  0
DICTIONARY
  5
1A
102
{ACAD_REACTORS
330
C
102
}
100
AcDbDictionary
281
1
  3
Model
350
39A
  3
Layout1
350
39B
  0
ACDBPLACEHOLDER
  5
F
102
{ACAD_REACTORS
330
E
102
}
  0
MLINESTYLE
  5
18
102
{ACAD_REACTORS
330
17
102
}
100
AcDbMlineStyle
  2
STANDARD
 70
0
  3

 62
256
 51
90.0
 52
90.0
 71
2
 49
0.5
 62
256
  6
BYLAYER
 49
-0.5
 62
256
  6
BYLAYER
  0
LAYOUT
  5
39A
102
{ACAD_REACTORS
330
1A
102
}
100
AcDbPlotSettings
  1

  2
none_device
  4

  6

 40
0.0
 41
0.0
 42
0.0
 43
0.0
 44
210.0
 45
297.0
 46
0.0
 47
0.0
 48
0.0
 49
0.0
140
0.0
141
0.0
142
1.0
143
1.0
 70
1024
 72
1
 73
0
 74
0
  7

 75
0
147
1.0
148
0.0
149
0.0
100
AcDbLayout
  1
Model
 70
0
 71
0
 10
0.0
 20
0.0
 11
210.0
 21
297.0
 12
0.0
 22
0.0
 32
0.0
 14
0.0
 24
0.0
 34
0.0
 15
0.0
 25
0.0
 35
0.0
146
0.0
 13
0.0
 23
0.0
 33
0.0
 16
1.0
 26
0.0
 36
0.0
 17
0.0
 27
1.0
 37
0.0
 76
0
330
210
345
0
346
0
  0
LAYOUT
  5
39B
102
{ACAD_REACTORS
330
1A
102
}
100
AcDbPlotSettings
  1

  2
none_device
  4

  6

 40
0.0
 41
0.0
 42
0.0
 43
0.0
 44
210.0
 45
297.0
 46
0.0
 47
0.0
 48
0.0
 49
0.0
140
0.0
141
0.0
142
1.0
143
1.0
 70
0
 72
1
 73
0
 74
0
  7

 75
0
147
1.0
148
0.0
149
0.0
100
AcDbLayout
  1
Layout1
 70
0
 71
1
 10
0.0
 20
0.0
 11
210.0
 21
297.0
 12
0.0
 22
0.0
 32
0.0
 14
0.0
 24
0.0
 34
0.0
 15
0.0
 25
0.0
 35
0.0
146
0.0
 13
0.0
 23
0.0
 33
0.0
 16
1.0
 26
0.0
 36
0.0
 17
0.0
 27
1.0
 37
0.0
 76
0
330
211
345
0
346
0
  0
ENDSEC
  0
EOF
