999
DXF file: C:\Users\sesa63760\Dev\_Creo\CAD\MCADID0005537_3D-CAD\drw0001_5.dxf
999
Pro/ENGINEER 2019471 by Parametric Technology Corporation
  0
SECTION
  2
HEADER
  9
$ACADVER
  1
AC1024
  9
$DWGCODEPAGE
  3
ANSI_1252
  9
$EXTMAX
 10
58.3742050032
 20
82.5578042188
 30
0.0
  9
$EXTMIN
 10
0.0
 20
0.0
 30
0.0
  9
$LIMMIN
 10
0.0
 20
0.0
  9
$LIMMAX
 10
58.3742050032
 20
82.5578042188
  9
$VIEWCTR
 10
29.1871025016
 20
41.2789021094
  9
$VIEWSIZE
 40
82.5578042188
  9
$CLAYER
  8
0
  9
$LTSCALE
 40
5.3815457565
  9
$CELTYPE
  6
BYLAYER
  9
$DIMSCALE
 40
1.0
  9
$DIMASZ
 40
0.6949310119
  9
$DIMEXO
 40
1.0
  9
$DIMDLI
 40
3.7181588863
  9
$DIMEXE
 40
1.0
  9
$DIMCEN
 40
0.8806165783
  9
$DIMLFAC
 40
1.0
  9
$DIMBLK
  1
_FILLED
  9
$DIMALT
 70
0
  9
$DIMALTF
 40
0.0393700787
  9
$DIMTXT
 40
0.9729034167
  9
$DIMTOL
 70
1
  9
$DIMLIM
 70
0
  9
$DIMTFAC
 40
1.0
  9
$DIMTP
 40
0.01
  9
$DIMTM
 40
0.01
  9
$DIMGAP
 40
0.625
  9
$DIMDSEP
 70
46
  9
$AUNITS
 70
0
  9
$PDMODE
 70
3
  9
$PDSIZE
 40
0.3125
  9
$HANDSEED
  5
300
  9
$TILEMODE
 70
1
  9
$MEASUREMENT
 70
1
  9
$INSUNITS
 70
4
  0
ENDSEC
  0
SECTION
  2
CLASSES
  0
CLASS
  1
ACDBDICTIONARYWDFLT
  2
AcDbDictionaryWithDefault
  3
AutoCAD 2000
 90
0
 91
1
280
0
281
0
  0
CLASS
  1
ACDBPLACEHOLDER
  2
AcDbPlaceHolder
  3
AutoCAD 2000
 90
0
 91
1
280
0
281
0
  0
CLASS
  1
LAYOUT
  2
AcDbLayout
  3
AutoCAD 2000
 90
0
 91
0
280
0
281
0
  0
ENDSEC
  0
SECTION
  2
TABLES
  0
TABLE
  2
VPORT
  5
8
100
AcDbSymbolTable
 70
2
  0
VPORT
  5
1F4
100
AcDbSymbolTableRecord
100
AcDbViewportTableRecord
  2
*ACTIVE
 70
0
 10
0.0
 20
0.0
 11
1.0
 21
1.0
 12
29.1871025016
 22
41.2789021094
 13
0.0
 23
0.0
 14
1.0
 24
1.0
 15
0.0
 25
0.0
 16
0.0
 26
0.0
 36
1.0
 17
0.0
 27
0.0
 37
0.0
 40
82.5578042188
 41
0.7070707071
 42
50.0
 43
0.0
 44
0.0
 50
0.0
 51
0.0
 71
0
 72
100
 73
1
 74
1
 75
0
 76
0
 77
0
 78
0
  0
ENDTAB
  0
TABLE
  2
LTYPE
  5
5
100
AcDbSymbolTable
 70
6
  0
LTYPE
  5
14
100
AcDbSymbolTableRecord
100
AcDbLinetypeTableRecord
  2
BYBLOCK
 70
0
  3

 72
65
 73
0
 40
0.0
  0
LTYPE
  5
15
100
AcDbSymbolTableRecord
100
AcDbLinetypeTableRecord
  2
BYLAYER
 70
0
  3

 72
65
 73
0
 40
0.0
  0
LTYPE
  5
16
100
AcDbSymbolTableRecord
100
AcDbLinetypeTableRecord
  2
CONTINUOUS
 70
64
  3
Solid line
 72
65
 73
0
 40
0.0
  0
LTYPE
  5
1F5
100
AcDbSymbolTableRecord
100
AcDbLinetypeTableRecord
  2
CENTER
 70
64
  3
____ _ ____ _ ____ _ ____ _ ____ _ ____ _ ____
 72
65
 73
4
 40
0.6
 49
0.375
 74
0
 49
-0.075
 74
0
 49
0.075
 74
0
 49
-0.075
 74
0
  0
LTYPE
  5
1F6
100
AcDbSymbolTableRecord
100
AcDbLinetypeTableRecord
  2
HIDDEN
 70
64
  3
- - - - - - - - - - - - - - - - - - - -
 72
65
 73
2
 40
0.2
 49
0.1
 74
0
 49
-0.1
 74
0
  0
LTYPE
  5
1F7
100
AcDbSymbolTableRecord
100
AcDbLinetypeTableRecord
  2
PHANTOM
 70
64
  3
_____ _ _ _____ _ _ _____ _ _ _____
 72
65
 73
6
 40
0.8
 49
0.45
 74
0
 49
-0.05
 74
0
 49
0.1
 74
0
 49
-0.05
 74
0
 49
0.1
 74
0
 49
-0.05
 74
0
  0
LTYPE
  5
1F8
100
AcDbSymbolTableRecord
100
AcDbLinetypeTableRecord
  2
DOT
 70
64
  3
. . . . . . . . . . . . . . . . . . . .
 72
65
 73
2
 40
0.2
 49
0.1
 74
0
 49
-0.1
 74
0
  0
LTYPE
  5
1F9
100
AcDbSymbolTableRecord
100
AcDbLinetypeTableRecord
  2
DASHED
 70
64
  3
- - - - - - - - - - - - - - - - - - - -
 72
65
 73
2
 40
0.2
 49
0.1
 74
0
 49
-0.1
 74
0
  0
ENDTAB
  0
TABLE
  2
LAYER
  5
2
100
AcDbSymbolTable
 70
36
  0
LAYER
  5
10
100
AcDbSymbolTableRecord
100
AcDbLayerTableRecord
  2
0
 70
0
 62
7
  6
CONTINUOUS
370
-3
390
F
  0
LAYER
  5
1FA
100
AcDbSymbolTableRecord
100
AcDbLayerTableRecord
  2
DEFAULT_1
 70
0
 62
7
  6
CENTER
370
-3
390
F
  0
LAYER
  5
1FB
100
AcDbSymbolTableRecord
100
AcDbLayerTableRecord
  2
DEFAULT_2
 70
0
 62
7
  6
HIDDEN
370
-3
390
F
  0
LAYER
  5
1FC
100
AcDbSymbolTableRecord
100
AcDbLayerTableRecord
  2
DEFAULT_3
 70
0
 62
7
  6
PHANTOM
370
-3
390
F
  0
LAYER
  5
1FD
100
AcDbSymbolTableRecord
100
AcDbLayerTableRecord
  2
00_COMPONENTS
 70
0
 62
7
  6
CONTINUOUS
370
-3
390
F
  0
LAYER
  5
1FE
100
AcDbSymbolTableRecord
100
AcDbLayerTableRecord
  2
01_1_DEFAULT_DATUMS
 70
0
 62
7
  6
CONTINUOUS
370
-3
390
F
  0
LAYER
  5
1FF
100
AcDbSymbolTableRecord
100
AcDbLayerTableRecord
  2
01_PLANES
 70
0
 62
7
  6
CONTINUOUS
370
-3
390
F
  0
LAYER
  5
200
100
AcDbSymbolTableRecord
100
AcDbLayerTableRecord
  2
02_COORD_SYS
 70
0
 62
7
  6
CONTINUOUS
370
-3
390
F
  0
LAYER
  5
201
100
AcDbSymbolTableRecord
100
AcDbLayerTableRecord
  2
03_AXES
 70
0
 62
7
  6
CONTINUOUS
370
-3
390
F
  0
LAYER
  5
202
100
AcDbSymbolTableRecord
100
AcDbLayerTableRecord
  2
04_POINTS
 70
0
 62
7
  6
CONTINUOUS
370
-3
390
F
  0
LAYER
  5
203
100
AcDbSymbolTableRecord
100
AcDbLayerTableRecord
  2
05_CURVES
 70
0
 62
7
  6
CONTINUOUS
370
-3
390
F
  0
LAYER
  5
204
100
AcDbSymbolTableRecord
100
AcDbLayerTableRecord
  2
06_SURFS
 70
0
 62
7
  6
CONTINUOUS
370
-3
390
F
  0
LAYER
  5
205
100
AcDbSymbolTableRecord
100
AcDbLayerTableRecord
  2
07_COSMETICS
 70
0
 62
7
  6
CONTINUOUS
370
-3
390
F
  0
LAYER
  5
206
100
AcDbSymbolTableRecord
100
AcDbLayerTableRecord
  2
10_NOTES
 70
0
 62
7
  6
CONTINUOUS
370
-3
390
F
  0
LAYER
  5
207
100
AcDbSymbolTableRecord
100
AcDbLayerTableRecord
  2
11_NOTES_PUB
 70
0
 62
7
  6
CONTINUOUS
370
-3
390
F
  0
LAYER
  5
208
100
AcDbSymbolTableRecord
100
AcDbLayerTableRecord
  2
13_REF_GTOL
 70
0
 62
7
  6
CONTINUOUS
370
-3
390
F
  0
LAYER
  5
209
100
AcDbSymbolTableRecord
100
AcDbLayerTableRecord
  2
16_MISC
 70
0
 62
7
  6
CONTINUOUS
370
-3
390
F
  0
LAYER
  5
20A
100
AcDbSymbolTableRecord
100
AcDbLayerTableRecord
  2
17_NO_PRINT
 70
0
 62
7
  6
CONTINUOUS
370
-3
390
F
  0
LAYER
  5
20B
100
AcDbSymbolTableRecord
100
AcDbLayerTableRecord
  2
18_DATUM_CAMS_JOINTS
 70
0
 62
7
  6
CONTINUOUS
370
-3
390
F
  0
LAYER
  5
20C
100
AcDbSymbolTableRecord
100
AcDbLayerTableRecord
  2
19_DATUM_FUNCTIONAL
 70
0
 62
7
  6
CONTINUOUS
370
-3
390
F
  0
LAYER
  5
20D
100
AcDbSymbolTableRecord
100
AcDbLayerTableRecord
  2
20_DATUM_KINEMATIC_SCHEME
 70
0
 62
7
  6
CONTINUOUS
370
-3
390
F
  0
ENDTAB
  0
TABLE
  2
STYLE
  5
3
100
AcDbSymbolTable
 70
1
  0
STYLE
  5
11
100
AcDbSymbolTableRecord
100
AcDbTextStyleTableRecord
  2
STANDARD
 70
0
 40
0.0
 41
1.0
 50
0.0
 71
0
 42
0.2
  3
ARIAL.TTF
  4

  0
STYLE
  5
20E
100
AcDbSymbolTableRecord
100
AcDbTextStyleTableRecord
  2
TEXTSTYLE_1
 70
0
 40
0.0
 41
0.8
 50
0.0
 71
0
 42
0.2
  3
gdt
  4

  0
ENDTAB
  0
TABLE
  2
VIEW
  5
6
100
AcDbSymbolTable
 70
0
  0
ENDTAB
  0
TABLE
  2
UCS
  5
7
100
AcDbSymbolTable
 70
0
  0
ENDTAB
  0
TABLE
  2
APPID
  5
9
100
AcDbSymbolTable
 70
1
  0
APPID
  5
20F
100
AcDbSymbolTableRecord
100
AcDbRegAppTableRecord
  2
ACAD
 70
0
  0
ENDTAB
  0
TABLE
  2
BLOCK_RECORD
  5
1
100
AcDbSymbolTable
 70
0
  0
BLOCK_RECORD
  5
210
100
AcDbSymbolTableRecord
100
AcDbBlockTableRecord
  2
*Model_Space
  0
BLOCK_RECORD
  5
211
100
AcDbSymbolTableRecord
100
AcDbBlockTableRecord
  2
*Paper_Space
  0
BLOCK_RECORD
  5
212
100
AcDbSymbolTableRecord
100
AcDbBlockTableRecord
  2
_FILLED
  0
ENDTAB
  0
TABLE
  2
DIMSTYLE
  5
A
100
AcDbSymbolTable
 70
1
100
AcDbDimStyleTable
 71
0
  0
DIMSTYLE
105
213
100
AcDbSymbolTableRecord
100
AcDbDimStyleTableRecord
  2
STANDARD
 70
0
  3

  4

 40
1.0
 41
0.6949310119
 42
1.0
 43
0.38
 44
1.0
 45
0.0
 46
0.0
 47
0.01
 48
0.01
140
0.9729034167
141
0.09
142
0.0
143
25.4
144
1.0
145
0.0
146
1.0
147
0.625
 71
1
 72
0
 73
0
 74
0
 75
0
 76
0
 77
1
 78
8
 79
2
170
0
171
1
172
0
173
0
174
0
175
0
176
0
177
0
178
0
270
2
179
2
271
2
272
2
273
2
274
2
275
0
280
0
281
0
282
0
283
1
284
8
285
0
286
0
287
3
288
0
340
11
278
46
341
212
342
212
343
212
344
212
  0
ENDTAB
  0
ENDSEC
  0
SECTION
  2
BLOCKS
  0
BLOCK
  5
20
100
AcDbEntity
  8
0
100
AcDbBlockBegin
  2
*Model_Space
 70
0
 10
0.0
 20
0.0
 30
0.0
  3
*Model_Space
  1

  0
ENDBLK
  5
21
100
AcDbEntity
  8
0
100
AcDbBlockEnd
  0
BLOCK
  5
1C
100
AcDbEntity
  8
0
100
AcDbBlockBegin
  2
*Paper_Space
 70
0
 10
0.0
 20
0.0
 30
0.0
  3
*Paper_Space
  1

  0
ENDBLK
  5
1D
100
AcDbEntity
  8
0
100
AcDbBlockEnd
  0
BLOCK
  5
214
100
AcDbEntity
  8
0
100
AcDbBlockBegin
  2
_FILLED
 70
64
 10
0.0
 20
0.0
  3
_FILLED
  1

  0
SOLID
  5
215
100
AcDbEntity
  8
0
  6
BYBLOCK
 62
0
100
AcDbTrace
 10
0.0
 20
0.0
 11
-1.0
 21
0.25
 12
-1.0
 22
-0.25
 13
-1.0
 23
-0.25
  0
ENDBLK
  5
216
100
AcDbEntity
  8
0
  6
BYBLOCK
 62
0
100
AcDbBlockEnd
  0
ENDSEC
  0
SECTION
  2
ENTITIES
  0
LINE
  5
217
100
AcDbEntity
  8
0
100
AcDbLine
 62
7
  6
BYLAYER
 10
6.8045399135
 20
45.2008981313
 11
6.8045399135
 21
47.3590059755
  0
LINE
  5
218
100
AcDbEntity
  8
0
100
AcDbLine
 62
7
  6
BYLAYER
 10
8.0045399135
 20
34.5104542551
 11
8.0045399135
 21
39.8871317304
  0
LINE
  5
219
100
AcDbEntity
  8
0
100
AcDbLine
 62
7
  6
BYLAYER
 10
8.0045399135
 20
42.8727723764
 11
8.0045399135
 21
49.1722559489
  0
LINE
  5
21A
100
AcDbEntity
  8
0
100
AcDbLine
 62
7
  6
BYLAYER
 10
8.2045399135
 20
44.0482848662
 11
8.2045399135
 21
47.1945887574
  0
LINE
  5
21B
100
AcDbEntity
  8
0
100
AcDbLine
 62
7
  6
BYLAYER
 10
8.3045399135
 20
49.5132170804
 11
8.3045399135
 21
50.5799452989
  0
LINE
  5
21C
100
AcDbEntity
  8
0
100
AcDbLine
 62
7
  6
BYLAYER
 10
8.3045399135
 20
50.5799520534
 11
9.2045399135
 21
51.4799520534
  0
LINE
  5
21D
100
AcDbEntity
  8
0
100
AcDbLine
 62
7
  6
BYLAYER
 10
8.0045399135
 20
34.5104542551
 11
8.3045407132
 21
33.9916259267
  0
LINE
  5
21E
100
AcDbEntity
  8
0
100
AcDbLine
 62
7
  6
BYLAYER
 10
9.6045399135
 20
49.3279945958
 11
9.6045399135
 21
51.4799520534
  0
LINE
  5
21F
100
AcDbEntity
  8
0
100
AcDbLine
 62
7
  6
BYLAYER
 10
11.2055399135
 20
32.2800907925
 11
11.2055399135
 21
32.9799519393
  0
LINE
  5
220
100
AcDbEntity
  8
0
100
AcDbLine
 62
7
  6
BYLAYER
 10
11.4045399135
 20
51.4799520534
 11
11.4045399135
 21
47.1945887574
  0
LINE
  5
221
100
AcDbEntity
  8
0
100
AcDbLine
 62
7
  6
BYLAYER
 10
11.4045399135
 20
38.1799520534
 11
11.4045399135
 21
34.6678673377
  0
LINE
  5
222
100
AcDbEntity
  8
0
100
AcDbLine
 62
7
  6
BYLAYER
 10
11.6525399135
 20
42.1799520534
 11
11.6525399135
 21
40.5799520534
  0
LINE
  5
223
100
AcDbEntity
  8
0
100
AcDbLine
 62
7
  6
BYLAYER
 10
13.3045399135
 20
42.1799520534
 11
13.3045399135
 21
40.5799520534
  0
LINE
  5
224
100
AcDbEntity
  8
0
100
AcDbLine
 62
7
  6
BYLAYER
 10
14.0935399135
 20
31.2399520534
 11
14.0935399135
 21
34.5799521027
  0
LINE
  5
225
100
AcDbEntity
  8
0
100
AcDbLine
 62
7
  6
BYLAYER
 10
14.0935399135
 20
34.6678206156
 11
14.0935399135
 21
51.4799520534
  0
LINE
  5
226
100
AcDbEntity
  8
0
100
AcDbLine
 62
7
  6
BYLAYER
 10
17.1044321293
 20
51.4799520534
 11
17.1044321293
 21
51.8799503931
  0
LINE
  5
227
100
AcDbEntity
  8
0
100
AcDbLine
 62
7
  6
BYLAYER
 10
17.2800723479
 20
51.4799520534
 11
17.2800723479
 21
51.8763916516
  0
LINE
  5
228
100
AcDbEntity
  8
0
100
AcDbLine
 62
7
  6
BYLAYER
 10
26.9025401184
 20
27.1299520497
 11
36.7886157367
 21
27.1299520497
  0
LINE
  5
229
100
AcDbEntity
  8
0
100
AcDbLine
 62
7
  6
BYLAYER
 10
25.6525399135
 20
27.8049522963
 11
26.9025401184
 21
27.8049522963
  0
LINE
  5
22A
100
AcDbEntity
  8
0
100
AcDbLine
 62
7
  6
BYLAYER
 10
37.2025398509
 20
28.9059520534
 11
37.4325402053
 21
28.9059520534
  0
LINE
  5
22B
100
AcDbEntity
  8
0
100
AcDbLine
 62
7
  6
BYLAYER
 10
8.0045399135
 20
35.1799520534
 11
10.9211904936
 21
38.0966026335
  0
LINE
  5
22C
100
AcDbEntity
  8
0
100
AcDbLine
 62
7
  6
BYLAYER
 10
24.0415518231
 20
50.8513781928
 11
24.6698372234
 21
51.1232309963
  0
LINE
  5
22D
100
AcDbEntity
  8
0
100
AcDbLine
 62
7
  6
BYLAYER
 10
37.9364641934
 20
29.2581728955
 11
48.4055120617
 21
29.2581728955
  0
LINE
  5
22E
100
AcDbEntity
  8
0
100
AcDbLine
 62
7
  6
BYLAYER
 10
51.5050272069
 20
29.8129715568
 11
37.9364641934
 21
29.8129715568
  0
LINE
  5
22F
100
AcDbEntity
  8
0
100
AcDbLine
 62
7
  6
BYLAYER
 10
37.6145068741
 20
30.126476885
 11
37.9364641888
 21
30.126476885
  0
LINE
  5
230
100
AcDbEntity
  8
0
100
AcDbLine
 62
7
  6
BYLAYER
 10
22.9545399135
 20
30.5049520534
 11
25.6525399135
 21
30.5049520534
  0
LINE
  5
231
100
AcDbEntity
  8
0
100
AcDbLine
 62
7
  6
BYLAYER
 10
21.1035399135
 20
51.4799520534
 11
21.1035399135
 21
51.6877161174
  0
LINE
  5
232
100
AcDbEntity
  8
0
100
AcDbLine
 62
7
  6
BYLAYER
 10
9.2045399135
 20
40.5799520534
 11
8.0045399135
 21
39.8871317304
  0
LINE
  5
233
100
AcDbEntity
  8
0
100
AcDbLine
 62
7
  6
BYLAYER
 10
22.6935399135
 20
30.8799520534
 11
22.7045399135
 21
30.8799520534
  0
LINE
  5
234
100
AcDbEntity
  8
0
100
AcDbLine
 62
7
  6
BYLAYER
 10
14.0935399135
 20
31.2399520534
 11
22.6935399135
 21
31.2399520534
  0
LINE
  5
235
100
AcDbEntity
  8
0
100
AcDbLine
 62
7
  6
BYLAYER
 10
11.2055399135
 20
32.2799520534
 11
14.0935399135
 21
32.2799520534
  0
LINE
  5
236
100
AcDbEntity
  8
0
100
AcDbLine
 62
7
  6
BYLAYER
 10
8.0045399135
 20
42.8727723764
 11
9.2045399135
 21
42.1799520534
  0
LINE
  5
237
100
AcDbEntity
  8
0
100
AcDbLine
 62
7
  6
BYLAYER
 10
22.2935399135
 20
51.4799520534
 11
22.2935399135
 21
49.2061900455
  0
LINE
  5
238
100
AcDbEntity
  8
0
100
AcDbLine
 62
7
  6
BYLAYER
 10
22.2935399135
 20
38.1799522509
 11
22.2935399135
 21
34.5799521027
  0
LINE
  5
239
100
AcDbEntity
  8
0
100
AcDbLine
 62
7
  6
BYLAYER
 10
22.2935399135
 20
38.8799520534
 11
22.2935399135
 21
43.8799520534
  0
LINE
  5
23A
100
AcDbEntity
  8
0
100
AcDbLine
 62
7
  6
BYLAYER
 10
22.6935399135
 20
30.8799549071
 11
22.6935399135
 21
31.2399520534
  0
LINE
  5
23B
100
AcDbEntity
  8
0
100
AcDbLine
 62
7
  6
BYLAYER
 10
22.7045399135
 20
30.7549520534
 11
22.7045399135
 21
52.0049520534
  0
LINE
  5
23C
100
AcDbEntity
  8
0
100
AcDbLine
 62
7
  6
BYLAYER
 10
22.9545399135
 20
30.5049520534
 11
22.9545399135
 21
52.2549520534
  0
LINE
  5
23D
100
AcDbEntity
  8
0
100
AcDbLine
 62
7
  6
BYLAYER
 10
24.8688894375
 20
34.166406614
 11
25.6525399135
 21
34.1663662014
  0
LINE
  5
23E
100
AcDbEntity
  8
0
100
AcDbLine
 62
7
  6
BYLAYER
 10
23.044539914
 20
50.0521897423
 11
23.044539914
 21
49.8448934798
  0
LINE
  5
23F
100
AcDbEntity
  8
0
100
AcDbLine
 62
7
  6
BYLAYER
 10
23.044539914
 20
36.08890049
 11
23.044539914
 21
35.7973054926
  0
LINE
  5
240
100
AcDbEntity
  8
0
100
AcDbLine
 62
7
  6
BYLAYER
 10
23.4025399135
 20
52.2548521831
 11
23.4025399135
 21
52.0196477727
  0
LINE
  5
241
100
AcDbEntity
  8
0
100
AcDbLine
 62
7
  6
BYLAYER
 10
24.6698372234
 20
51.1232309963
 11
24.6698372234
 21
48.4823116442
  0
LINE
  5
242
100
AcDbEntity
  8
0
100
AcDbLine
 62
7
  6
BYLAYER
 10
24.6698372234
 20
37.8797951183
 11
24.6698372234
 21
34.2131529829
  0
LINE
  5
243
100
AcDbEntity
  8
0
100
AcDbLine
 62
7
  6
BYLAYER
 10
8.0045399135
 20
34.5799520534
 11
22.2935399135
 21
34.5799520534
  0
LINE
  5
244
100
AcDbEntity
  8
0
100
AcDbLine
 62
7
  6
BYLAYER
 10
14.0935399135
 20
34.6677792438
 11
11.4045399135
 21
34.6677792438
  0
LINE
  5
245
100
AcDbEntity
  8
0
100
AcDbLine
 62
7
  6
BYLAYER
 10
11.4045399135
 20
34.737944519
 11
8.0045399135
 21
34.737944519
  0
LINE
  5
246
100
AcDbEntity
  8
0
100
AcDbLine
 62
7
  6
BYLAYER
 10
22.2935399135
 20
34.7384426194
 11
14.0935399135
 21
34.7384426194
  0
LINE
  5
247
100
AcDbEntity
  8
0
100
AcDbLine
 62
7
  6
BYLAYER
 10
24.8688894375
 20
34.1664470289
 11
24.8688894375
 21
37.9387809145
  0
LINE
  5
248
100
AcDbEntity
  8
0
100
AcDbLine
 62
7
  6
BYLAYER
 10
24.8688894375
 20
48.4350666205
 11
24.8688894375
 21
51.159757319
  0
LINE
  5
249
100
AcDbEntity
  8
0
100
AcDbLine
 62
7
  6
BYLAYER
 10
25.6525399135
 20
27.8049522963
 11
25.6525399135
 21
54.9549518105
  0
LINE
  5
24A
100
AcDbEntity
  8
0
100
AcDbLine
 62
7
  6
BYLAYER
 10
26.9025399135
 20
36.3281584704
 11
25.6525399135
 21
36.3281584704
  0
LINE
  5
24B
100
AcDbEntity
  8
0
100
AcDbLine
 62
7
  6
BYLAYER
 10
11.4045399135
 20
37.5037278966
 11
10.3283157568
 21
37.5037278966
  0
LINE
  5
24C
100
AcDbEntity
  8
0
100
AcDbLine
 62
7
  6
BYLAYER
 10
25.6525399135
 20
37.9388833805
 11
24.8688894375
 21
37.9388321522
  0
LINE
  5
24D
100
AcDbEntity
  8
0
100
AcDbLine
 62
7
  6
BYLAYER
 10
26.9025401184
 20
27.1299520459
 11
26.9025401184
 21
55.6299520608
  0
LINE
  5
24E
100
AcDbEntity
  8
0
100
AcDbLine
 62
7
  6
BYLAYER
 10
28.1025399135
 20
40.3299520534
 11
28.1025399135
 21
42.4299520534
  0
LINE
  5
24F
100
AcDbEntity
  8
0
100
AcDbLine
 62
7
  6
BYLAYER
 10
22.2935399135
 20
38.1799522509
 11
14.0935399135
 21
38.1799522509
  0
LINE
  5
250
100
AcDbEntity
  8
0
100
AcDbLine
 62
7
  6
BYLAYER
 10
11.4045399135
 20
38.1799520534
 11
11.1062709747
 21
38.1799520534
  0
LINE
  5
251
100
AcDbEntity
  8
0
100
AcDbLine
 62
7
  6
BYLAYER
 10
22.2935399135
 20
38.8799520534
 11
14.0935399135
 21
38.8799520534
  0
LINE
  5
252
100
AcDbEntity
  8
0
100
AcDbLine
 62
7
  6
BYLAYER
 10
28.1025399135
 20
40.3299520534
 11
26.9025399135
 21
40.2249520534
  0
LINE
  5
253
100
AcDbEntity
  8
0
100
AcDbLine
 62
7
  6
BYLAYER
 10
13.3045399135
 20
40.5799520534
 11
9.2045399135
 21
40.5799520534
  0
LINE
  5
254
100
AcDbEntity
  8
0
100
AcDbLine
 62
7
  6
BYLAYER
 10
9.2045399135
 20
42.1799520534
 11
13.3045399135
 21
42.1799520534
  0
LINE
  5
255
100
AcDbEntity
  8
0
100
AcDbLine
 62
7
  6
BYLAYER
 10
26.9025399135
 20
42.5349520534
 11
28.1025399135
 21
42.4299520534
  0
LINE
  5
256
100
AcDbEntity
  8
0
100
AcDbLine
 62
7
  6
BYLAYER
 10
14.0935399135
 20
43.8799520534
 11
17.1575463341
 21
43.8799520534
  0
LINE
  5
257
100
AcDbEntity
  8
0
100
AcDbLine
 62
7
  6
BYLAYER
 10
19.649533493
 20
43.8799520534
 11
22.2935399135
 21
43.8799520534
  0
LINE
  5
258
100
AcDbEntity
  8
0
100
AcDbLine
 62
7
  6
BYLAYER
 10
8.2045399135
 20
44.0482848662
 11
14.0935399135
 21
44.0482848662
  0
LINE
  5
259
100
AcDbEntity
  8
0
100
AcDbLine
 62
7
  6
BYLAYER
 10
6.8045399135
 20
45.2008981313
 11
8.0045399135
 21
45.1799520534
  0
LINE
  5
25A
100
AcDbEntity
  8
0
100
AcDbLine
 62
7
  6
BYLAYER
 10
37.9364641872
 20
46.7627116736
 11
37.4325402053
 21
46.7625817088
  0
LINE
  5
25B
100
AcDbEntity
  8
0
100
AcDbLine
 62
7
  6
BYLAYER
 10
25.6525399135
 20
46.4317456364
 11
26.9025399135
 21
46.4317456364
  0
LINE
  5
25C
100
AcDbEntity
  8
0
100
AcDbLine
 62
7
  6
BYLAYER
 10
51.5623969093
 20
46.8611854087
 11
37.9364641872
 21
46.8611854087
  0
LINE
  5
25D
100
AcDbEntity
  8
0
100
AcDbLine
 62
7
  6
BYLAYER
 10
36.7886157367
 20
55.6299520571
 11
36.7886157367
 21
27.1299520497
  0
LINE
  5
25E
100
AcDbEntity
  8
0
100
AcDbLine
 62
7
  6
BYLAYER
 10
37.2025398509
 20
54.2399521869
 11
37.2025398509
 21
52.9480318418
  0
LINE
  5
25F
100
AcDbEntity
  8
0
100
AcDbLine
 62
7
  6
BYLAYER
 10
37.2025398509
 20
47.0072585368
 11
37.2025398509
 21
28.5199519199
  0
LINE
  5
260
100
AcDbEntity
  8
0
100
AcDbLine
 62
7
  6
BYLAYER
 10
37.2064641931
 20
46.7627116736
 11
37.2064641931
 21
52.9440750314
  0
LINE
  5
261
100
AcDbEntity
  8
0
100
AcDbLine
 62
7
  6
BYLAYER
 10
37.4325402053
 20
53.8549518165
 11
37.4325402053
 21
52.6339593183
  0
LINE
  5
262
100
AcDbEntity
  8
0
100
AcDbLine
 62
7
  6
BYLAYER
 10
37.4325402053
 20
46.7627116736
 11
37.4325402053
 21
28.9059520534
  0
LINE
  5
263
100
AcDbEntity
  8
0
100
AcDbLine
 62
7
  6
BYLAYER
 10
38.0871778535
 20
51.0305377871
 11
38.0425399135
 21
51.0187013599
  0
LINE
  5
264
100
AcDbEntity
  8
0
100
AcDbLine
 62
7
  6
BYLAYER
 10
8.0045399135
 20
47.3799520534
 11
6.8045399135
 21
47.3590059755
  0
LINE
  5
265
100
AcDbEntity
  8
0
100
AcDbLine
 62
7
  6
BYLAYER
 10
11.4045399135
 20
47.1945887574
 11
8.2045399135
 21
47.1945887574
  0
LINE
  5
266
100
AcDbEntity
  8
0
100
AcDbLine
 62
7
  6
BYLAYER
 10
24.8688894375
 20
48.4350255139
 11
25.6525399135
 21
48.434984417
  0
LINE
  5
267
100
AcDbEntity
  8
0
100
AcDbLine
 62
7
  6
BYLAYER
 10
37.9328554623
 20
44.650780546
 11
37.9328554623
 21
32.2653489795
  0
LINE
  5
268
100
AcDbEntity
  8
0
100
AcDbLine
 62
7
  6
BYLAYER
 10
37.9364641931
 20
29.2582765516
 11
37.936464193
 21
30.126476885
  0
LINE
  5
269
100
AcDbEntity
  8
0
100
AcDbLine
 62
7
  6
BYLAYER
 10
37.9364641914
 20
46.7627116736
 11
37.9364641908
 21
53.5033897412
  0
LINE
  5
26A
100
AcDbEntity
  8
0
100
AcDbLine
 62
7
  6
BYLAYER
 10
38.0425399135
 20
51.8809547858
 11
38.0425399135
 21
50.9881880877
  0
LINE
  5
26B
100
AcDbEntity
  8
0
100
AcDbLine
 62
7
  6
BYLAYER
 10
38.0925398868
 20
50.9733164924
 11
38.0925398868
 21
51.8588866788
  0
LINE
  5
26C
100
AcDbEntity
  8
0
100
AcDbLine
 62
7
  6
BYLAYER
 10
37.4328446055
 20
28.9059520534
 11
37.9328554623
 21
32.2653489795
  0
LINE
  5
26D
100
AcDbEntity
  8
0
100
AcDbLine
 62
7
  6
BYLAYER
 10
9.4703495232
 20
49.0252126025
 11
11.4045399135
 21
49.0252126025
  0
LINE
  5
26E
100
AcDbEntity
  8
0
100
AcDbLine
 62
7
  6
BYLAYER
 10
22.2935399135
 20
49.2061900455
 11
14.0935399135
 21
49.2061900455
  0
LINE
  5
26F
100
AcDbEntity
  8
0
100
AcDbLine
 62
7
  6
BYLAYER
 10
37.9582729253
 20
49.3151808164
 11
37.9364641932
 21
49.3151808164
  0
LINE
  5
270
100
AcDbEntity
  8
0
100
AcDbLine
 62
7
  6
BYLAYER
 10
11.4045399135
 20
49.3279945958
 11
9.6045399135
 21
49.3279945958
  0
LINE
  5
271
100
AcDbEntity
  8
0
100
AcDbLine
 62
7
  6
BYLAYER
 10
14.0935399135
 20
49.6745284784
 11
22.2935399135
 21
49.6745284784
  0
LINE
  5
272
100
AcDbEntity
  8
0
100
AcDbLine
 62
7
  6
BYLAYER
 10
22.2935399135
 20
49.9875314831
 11
14.0935399135
 21
49.9875314831
  0
LINE
  5
273
100
AcDbEntity
  8
0
100
AcDbLine
 62
7
  6
BYLAYER
 10
11.4045399135
 20
50.4799520534
 11
14.0935399135
 21
50.4799520534
  0
LINE
  5
274
100
AcDbEntity
  8
0
100
AcDbLine
 62
7
  6
BYLAYER
 10
39.6925390315
 20
52.2588427435
 11
39.6925390315
 21
52.2265493171
  0
LINE
  5
275
100
AcDbEntity
  8
0
100
AcDbLine
 62
7
  6
BYLAYER
 10
39.6925390315
 20
50.5294082011
 11
39.6925390315
 21
50.4909873532
  0
LINE
  5
276
100
AcDbEntity
  8
0
100
AcDbLine
 62
7
  6
BYLAYER
 10
36.7886157367
 20
27.1299520534
 11
37.2025398509
 21
28.5199519199
  0
LINE
  5
277
100
AcDbEntity
  8
0
100
AcDbLine
 62
7
  6
BYLAYER
 10
24.858367141
 20
51.159867301
 11
24.6698372234
 21
51.1232309963
  0
LINE
  5
278
100
AcDbEntity
  8
0
100
AcDbLine
 62
7
  6
BYLAYER
 10
24.8688894375
 20
51.159757319
 11
25.6525399135
 21
51.1598850717
  0
LINE
  5
279
100
AcDbEntity
  8
0
100
AcDbLine
 62
7
  6
BYLAYER
 10
22.2935399135
 20
51.4799520534
 11
14.0935399135
 21
51.4799520534
  0
LINE
  5
27A
100
AcDbEntity
  8
0
100
AcDbLine
 62
7
  6
BYLAYER
 10
11.4045399135
 20
51.4799520534
 11
9.2045399135
 21
51.4799520534
  0
LINE
  5
27B
100
AcDbEntity
  8
0
100
AcDbLine
 62
7
  6
BYLAYER
 10
17.2801122096
 20
51.8799520534
 11
22.7045399135
 21
51.8799520534
  0
LINE
  5
27C
100
AcDbEntity
  8
0
100
AcDbLine
 62
7
  6
BYLAYER
 10
25.6525399135
 20
52.0196477727
 11
23.4025399135
 21
52.0196477727
  0
LINE
  5
27D
100
AcDbEntity
  8
0
100
AcDbLine
 62
7
  6
BYLAYER
 10
22.9545399135
 20
52.2549520534
 11
23.4025399135
 21
52.2549520534
  0
LINE
  5
27E
100
AcDbEntity
  8
0
100
AcDbLine
 62
7
  6
BYLAYER
 10
24.8688894375
 20
51.159757319
 11
24.858367141
 21
51.159867301
  0
LINE
  5
27F
100
AcDbEntity
  8
0
100
AcDbLine
 62
7
  6
BYLAYER
 10
50.7925399135
 20
52.020265445
 11
50.8590052364
 21
52.019030149
  0
LINE
  5
280
100
AcDbEntity
  8
0
100
AcDbLine
 62
7
  6
BYLAYER
 10
50.7931388721
 20
52.0524831405
 11
50.8588193768
 21
52.0512620754
  0
LINE
  5
281
100
AcDbEntity
  8
0
100
AcDbLine
 62
7
  6
BYLAYER
 10
37.2025398509
 20
54.2399521869
 11
36.7886157367
 21
55.6299520534
  0
LINE
  5
282
100
AcDbEntity
  8
0
100
AcDbLine
 62
7
  6
BYLAYER
 10
37.2025398509
 20
52.6339593183
 11
37.9364641976
 21
52.6347733545
  0
LINE
  5
283
100
AcDbEntity
  8
0
100
AcDbLine
 62
7
  6
BYLAYER
 10
37.9681587376
 20
53.1985957127
 11
37.9364641923
 21
53.1985957127
  0
LINE
  5
284
100
AcDbEntity
  8
0
100
AcDbLine
 62
7
  6
BYLAYER
 10
37.9364641931
 20
53.5035102253
 11
48.2703820763
 21
53.5035102253
  0
LINE
  5
285
100
AcDbEntity
  8
0
100
AcDbLine
 62
7
  6
BYLAYER
 10
37.4325402053
 20
53.8549518165
 11
37.2025398509
 21
53.8549518165
  0
LINE
  5
286
100
AcDbEntity
  8
0
100
AcDbLine
 62
7
  6
BYLAYER
 10
26.9025401184
 20
54.9549518105
 11
25.6525399135
 21
54.9549518105
  0
LINE
  5
287
100
AcDbEntity
  8
0
100
AcDbLine
 62
7
  6
BYLAYER
 10
36.7886157367
 20
55.6299520571
 11
26.9025401184
 21
55.6299520571
  0
LINE
  5
288
100
AcDbEntity
  8
0
100
AcDbLine
 62
7
  6
BYLAYER
 10
50.8589130662
 20
53.4989019809
 11
50.8589130662
 21
52.0512603383
  0
LINE
  5
289
100
AcDbEntity
  8
0
100
AcDbLine
 62
7
  6
BYLAYER
 10
50.8589130662
 20
52.018983432
 11
50.8589130662
 21
50.3218889112
  0
LINE
  5
28A
100
AcDbEntity
  8
0
100
AcDbLine
 62
7
  6
BYLAYER
 10
50.8589130662
 20
50.2834030625
 11
50.8589130662
 21
48.1824807081
  0
LINE
  5
28B
100
AcDbEntity
  8
0
100
AcDbLine
 62
7
  6
BYLAYER
 10
51.2551867693
 20
47.8306078725
 11
51.2551867693
 21
50.1253437825
  0
LINE
  5
28C
100
AcDbEntity
  8
0
100
AcDbLine
 62
7
  6
BYLAYER
 10
51.2551867693
 20
50.1638733721
 11
51.2551867693
 21
51.8610150829
  0
LINE
  5
28D
100
AcDbEntity
  8
0
100
AcDbLine
 62
7
  6
BYLAYER
 10
51.2551867693
 20
51.893185912
 11
51.2551867693
 21
53.4379914076
  0
LINE
  5
28E
100
AcDbEntity
  8
0
100
AcDbLine
 62
7
  6
BYLAYER
 10
51.3733562143
 20
47.4300358332
 11
51.3733562143
 21
49.8896294166
  0
LINE
  5
28F
100
AcDbEntity
  8
0
100
AcDbLine
 62
7
  6
BYLAYER
 10
51.3733562143
 20
49.9282464359
 11
51.3733562143
 21
51.6253927261
  0
LINE
  5
290
100
AcDbEntity
  8
0
100
AcDbLine
 62
7
  6
BYLAYER
 10
51.3733562143
 20
51.6574901446
 11
51.3733562143
 21
53.2727298578
  0
LINE
  5
291
100
AcDbEntity
  8
0
100
AcDbLine
 62
7
  6
BYLAYER
 10
53.0408905102
 20
43.0321323047
 11
53.0374229165
 21
43.0639829034
  0
LINE
  5
292
100
AcDbEntity
  8
0
100
AcDbLine
 62
7
  6
BYLAYER
 10
53.0408905102
 20
43.0321323047
 11
53.0376214456
 21
43.063993152
  0
LINE
  5
293
100
AcDbEntity
  8
0
100
AcDbLine
 62
7
  6
BYLAYER
 10
53.0401518369
 20
43.0867441621
 11
53.0422731745
 21
43.0660120218
  0
LINE
  5
294
100
AcDbEntity
  8
0
100
AcDbLine
 62
7
  6
BYLAYER
 10
53.0401518369
 20
43.0867441621
 11
53.0421374138
 21
43.0660051045
  0
LINE
  5
295
100
AcDbEntity
  8
0
100
AcDbLine
 62
7
  6
BYLAYER
 10
53.1553057706
 20
43.1253924614
 11
53.153894111
 21
43.1585686507
  0
LINE
  5
296
100
AcDbEntity
  8
0
100
AcDbLine
 62
7
  6
BYLAYER
 10
53.1553680289
 20
43.1253935875
 11
53.1541454515
 21
43.1585733659
  0
LINE
  5
297
100
AcDbEntity
  8
0
100
AcDbLine
 62
7
  6
BYLAYER
 10
53.1715897489
 20
40.531423916
 11
53.1693165239
 21
40.1164789071
  0
LINE
  5
298
100
AcDbEntity
  8
0
100
AcDbLine
 62
7
  6
BYLAYER
 10
53.1694874763
 20
40.1541816367
 11
53.1689963441
 21
40.078080187
  0
LINE
  5
299
100
AcDbEntity
  8
0
100
AcDbLine
 62
7
  6
BYLAYER
 10
52.9633741508
 20
36.6765429838
 11
53.1689961911
 21
40.0780692502
  0
LINE
  5
29A
100
AcDbEntity
  8
0
100
AcDbLine
 62
7
  6
BYLAYER
 10
51.3734522096
 20
49.9282649272
 11
51.3866944548
 21
49.8941876031
  0
LINE
  5
29B
100
AcDbEntity
  8
0
100
AcDbLine
 62
7
  6
BYLAYER
 10
51.3734544081
 20
51.6575093562
 11
51.3844770692
 21
51.6291438124
  0
LINE
  5
29C
100
AcDbEntity
  8
0
100
AcDbLine
 62
7
  6
BYLAYER
 10
51.3734522096
 20
49.9282649272
 11
51.3856448774
 21
49.8939840773
  0
LINE
  5
29D
100
AcDbEntity
  8
0
100
AcDbLine
 62
7
  6
BYLAYER
 10
51.3734544081
 20
51.6575093562
 11
51.3835149452
 21
51.6289571825
  0
LINE
  5
29E
100
AcDbEntity
  8
0
100
AcDbLine
 62
7
  6
BYLAYER
 10
52.1528519556
 20
49.3575647612
 11
52.1738498939
 21
49.2846185832
  0
LINE
  5
29F
100
AcDbEntity
  8
0
100
AcDbLine
 62
7
  6
BYLAYER
 10
52.1433535692
 20
49.3561903387
 11
52.1642777674
 21
49.2832482854
  0
ARC
  5
2A0
100
AcDbEntity
  8
0
100
AcDbCircle
 62
7
  6
BYLAYER
 10
48.1635814757
 20
-726.5795123871
 40
780.0830299451
100
AcDbArc
 50
89.8020321654
 51
89.992155679
  0
ARC
  5
2A1
100
AcDbEntity
  8
0
100
AcDbCircle
 62
7
  6
BYLAYER
 10
48.3451562772
 20
792.8461494682
 40
763.5879789901
100
AcDbArc
 50
270.0045287888
 51
270.1886198238
  0
ARC
  5
2A2
100
AcDbEntity
  8
0
100
AcDbCircle
 62
7
  6
BYLAYER
 10
73.8418979286
 20
535.2167777136
 40
487.5762680112
100
AcDbArc
 50
266.991442119
 51
267.2982670735
  0
ARC
  5
2A3
100
AcDbEntity
  8
0
100
AcDbCircle
 62
7
  6
BYLAYER
 10
3.0329601556
 20
41.4018112956
 40
50.1535083753
100
AcDbArc
 50
358.9045144178
 51
359.9761702298
  0
ARC
  5
2A4
100
AcDbEntity
  8
0
100
AcDbCircle
 62
7
  6
BYLAYER
 10
3.0329601556
 20
41.3600928111
 40
50.1535083753
100
AcDbArc
 50
0.0238297702
 51
1.9618016788
  0
ARC
  5
2A5
100
AcDbEntity
  8
0
100
AcDbCircle
 62
7
  6
BYLAYER
 10
3.0329601556
 20
41.3600928111
 40
50.1535083753
100
AcDbArc
 50
3.6352889934
 51
5.4038143025
  0
ARC
  5
2A6
100
AcDbEntity
  8
0
100
AcDbCircle
 62
7
  6
BYLAYER
 10
3.0329601556
 20
41.3600928111
 40
50.1535083753
100
AcDbArc
 50
2.0426314933
 51
2.0550542133
  0
ARC
  5
2A7
100
AcDbEntity
  8
0
100
AcDbCircle
 62
7
  6
BYLAYER
 10
25.7444440838
 20
41.6837929162
 40
27.5013120287
100
AcDbArc
 50
19.0383850448
 51
19.8171120477
  0
ARC
  5
2A8
100
AcDbEntity
  8
0
100
AcDbCircle
 62
7
  6
BYLAYER
 10
25.8165926141
 20
41.7100853541
 40
27.4245225338
100
AcDbArc
 50
19.816536109
 51
21.2037586316
  0
ARC
  5
2A9
100
AcDbEntity
  8
0
100
AcDbCircle
 62
7
  6
BYLAYER
 10
26.256125707
 20
41.8581707711
 40
26.9607370191
100
AcDbArc
 50
16.1504081891
 51
19.0427881498
  0
ARC
  5
2AA
100
AcDbEntity
  8
0
100
AcDbCircle
 62
7
  6
BYLAYER
 10
27.2127650381
 20
42.1254640879
 40
25.967465226
100
AcDbArc
 50
8.7365895223
 51
16.0035602391
  0
ARC
  5
2AB
100
AcDbEntity
  8
0
100
AcDbCircle
 62
7
  6
BYLAYER
 10
27.9074447136
 20
42.2398415047
 40
25.2634739602
100
AcDbArc
 50
2.0594456724
 51
8.7195029716
  0
ARC
  5
2AC
100
AcDbEntity
  8
0
100
AcDbCircle
 62
7
  6
BYLAYER
 10
27.981603524
 20
42.2113801609
 40
25.1903561321
100
AcDbArc
 50
2.1549107665
 51
8.810371314
  0
ARC
  5
2AD
100
AcDbEntity
  8
0
100
AcDbCircle
 62
7
  6
BYLAYER
 10
28.8438313324
 20
40.5778551662
 40
24.3259031093
100
AcDbArc
 50
1.8919152392
 51
5.8706936136
  0
ARC
  5
2AE
100
AcDbEntity
  8
0
100
AcDbCircle
 62
7
  6
BYLAYER
 10
28.8571231293
 20
40.5442255149
 40
24.3112846828
100
AcDbArc
 50
1.9723505194
 51
5.8736447406
  0
ARC
  5
2AF
100
AcDbEntity
  8
0
100
AcDbCircle
 62
7
  6
BYLAYER
 10
16.0795543451
 20
51.7260848584
 40
19.3693963793
100
AcDbArc
 50
250.1705729974
 51
255.4257269093
  0
ARC
  5
2B0
100
AcDbEntity
  8
0
100
AcDbCircle
 62
7
  6
BYLAYER
 10
15.0099602089
 20
48.9208252051
 40
16.3655189252
100
AcDbArc
 50
245.8160635977
 51
246.3384222881
  0
ARC
  5
2B1
100
AcDbEntity
  8
0
100
AcDbCircle
 62
7
  6
BYLAYER
 10
26.3975473713
 20
50.4945551272
 40
11.5353080911
100
AcDbArc
 50
10.7856597512
 51
16.9366393987
  0
ARC
  5
2B2
100
AcDbEntity
  8
0
100
AcDbCircle
 62
7
  6
BYLAYER
 10
18.3293985768
 20
41.0707093249
 40
10.5536116593
100
AcDbArc
 50
163.6121475337
 51
168.0488949659
  0
ARC
  5
2B3
100
AcDbEntity
  8
0
100
AcDbCircle
 62
7
  6
BYLAYER
 10
50.1781794268
 20
51.1977262769
 40
1.2820478622
100
AcDbArc
 50
31.6135074128
 51
32.8714491934
  0
ARC
  5
2B4
100
AcDbEntity
  8
0
100
AcDbCircle
 62
7
  6
BYLAYER
 10
50.1859610646
 20
49.4727874875
 40
1.2731216847
100
AcDbArc
 50
31.3980006039
 51
32.880635134
  0
CIRCLE
  5
2B5
100
AcDbEntity
  8
0
100
AcDbCircle
 62
7
  6
BYLAYER
 10
18.4035399135
 20
43.7799520534
 40
1.25
  0
ARC
  5
2B6
100
AcDbEntity
  8
0
100
AcDbCircle
 62
7
  6
BYLAYER
 10
50.2467615461
 20
51.2385805808
 40
1.2022283733
100
AcDbArc
 50
24.5267377806
 51
31.6687034898
  0
ARC
  5
2B7
100
AcDbEntity
  8
0
100
AcDbCircle
 62
7
  6
BYLAYER
 10
50.2493169408
 20
49.5103790247
 40
1.1994589939
100
AcDbArc
 50
24.5310199444
 51
31.4419550503
  0
ARC
  5
2B8
100
AcDbEntity
  8
0
100
AcDbCircle
 62
7
  6
BYLAYER
 10
50.3370699527
 20
51.2782950256
 40
1.103583367
100
AcDbArc
 50
20.0976342466
 51
24.5972275055
  0
ARC
  5
2B9
100
AcDbEntity
  8
0
100
AcDbCircle
 62
7
  6
BYLAYER
 10
50.3372449566
 20
49.5489901137
 40
1.1034377441
100
AcDbArc
 50
20.1037452926
 51
24.6027044752
  0
ARC
  5
2BA
100
AcDbEntity
  8
0
100
AcDbCircle
 62
7
  6
BYLAYER
 10
22.9545399135
 20
52.0049520534
 40
0.25
100
AcDbArc
 50
90.0
 51
180.0
  0
ARC
  5
2BB
100
AcDbEntity
  8
0
100
AcDbCircle
 62
7
  6
BYLAYER
 10
22.9545399135
 20
30.7549520534
 40
0.25
100
AcDbArc
 50
180.0
 51
270.0
  0
ARC
  5
2BC
100
AcDbEntity
  8
0
100
AcDbCircle
 62
7
  6
BYLAYER
 10
11.1071821324
 20
37.9307650443
 40
0.2491886749
100
AcDbArc
 50
90.2095023294
 51
138.2785263788
  0
SPLINE
  5
2BD
100
AcDbEntity
  8
0
100
AcDbSpline
 62
7
  6
BYLAYER
 70
0
 71
3
 72
16
 73
12
 74
0
 42
0.0000001
 43
0.0000001
 44
0.0000000001
 40
0.0
 40
0.0
 40
0.0
 40
0.0
 40
0.0481076476
 40
0.0788627358
 40
0.1150625437
 40
0.2050240144
 40
0.3191700451
 40
0.4569729798
 40
0.6173080668
 40
0.7988592391
 40
1.0
 40
1.0
 40
1.0
 40
1.0
 10
36.8811628192
 20
53.5034978044
 30
0.0
 10
36.8916805814
 20
53.50350002
 30
0.0
 10
36.9087343338
 20
53.496939419
 30
0.0
 10
36.9289827455
 20
53.4821583652
 30
0.0
 10
36.9539613356
 20
53.4584494187
 30
0.0
 10
36.9864072143
 20
53.4168968684
 30
0.0
 10
37.0262804644
 20
53.353592999
 30
0.0
 10
37.068695606
 20
53.2739801767
 30
0.0
 10
37.1126179028
 20
53.1786988269
 30
0.0
 10
37.157524197
 20
53.0687713437
 30
0.0
 10
37.1871623086
 20
52.9905236585
 30
0.0
 10
37.2024464886
 20
52.9492898689
 30
0.0
  0
LINE
  5
2BE
100
AcDbEntity
  8
0
100
AcDbLine
 62
7
  6
BYLAYER
 10
37.2024464886
 20
52.9492898689
 11
37.2045039535
 21
52.9437337325
  0
LINE
  5
2BF
100
AcDbEntity
  8
0
100
AcDbLine
 62
7
  6
BYLAYER
 10
53.1570707533
 20
43.0770083044
 11
53.1553680289
 21
43.1253935875
  0
SPLINE
  5
2C0
100
AcDbEntity
  8
0
100
AcDbSpline
 62
7
  6
BYLAYER
 70
0
 71
3
 72
9
 73
5
 74
0
 42
0.0000001
 43
0.0000001
 44
0.0000000001
 40
0.0
 40
0.0
 40
0.0
 40
0.0
 40
0.4964515261
 40
1.0
 40
1.0
 40
1.0
 40
1.0
 10
52.8747304003
 20
46.0696539172
 30
0.0
 10
52.728922015
 20
47.0122224482
 30
0.0
 10
52.3281671624
 20
48.8956972159
 30
0.0
 10
51.7244629929
 20
50.7239229242
 30
0.0
 10
51.3734521438
 20
51.6254114915
 30
0.0
  0
LINE
  5
2C1
100
AcDbEntity
  8
0
100
AcDbLine
 62
7
  6
BYLAYER
 10
53.1546004934
 20
43.1477190123
 11
53.1553862311
 21
43.1253938591
  0
SPLINE
  5
2C2
100
AcDbEntity
  8
0
100
AcDbSpline
 62
7
  6
BYLAYER
 70
0
 71
3
 72
9
 73
5
 74
0
 42
0.0000001
 43
0.0000001
 44
0.0000000001
 40
0.0
 40
0.0
 40
0.0
 40
0.0
 40
0.4867041435
 40
1.0
 40
1.0
 40
1.0
 40
1.0
 10
52.9635633332
 20
46.0832785168
 30
0.0
 10
52.8590317254
 20
47.1881073408
 30
0.0
 10
52.5060263944
 20
49.4463656081
 30
0.0
 10
51.9168998759
 20
51.6534166463
 30
0.0
 10
51.5625188444
 20
52.7688723009
 30
0.0
  0
SPLINE
  5
2C3
100
AcDbEntity
  8
0
100
AcDbSpline
 62
7
  6
BYLAYER
 70
0
 71
3
 72
10
 73
6
 74
0
 42
0.0000001
 43
0.0000001
 44
0.0000000001
 40
0.0
 40
0.0
 40
0.0
 40
0.0
 40
0.4863081049
 40
0.7398329659
 40
1.0
 40
1.0
 40
1.0
 40
1.0
 10
52.9633387956
 20
36.676544785
 30
0.0
 10
52.8560188185
 20
35.5422912196
 30
0.0
 10
52.584777747
 20
33.8252820539
 30
0.0
 10
52.0349068991
 20
31.5473949663
 30
0.0
 10
51.6924923887
 20
30.3929444185
 30
0.0
 10
51.5050272069
 20
29.8129715568
 30
0.0
  0
LINE
  5
2C4
100
AcDbEntity
  8
0
100
AcDbLine
 62
7
  6
BYLAYER
 10
8.3045399135
 20
49.5132170804
 11
8.0045399135
 21
49.1722559489
  0
LINE
  5
2C5
100
AcDbEntity
  8
0
100
AcDbLine
 62
7
  6
BYLAYER
 10
50.8588193756
 20
50.2834048094
 11
39.6925390315
 21
50.4909873532
  0
SPLINE
  5
2C6
100
AcDbEntity
  8
0
100
AcDbSpline
 62
7
  6
BYLAYER
 70
0
 71
3
 72
10
 73
6
 74
0
 42
0.0000001
 43
0.0000001
 44
0.0000000001
 40
0.0
 40
0.0
 40
0.0
 40
0.0
 40
0.2687101563
 40
0.5291476813
 40
1.0
 40
1.0
 40
1.0
 40
1.0
 10
50.8590052364
 20
52.019030149
 30
0.0
 10
50.8979745231
 20
52.0179174152
 30
0.0
 10
50.9747799795
 20
52.0092196176
 30
0.0
 10
51.1142983544
 20
51.9688687527
 30
0.0
 10
51.2084039927
 20
51.910927338
 30
0.0
 10
51.2551330074
 20
51.8610976842
 30
0.0
  0
SPLINE
  5
2C7
100
AcDbEntity
  8
0
100
AcDbSpline
 62
7
  6
BYLAYER
 70
0
 71
3
 72
9
 73
5
 74
0
 42
0.0000001
 43
0.0000001
 44
0.0000000001
 40
0.0
 40
0.0
 40
0.0
 40
0.0
 40
0.5008048075
 40
1.0
 40
1.0
 40
1.0
 40
1.0
 10
8.4419268108
 20
33.9311238415
 30
0.0
 10
8.6176041218
 20
33.8540727945
 30
0.0
 10
8.9713044105
 20
33.7068260591
 30
0.0
 10
9.3292453673
 20
33.5702403776
 30
0.0
 10
9.5090462031
 20
33.5051644959
 30
0.0
  0
SPLINE
  5
2C8
100
AcDbEntity
  8
0
100
AcDbSpline
 62
7
  6
BYLAYER
 70
0
 71
3
 72
9
 73
5
 74
0
 42
0.0000001
 43
0.0000001
 44
0.0000000001
 40
0.0
 40
0.0
 40
0.0
 40
0.0
 40
0.2549798449
 40
1.0
 40
1.0
 40
1.0
 40
1.0
 10
51.2551330074
 20
51.8610976842
 30
0.0
 10
51.2673145027
 20
51.8422517756
 30
0.0
 10
51.31314029
 20
51.7671092371
 30
0.0
 10
51.3509425358
 20
51.6869937385
 30
0.0
 10
51.3734521438
 20
51.6254114915
 30
0.0
  0
LINE
  5
2C9
100
AcDbEntity
  8
0
100
AcDbLine
 62
7
  6
BYLAYER
 10
50.7925399135
 20
52.0202653132
 11
39.692538721
 21
52.2265493171
  0
SPLINE
  5
2CA
100
AcDbEntity
  8
0
100
AcDbSpline
 62
7
  6
BYLAYER
 70
0
 71
3
 72
11
 73
7
 74
0
 42
0.0000001
 43
0.0000001
 44
0.0000000001
 40
0.0
 40
0.0
 40
0.0
 40
0.0
 40
0.3265111041
 40
0.5983153023
 40
0.8185955022
 40
1.0
 40
1.0
 40
1.0
 40
1.0
 10
50.8589116082
 20
53.4988611138
 30
0.0
 10
50.9029420302
 20
53.4986302216
 30
0.0
 10
50.9836291289
 20
53.4969984275
 30
0.0
 10
51.0938039777
 20
53.4880769935
 30
0.0
 10
51.1831534191
 20
53.4705054206
 30
0.0
 10
51.2340409253
 20
53.450291385
 30
0.0
 10
51.2551867693
 20
53.4379914076
 30
0.0
  0
SPLINE
  5
2CB
100
AcDbEntity
  8
0
100
AcDbSpline
 62
7
  6
BYLAYER
 70
0
 71
3
 72
9
 73
5
 74
0
 42
0.0000001
 43
0.0000001
 44
0.0000000001
 40
0.0
 40
0.0
 40
0.0
 40
0.0
 40
0.2250663522
 40
1.0
 40
1.0
 40
1.0
 40
1.0
 10
51.2551867693
 20
53.4379914076
 30
0.0
 10
51.2668925407
 20
53.4281128269
 30
0.0
 10
51.3159324491
 20
53.3806972738
 30
0.0
 10
51.352084352
 20
53.3209881944
 30
0.0
 10
51.3733562143
 20
53.2727298578
 30
0.0
  0
SPLINE
  5
2CC
100
AcDbEntity
  8
0
100
AcDbSpline
 62
7
  6
BYLAYER
 70
0
 71
3
 72
10
 73
6
 74
0
 42
0.0000001
 43
0.0000001
 44
0.0000000001
 40
0.0
 40
0.0
 40
0.0
 40
0.0
 40
0.2085091386
 40
0.4463614451
 40
1.0
 40
1.0
 40
1.0
 40
1.0
 10
51.3733562143
 20
53.2727298578
 30
0.0
 10
51.3892638989
 20
53.2388512225
 30
0.0
 10
51.4213193325
 20
53.1653844556
 30
0.0
 10
51.4867717989
 20
52.9982159369
 30
0.0
 10
51.532388284
 20
52.8635729249
 30
0.0
 10
51.5625188444
 20
52.7688723009
 30
0.0
  0
SPLINE
  5
2CD
100
AcDbEntity
  8
0
100
AcDbSpline
 62
7
  6
BYLAYER
 70
0
 71
3
 72
10
 73
6
 74
0
 42
0.0000001
 43
0.0000001
 44
0.0000000001
 40
0.0
 40
0.0
 40
0.0
 40
0.0
 40
0.2473675363
 40
0.4961773009
 40
1.0
 40
1.0
 40
1.0
 40
1.0
 10
53.0376214456
 20
43.063993152
 30
0.0
 10
52.9779758192
 20
43.6417012315
 30
0.0
 10
52.8182410431
 20
44.7968213832
 30
0.0
 10
52.3386538662
 20
47.0963585535
 30
0.0
 10
51.8025158601
 20
48.7873121103
 30
0.0
 10
51.3734544704
 20
49.889648316
 30
0.0
  0
SPLINE
  5
2CE
100
AcDbEntity
  8
0
100
AcDbSpline
 62
7
  6
BYLAYER
 70
0
 71
3
 72
11
 73
7
 74
0
 42
0.0000001
 43
0.0000001
 44
0.0000000001
 40
0.0
 40
0.0
 40
0.0
 40
0.0
 40
0.2679535902
 40
0.5275540206
 40
0.7728279744
 40
1.0
 40
1.0
 40
1.0
 40
1.0
 10
50.8588193756
 20
50.2834048094
 30
0.0
 10
50.897778344
 20
50.2822920046
 30
0.0
 10
50.974461673
 20
50.2737601957
 30
0.0
 10
51.082983475
 20
50.2422302344
 30
0.0
 10
51.1784431714
 20
50.1936390773
 30
0.0
 10
51.2323600617
 20
50.1498135771
 30
0.0
 10
51.2549589935
 20
50.1257069422
 30
0.0
  0
SPLINE
  5
2CF
100
AcDbEntity
  8
0
100
AcDbSpline
 62
7
  6
BYLAYER
 70
0
 71
3
 72
9
 73
5
 74
0
 42
0.0000001
 43
0.0000001
 44
0.0000000001
 40
0.0
 40
0.0
 40
0.0
 40
0.0
 40
0.2549776252
 40
1.0
 40
1.0
 40
1.0
 40
1.0
 10
51.2549589935
 20
50.1257069422
 30
0.0
 10
51.2671564776
 20
50.1068298888
 30
0.0
 10
51.3130504112
 20
50.0315684353
 30
0.0
 10
51.3509167498
 20
49.9513294773
 30
0.0
 10
51.3734544704
 20
49.889648316
 30
0.0
  0
SPLINE
  5
2D0
100
AcDbEntity
  8
0
100
AcDbSpline
 62
7
  6
BYLAYER
 70
0
 71
3
 72
11
 73
7
 74
0
 42
0.0000001
 43
0.0000001
 44
0.0000000001
 40
0.0
 40
0.0
 40
0.0
 40
0.0
 40
0.2499723997
 40
0.4999541876
 40
0.7499555729
 40
1.0
 40
1.0
 40
1.0
 40
1.0
 10
53.1694472354
 20
40.4430355683
 30
0.0
 10
53.1696169377
 20
40.5212032163
 30
0.0
 10
53.1704910924
 20
40.6775458718
 30
0.0
 10
53.1670226982
 20
40.9120434404
 30
0.0
 10
53.1625018222
 20
41.1465433836
 30
0.0
 10
53.1566177943
 20
41.3028055042
 30
0.0
 10
53.1538276949
 20
41.3809460638
 30
0.0
  0
SPLINE
  5
2D1
100
AcDbEntity
  8
0
100
AcDbSpline
 62
7
  6
BYLAYER
 70
0
 71
3
 72
11
 73
7
 74
0
 42
0.0000001
 43
0.0000001
 44
0.0000000001
 40
0.0
 40
0.0
 40
0.0
 40
0.0
 40
0.3276255151
 40
0.5995840999
 40
0.8194310294
 40
1.0
 40
1.0
 40
1.0
 40
1.0
 10
50.8589115852
 20
29.2623081694
 30
0.0
 10
50.9030537501
 20
29.2625260772
 30
0.0
 10
50.9838407132
 20
29.2640564018
 30
0.0
 10
51.0940534698
 20
29.2726391542
 30
0.0
 10
51.1832531641
 20
29.2897317252
 30
0.0
 10
51.2340646347
 20
29.3095120922
 30
0.0
 10
51.2551867693
 20
29.3215850312
 30
0.0
  0
SPLINE
  5
2D2
100
AcDbEntity
  8
0
100
AcDbSpline
 62
7
  6
BYLAYER
 70
0
 71
3
 72
9
 73
5
 74
0
 42
0.0000001
 43
0.0000001
 44
0.0000000001
 40
0.0
 40
0.0
 40
0.0
 40
0.0
 40
0.2252058783
 40
1.0
 40
1.0
 40
1.0
 40
1.0
 10
51.2551867693
 20
29.3215850312
 30
0.0
 10
51.2668871343
 20
29.3312876694
 30
0.0
 10
51.3159013739
 20
29.3779212042
 30
0.0
 10
51.3520817823
 20
29.4369824136
 30
0.0
 10
51.3733562143
 20
29.4847530804
 30
0.0
  0
SPLINE
  5
2D3
100
AcDbEntity
  8
0
100
AcDbSpline
 62
7
  6
BYLAYER
 70
0
 71
3
 72
9
 73
5
 74
0
 42
0.0000001
 43
0.0000001
 44
0.0000000001
 40
0.0
 40
0.0
 40
0.0
 40
0.0
 40
0.4569761588
 40
1.0
 40
1.0
 40
1.0
 40
1.0
 10
51.3733562143
 20
29.4847530804
 30
0.0
 10
51.3964526729
 20
29.5334387136
 30
0.0
 10
51.4427463988
 20
29.6419868591
 30
0.0
 10
51.4837704994
 20
29.7525697306
 30
0.0
 10
51.5050272069
 20
29.8129715568
 30
0.0
  0
SPLINE
  5
2D4
100
AcDbEntity
  8
0
100
AcDbSpline
 62
7
  6
BYLAYER
 70
0
 71
3
 72
9
 73
5
 74
0
 42
0.0000001
 43
0.0000001
 44
0.0000000001
 40
0.0
 40
0.0
 40
0.0
 40
0.0
 40
0.4580934596
 40
1.0
 40
1.0
 40
1.0
 40
1.0
 10
51.5623969093
 20
46.8611854087
 30
0.0
 10
51.5259979867
 20
46.9452361077
 30
0.0
 10
51.4569611677
 20
47.1332076907
 30
0.0
 10
51.4009978161
 20
47.3252692537
 30
0.0
 10
51.3733562143
 20
47.4300358332
 30
0.0
  0
SPLINE
  5
2D5
100
AcDbEntity
  8
0
100
AcDbSpline
 62
7
  6
BYLAYER
 70
0
 71
3
 72
9
 73
5
 74
0
 42
0.0000001
 43
0.0000001
 44
0.0000000001
 40
0.0
 40
0.0
 40
0.0
 40
0.0
 40
0.48801475
 40
1.0
 40
1.0
 40
1.0
 40
1.0
 10
51.3733562143
 20
47.4300358332
 30
0.0
 10
51.3570200391
 20
47.4959923696
 30
0.0
 10
51.3196284142
 20
47.6301780224
 30
0.0
 10
51.2774513137
 20
47.762886847
 30
0.0
 10
51.2551867693
 20
47.8306078725
 30
0.0
  0
SPLINE
  5
2D6
100
AcDbEntity
  8
0
100
AcDbSpline
 62
7
  6
BYLAYER
 70
0
 71
3
 72
12
 73
8
 74
0
 42
0.0000001
 43
0.0000001
 44
0.0000000001
 40
0.0
 40
0.0
 40
0.0
 40
0.0
 40
0.2467664837
 40
0.49661834
 40
0.6224728904
 40
0.7485637111
 40
1.0
 40
1.0
 40
1.0
 40
1.0
 10
51.2551867693
 20
47.8306078725
 30
0.0
 10
51.2356583347
 20
47.8715491998
 30
0.0
 10
51.1904393691
 20
47.9512565904
 30
0.0
 10
51.1185888811
 20
48.041172177
 30
0.0
 10
51.0500357902
 20
48.1032976555
 30
0.0
 10
50.9736723409
 20
48.1556808465
 30
0.0
 10
50.9052766245
 20
48.179119045
 30
0.0
 10
50.8591799963
 20
48.1824752213
 30
0.0
  0
SPLINE
  5
2D7
100
AcDbEntity
  8
0
100
AcDbSpline
 62
7
  6
BYLAYER
 70
0
 71
3
 72
11
 73
7
 74
0
 42
0.0000001
 43
0.0000001
 44
0.0000000001
 40
0.0
 40
0.0
 40
0.0
 40
0.0
 40
0.2424544023
 40
0.4892778704
 40
0.7415017518
 40
1.0
 40
1.0
 40
1.0
 40
1.0
 10
51.5623969093
 20
46.8611854087
 30
0.0
 10
51.7453820055
 20
46.4404050942
 30
0.0
 10
52.0796313791
 20
45.575585603
 30
0.0
 10
52.4795006182
 20
44.2290177779
 30
0.0
 10
52.7806079475
 20
42.8259755883
 30
0.0
 10
52.9131942797
 20
41.8675791683
 30
0.0
 10
52.9633791188
 20
41.380951039
 30
0.0
  0
SPLINE
  5
2D8
100
AcDbEntity
  8
0
100
AcDbSpline
 62
7
  6
BYLAYER
 70
0
 71
3
 72
9
 73
5
 74
0
 42
0.0000001
 43
0.0000001
 44
0.0000000001
 40
0.0
 40
0.0
 40
0.0
 40
0.0
 40
0.489936511
 40
1.0
 40
1.0
 40
1.0
 40
1.0
 10
24.6697000462
 20
34.2132158549
 30
0.0
 10
24.6980515125
 20
34.1984162958
 30
0.0
 10
24.7595275962
 20
34.1746218602
 30
0.0
 10
24.8250715513
 20
34.1663077855
 30
0.0
 10
24.858367141
 20
34.1663077855
 30
0.0
  0
LINE
  5
2D9
100
AcDbEntity
  8
0
100
AcDbLine
 62
7
  6
BYLAYER
 10
24.858367141
 20
34.1663077855
 11
24.8688894375
 21
34.166406614
  0
LINE
  5
2DA
100
AcDbEntity
  8
0
100
AcDbLine
 62
7
  6
BYLAYER
 10
24.8688894375
 20
37.9388321522
 11
24.858367141
 21
37.9389574309
  0
SPLINE
  5
2DB
100
AcDbEntity
  8
0
100
AcDbSpline
 62
7
  6
BYLAYER
 70
0
 71
3
 72
9
 73
5
 74
0
 42
0.0000001
 43
0.0000001
 44
0.0000000001
 40
0.0
 40
0.0
 40
0.0
 40
0.0
 40
0.4892954055
 40
1.0
 40
1.0
 40
1.0
 40
1.0
 10
52.9633791188
 20
41.380951039
 30
0.0
 10
53.0421852485
 20
40.6167902811
 30
0.0
 10
53.1180595794
 20
39.0453903559
 30
0.0
 10
53.0388681317
 20
37.4748064061
 30
0.0
 10
52.9633387956
 20
36.676544785
 30
0.0
  0
SPLINE
  5
2DC
100
AcDbEntity
  8
0
100
AcDbSpline
 62
7
  6
BYLAYER
 70
0
 71
3
 72
43
 73
39
 74
0
 42
0.0000001
 43
0.0000001
 44
0.0000000001
 40
0.0
 40
0.0
 40
0.0
 40
0.0
 40
0.1258305992
 40
0.2516345757
 40
0.3145239939
 40
0.3774030648
 40
0.4402697599
 40
0.5031213525
 40
0.5659540545
 40
0.6287623533
 40
0.6601548948
 40
0.691537818
 40
0.7229091744
 40
0.7542663323
 40
0.7856056162
 40
0.8169216445
 40
0.848206088
 40
0.8638324852
 40
0.8794450528
 40
0.895040103
 40
0.9106122139
 40
0.9261529302
 40
0.9416479416
 40
0.9493707752
 40
0.9570702219
 40
0.964737424
 40
0.9723573044
 40
0.9799010488
 40
0.9873024872
 40
0.9908997319
 40
0.9926515096
 40
0.9943549369
 40
0.995986626
 40
0.9975041665
 40
0.9982065615
 40
0.9988564008
 40
0.9994454113
 40
1.0
 40
1.0
 40
1.0
 40
1.0
 10
48.2703820414
 20
53.503510247
 30
0.0
 10
47.8371290883
 20
53.5035102112
 30
0.0
 10
46.9707145428
 20
53.5026442289
 30
0.0
 10
45.8877677933
 20
53.4989496151
 30
0.0
 10
45.0215809968
 20
53.4940370127
 30
0.0
 10
44.3721001225
 20
53.4892396817
 30
0.0
 10
43.7227600616
 20
53.4831666777
 30
0.0
 10
43.0735950566
 20
53.4756077578
 30
0.0
 10
42.4246538537
 20
53.4662859334
 30
0.0
 10
41.8840476274
 20
53.456734281
 30
0.0
 10
41.4517376315
 20
53.4477479225
 30
0.0
 10
41.1276630812
 20
53.4402414059
 30
0.0
 10
40.8037319387
 20
53.4318520966
 30
0.0
 10
40.4799793285
 20
53.4224303476
 30
0.0
 10
40.1564550915
 20
53.4117795348
 30
0.0
 10
39.8332339408
 20
53.3996281549
 30
0.0
 10
39.5641393827
 20
53.3879286075
 30
0.0
 10
39.3491230934
 20
53.3773222552
 30
0.0
 10
39.1881002161
 20
53.3686363569
 30
0.0
 10
39.0273139455
 20
53.3590747039
 30
0.0
 10
38.866842269
 20
53.348441464
 30
0.0
 10
38.7068108782
 20
53.336453921
 30
0.0
 10
38.5738495555
 20
53.3249724664
 30
0.0
 10
38.4679100431
 20
53.3145186174
 30
0.0
 10
38.3888755303
 20
53.3059074586
 30
0.0
 10
38.3103108676
 20
53.2963119467
 30
0.0
 10
38.2324518103
 20
53.2854257117
 30
0.0
 10
38.1557935667
 20
53.2727307425
 30
0.0
 10
38.0932251896
 20
53.2598422472
 30
0.0
 10
38.0508040897
 20
53.2484467829
 30
0.0
 10
38.0276989288
 20
53.240958915
 30
0.0
 10
38.011298488
 20
53.234781426
 30
0.0
 10
37.9960799356
 20
53.2278556983
 30
0.0
 10
37.9846248698
 20
53.2210543432
 30
0.0
 10
37.9769446033
 20
53.2148116
 30
0.0
 10
37.972345763
 20
53.2099071399
 30
0.0
 10
37.969314566
 20
53.2044275048
 30
0.0
 10
37.9685439613
 20
53.2005008313
 30
0.0
 10
37.9684142503
 20
53.1985957127
 30
0.0
  0
SPLINE
  5
2DD
100
AcDbEntity
  8
0
100
AcDbSpline
 62
7
  6
BYLAYER
 70
0
 71
3
 72
15
 73
11
 74
0
 42
0.0000001
 43
0.0000001
 44
0.0000000001
 40
0.0
 40
0.0
 40
0.0
 40
0.0
 40
0.2090432042
 40
0.3932535692
 40
0.5518986425
 40
0.6844078758
 40
0.7914304106
 40
0.8752727463
 40
0.9412995327
 40
1.0
 40
1.0
 40
1.0
 40
1.0
 10
36.7951598669
 20
53.198681565
 30
0.0
 10
36.7951713372
 20
53.2220239168
 30
0.0
 10
36.7962268456
 20
53.2659458239
 30
0.0
 10
36.8010382526
 20
53.3274177891
 30
0.0
 10
36.8084489057
 20
53.3800163115
 30
0.0
 10
36.8178425208
 20
53.4235283361
 30
0.0
 10
36.8292929052
 20
53.457889347
 30
0.0
 10
36.8430904391
 20
53.4832928231
 30
0.0
 10
36.8604228629
 20
53.4998246366
 30
0.0
 10
36.8746081594
 20
53.5034964237
 30
0.0
 10
36.8811628192
 20
53.5034978044
 30
0.0
  0
SPLINE
  5
2DE
100
AcDbEntity
  8
0
100
AcDbSpline
 62
7
  6
BYLAYER
 70
0
 71
3
 72
13
 73
9
 74
0
 42
0.0000001
 43
0.0000001
 44
0.0000000001
 40
0.0
 40
0.0
 40
0.0
 40
0.0
 40
0.2640621315
 40
0.3944001088
 40
0.5225504145
 40
0.6478781284
 40
0.7697368998
 40
1.0
 40
1.0
 40
1.0
 40
1.0
 10
36.8811164379
 20
48.3125328793
 30
0.0
 10
36.8677392604
 20
48.4001511418
 30
0.0
 10
36.8497354024
 20
48.5313360289
 30
0.0
 10
36.8306007759
 20
48.7056937634
 30
0.0
 10
36.8189394673
 20
48.8340008923
 30
0.0
 10
36.8095398436
 20
48.959639647
 30
0.0
 10
36.7996212694
 20
49.1195826456
 30
0.0
 10
36.7951397931
 20
49.2377633103
 30
0.0
 10
36.7951169889
 20
49.3150520847
 30
0.0
  0
SPLINE
  5
2DF
100
AcDbEntity
  8
0
100
AcDbSpline
 62
7
  6
BYLAYER
 70
0
 71
3
 72
13
 73
9
 74
0
 42
0.0000001
 43
0.0000001
 44
0.0000000001
 40
0.0
 40
0.0
 40
0.0
 40
0.0
 40
0.2302712185
 40
0.3520864346
 40
0.4774063678
 40
0.6055848175
 40
0.7359445925
 40
1.0
 40
1.0
 40
1.0
 40
1.0
 10
36.7951169889
 20
49.3150520847
 30
0.0
 10
36.795132518
 20
49.2377959571
 30
0.0
 10
36.7965579955
 20
49.1196471743
 30
0.0
 10
36.8039504536
 20
48.9596315977
 30
0.0
 10
36.812904194
 20
48.8340213208
 30
0.0
 10
36.8245823814
 20
48.705760544
 30
0.0
 10
36.843239969
 20
48.5314218827
 30
0.0
 10
36.8603203981
 20
48.4001712934
 30
0.0
 10
36.8732752567
 20
48.3125328793
 30
0.0
  0
SPLINE
  5
2E0
100
AcDbEntity
  8
0
100
AcDbSpline
 62
7
  6
BYLAYER
 70
0
 71
3
 72
12
 73
8
 74
0
 42
0.0000001
 43
0.0000001
 44
0.0000000001
 40
0.0
 40
0.0
 40
0.0
 40
0.0
 40
0.1033773932
 40
0.215027145
 40
0.4592828376
 40
0.7242043751
 40
1.0
 40
1.0
 40
1.0
 40
1.0
 10
37.2045039558
 20
47.0074074298
 30
0.0
 10
37.1876789825
 20
47.0506582189
 30
0.0
 10
37.1552986129
 20
47.1416412191
 30
0.0
 10
37.0932015648
 20
47.3382609266
 30
0.0
 10
37.0182037351
 20
47.6068162595
 30
0.0
 10
36.9418810498
 20
47.9509877872
 30
0.0
 10
36.8998026695
 20
48.1901412046
 30
0.0
 10
36.8811164379
 20
48.3125328793
 30
0.0
  0
SPLINE
  5
2E1
100
AcDbEntity
  8
0
100
AcDbSpline
 62
7
  6
BYLAYER
 70
0
 71
3
 72
11
 73
7
 74
0
 42
0.0000001
 43
0.0000001
 44
0.0000000001
 40
0.0
 40
0.0
 40
0.0
 40
0.0
 40
0.2756296605
 40
0.5403143826
 40
0.7843860443
 40
1.0
 40
1.0
 40
1.0
 40
1.0
 10
36.8732752719
 20
48.3125328793
 30
0.0
 10
36.8914065265
 20
48.189876628
 30
0.0
 10
36.9323442188
 20
47.9501761089
 30
0.0
 10
37.0088598841
 20
47.6056130319
 30
0.0
 10
37.0957278968
 20
47.2912771199
 30
0.0
 10
37.1675636158
 20
47.097089065
 30
0.0
 10
37.2045039558
 20
47.0074074298
 30
0.0
  0
SPLINE
  5
2E2
100
AcDbEntity
  8
0
100
AcDbSpline
 62
7
  6
BYLAYER
 70
0
 71
3
 72
9
 73
5
 74
0
 42
0.0000001
 43
0.0000001
 44
0.0000000001
 40
0.0
 40
0.0
 40
0.0
 40
0.0
 40
0.4999957127
 40
1.0
 40
1.0
 40
1.0
 40
1.0
 10
8.2045399135
 20
47.1945887574
 30
0.0
 10
8.4042938168
 20
47.5072068301
 30
0.0
 10
8.8172483617
 20
48.1239062133
 30
0.0
 10
9.2501401051
 20
48.7266423193
 30
0.0
 10
9.4703495232
 20
49.0252126025
 30
0.0
  0
SPLINE
  5
2E3
100
AcDbEntity
  8
0
100
AcDbSpline
 62
7
  6
BYLAYER
 70
0
 71
3
 72
13
 73
9
 74
0
 42
0.0000001
 43
0.0000001
 44
0.0000000001
 40
0.0
 40
0.0
 40
0.0
 40
0.0
 40
0.2852773367
 40
0.4198958809
 40
0.5486834691
 40
0.6713664916
 40
0.787676186
 40
1.0
 40
1.0
 40
1.0
 40
1.0
 10
37.9577404733
 20
49.3151808164
 30
0.0
 10
37.956905344
 20
49.6844649051
 30
0.0
 10
37.9589602076
 20
50.2280129671
 30
0.0
 10
37.9624994866
 20
50.9382613634
 30
0.0
 10
37.9641961973
 20
51.4380423424
 30
0.0
 10
37.9651710808
 20
51.9141254807
 30
0.0
 10
37.9651931452
 20
52.4983416686
 30
0.0
 10
37.9652592382
 20
52.9237626524
 30
0.0
 10
37.9681587376
 20
53.1985957127
 30
0.0
  0
SPLINE
  5
2E4
100
AcDbEntity
  8
0
100
AcDbSpline
 62
7
  6
BYLAYER
 70
0
 71
3
 72
14
 73
10
 74
0
 42
0.0000001
 43
0.0000001
 44
0.0000000001
 40
0.0
 40
0.0
 40
0.0
 40
0.0
 40
0.4092326515
 40
0.5821884878
 40
0.7284484267
 40
0.8453951962
 40
0.9305969598
 40
0.9824779154
 40
1.0
 40
1.0
 40
1.0
 40
1.0
 10
17.2800723479
 20
51.8763917898
 30
0.0
 10
17.2561096346
 20
51.8766771512
 30
0.0
 10
17.221937558
 20
51.8772072025
 30
0.0
 10
17.1794806581
 20
51.8780517604
 30
0.0
 10
17.1535214539
 20
51.878661905
 30
0.0
 10
17.1342613394
 20
51.8791028665
 30
0.0
 10
17.1167498741
 20
51.8796680932
 30
0.0
 10
17.1124187636
 20
51.8796188525
 30
0.0
 10
17.103410944
 20
51.8800505219
 30
0.0
 10
17.1044321294
 20
51.8799503932
 30
0.0
  0
SPLINE
  5
2E5
100
AcDbEntity
  8
0
100
AcDbSpline
 62
7
  6
BYLAYER
 70
0
 71
3
 72
9
 73
5
 74
0
 42
0.0000001
 43
0.0000001
 44
0.0000000001
 40
0.0
 40
0.0
 40
0.0
 40
0.0
 40
0.241788883
 40
1.0
 40
1.0
 40
1.0
 40
1.0
 10
37.9582729253
 20
49.3151808164
 30
0.0
 10
37.9583801875
 20
49.312552598
 30
0.0
 10
37.9600280763
 20
49.3017222099
 30
0.0
 10
37.9655948131
 20
49.2918519432
 30
0.0
 10
37.9706263157
 20
49.2853157166
 30
0.0
  0
SPLINE
  5
2E6
100
AcDbEntity
  8
0
100
AcDbSpline
 62
7
  6
BYLAYER
 70
0
 71
3
 72
36
 73
32
 74
0
 42
0.0000001
 43
0.0000001
 44
0.0000000001
 40
0.0
 40
0.0
 40
0.0
 40
0.0
 40
0.0036054984
 40
0.0073457028
 40
0.0111433434
 40
0.0149703296
 40
0.0188133202
 40
0.0226697555
 40
0.0304081393
 40
0.0381677973
 40
0.0459410937
 40
0.0615132879
 40
0.0771061548
 40
0.0927121149
 40
0.1083268286
 40
0.1239474315
 40
0.1552011551
 40
0.1864661388
 40
0.2177382747
 40
0.2490154487
 40
0.2802962007
 40
0.3115796322
 40
0.3741521481
 40
0.4367298312
 40
0.4993108149
 40
0.5618940375
 40
0.6244787829
 40
0.6870645619
 40
0.7496510391
 40
0.8748251541
 40
1.0
 40
1.0
 40
1.0
 40
1.0
 10
37.9706263157
 20
49.2853157166
 30
0.0
 10
37.9782156169
 20
49.2754567548
 30
0.0
 10
37.9981709867
 20
49.2590278392
 30
0.0
 10
38.0315926846
 20
49.2400602599
 30
0.0
 10
38.0674077836
 20
49.2239335198
 30
0.0
 10
38.1042909056
 20
49.209595815
 30
0.0
 10
38.1417803691
 20
49.196281011
 30
0.0
 10
38.1925619012
 20
49.1801595226
 30
0.0
 10
38.256881918
 20
49.1621112113
 30
0.0
 10
38.334802513
 20
49.1426639189
 30
0.0
 10
38.4394912694
 20
49.1189383131
 30
0.0
 10
38.5712795605
 20
49.0926453663
 30
0.0
 10
38.7301574535
 20
49.0642125985
 30
0.0
 10
38.8896229303
 20
49.0383519981
 30
0.0
 10
39.049486666
 20
49.0144498138
 30
0.0
 10
39.2630143956
 20
48.984360914
 30
0.0
 10
39.5304646287
 20
48.9499866165
 30
0.0
 10
39.8519179025
 20
48.9123069958
 30
0.0
 10
40.1737449054
 20
48.8772176197
 30
0.0
 10
40.4958641318
 20
48.8443909715
 30
0.0
 10
40.8181918842
 20
48.8132790861
 30
0.0
 10
41.2482010142
 20
48.7737879116
 30
0.0
 10
41.7860572203
 20
48.727772488
 30
0.0
 10
42.4318401597
 20
48.6764533332
 30
0.0
 10
43.0778916675
 20
48.6281419811
 30
0.0
 10
43.7241639058
 20
48.5825386201
 30
0.0
 10
44.3706111497
 20
48.5392456981
 30
0.0
 10
45.0171983579
 20
48.497924759
 30
0.0
 10
45.8794614434
 20
48.444976259
 30
0.0
 10
46.9575073933
 20
48.3822396864
 30
0.0
 10
47.8201282108
 20
48.3352902308
 30
0.0
 10
48.2514773288
 20
48.3125328793
 30
0.0
  0
LINE
  5
2E7
100
AcDbEntity
  8
0
100
AcDbLine
 62
7
  6
BYLAYER
 10
39.6925390315
 20
52.2588427435
 11
50.7931388734
 21
52.052483175
  0
SPLINE
  5
2E8
100
AcDbEntity
  8
0
100
AcDbSpline
 62
7
  6
BYLAYER
 70
0
 71
3
 72
12
 73
8
 74
0
 42
0.0000001
 43
0.0000001
 44
0.0000000001
 40
0.0
 40
0.0
 40
0.0
 40
0.0
 40
0.0973801811
 40
0.2068701539
 40
0.4531629783
 40
0.7223830853
 40
1.0
 40
1.0
 40
1.0
 40
1.0
 10
9.6045399135
 20
49.3279945958
 30
0.0
 10
9.6045399135
 20
49.3171006111
 30
0.0
 10
9.6023815801
 20
49.2939519523
 30
0.0
 10
9.5913686533
 20
49.2443768903
 30
0.0
 10
9.5656990518
 20
49.1789331497
 30
0.0
 10
9.5231170917
 20
49.1009529665
 30
0.0
 10
9.4887752252
 20
49.0502069748
 30
0.0
 10
9.470340742
 20
49.0252126025
 30
0.0
  0
SPLINE
  5
2E9
100
AcDbEntity
  8
0
100
AcDbSpline
 62
7
  6
BYLAYER
 70
0
 71
3
 72
11
 73
7
 74
0
 42
0.0000001
 43
0.0000001
 44
0.0000000001
 40
0.0
 40
0.0
 40
0.0
 40
0.0
 40
0.2499891669
 40
0.4984626703
 40
0.7476819356
 40
1.0
 40
1.0
 40
1.0
 40
1.0
 10
37.9328544812
 20
44.6507802671
 30
0.0
 10
37.9328486369
 20
44.8332165083
 30
0.0
 10
37.9128626038
 20
45.1973505257
 30
0.0
 10
37.8195458853
 20
45.7362137365
 30
0.0
 10
37.6620982847
 20
46.2617423679
 30
0.0
 10
37.5156402734
 20
46.5982637929
 30
0.0
 10
37.4325402053
 20
46.7625817088
 30
0.0
  0
SPLINE
  5
2EA
100
AcDbEntity
  8
0
100
AcDbSpline
 62
7
  6
BYLAYER
 70
0
 71
3
 72
15
 73
11
 74
0
 42
0.0000001
 43
0.0000001
 44
0.0000000001
 40
0.0
 40
0.0
 40
0.0
 40
0.0
 40
0.1008912225
 40
0.1556560572
 40
0.2129778464
 40
0.3337191716
 40
0.4605832629
 40
0.5916693486
 40
0.7257393951
 40
1.0
 40
1.0
 40
1.0
 40
1.0
 10
23.044539914
 20
49.8448934798
 30
0.0
 10
23.0604797745
 20
49.7739280662
 30
0.0
 10
23.1085252251
 20
49.6696161262
 30
0.0
 10
23.196918923
 20
49.5441531741
 30
0.0
 10
23.3066116474
 20
49.4167232822
 30
0.0
 10
23.4676964705
 20
49.2663989346
 30
0.0
 10
23.6828437385
 20
49.0980511827
 30
0.0
 10
23.9150621568
 20
48.93678986
 30
0.0
 10
24.2428495852
 20
48.7274532521
 30
0.0
 10
24.4974127694
 20
48.579391566
 30
0.0
 10
24.6697000462
 20
48.4823902666
 30
0.0
  0
SPLINE
  5
2EB
100
AcDbEntity
  8
0
100
AcDbSpline
 62
7
  6
BYLAYER
 70
0
 71
3
 72
9
 73
5
 74
0
 42
0.0000001
 43
0.0000001
 44
0.0000000001
 40
0.0
 40
0.0
 40
0.0
 40
0.0
 40
0.4902142877
 40
1.0
 40
1.0
 40
1.0
 40
1.0
 10
24.6697000462
 20
48.4823902666
 30
0.0
 10
24.6980484491
 20
48.4674911865
 30
0.0
 10
24.7594625875
 20
48.4434096133
 30
0.0
 10
24.8250633419
 20
48.4349250114
 30
0.0
 10
24.858367141
 20
48.4349250114
 30
0.0
  0
SPLINE
  5
2EC
100
AcDbEntity
  8
0
100
AcDbSpline
 62
7
  6
BYLAYER
 70
0
 71
3
 72
15
 73
11
 74
0
 42
0.0000001
 43
0.0000001
 44
0.0000000001
 40
0.0
 40
0.0
 40
0.0
 40
0.0
 40
0.1387535786
 40
0.2751377173
 40
0.4084592432
 40
0.5379661128
 40
0.6625832103
 40
0.7813122407
 40
0.8935135786
 40
1.0
 40
1.0
 40
1.0
 40
1.0
 10
24.0415215469
 20
50.8513980336
 30
0.0
 10
23.9856534428
 20
50.8272185216
 30
0.0
 10
23.8756265928
 20
50.7774975517
 30
0.0
 10
23.715196298
 20
50.6975208227
 30
0.0
 10
23.5624260872
 20
50.6116803238
 30
0.0
 10
23.4196187317
 20
50.5191956974
 30
0.0
 10
23.2902523353
 20
50.4186670513
 30
0.0
 10
23.1786922286
 20
50.3088726622
 30
0.0
 10
23.0918320485
 20
50.1879029424
 30
0.0
 10
23.0551715239
 20
50.0976833009
 30
0.0
 10
23.044539914
 20
50.0521897423
 30
0.0
  0
LINE
  5
2ED
100
AcDbEntity
  8
0
100
AcDbLine
 62
7
  6
BYLAYER
 10
24.858367141
 20
48.4349250114
 11
24.8688894375
 21
48.4350255139
  0
SPLINE
  5
2EE
100
AcDbEntity
  8
0
100
AcDbSpline
 62
7
  6
BYLAYER
 70
0
 71
3
 72
11
 73
7
 74
0
 42
0.0000001
 43
0.0000001
 44
0.0000000001
 40
0.0
 40
0.0
 40
0.0
 40
0.0
 40
0.2500422718
 40
0.500043822
 40
0.7500273005
 40
1.0
 40
1.0
 40
1.0
 40
1.0
 10
53.1562884705
 20
41.3809480501
 30
0.0
 10
53.1587157585
 20
41.3101685901
 30
0.0
 10
53.1640244427
 20
41.1686323818
 30
0.0
 10
53.1680441656
 20
40.9562307208
 30
0.0
 10
53.1714294771
 20
40.74383552
 30
0.0
 10
53.1707376192
 20
40.6022252786
 30
0.0
 10
53.1707361825
 20
40.531423916
 30
0.0
  0
SPLINE
  5
2EF
100
AcDbEntity
  8
0
100
AcDbSpline
 62
7
  6
BYLAYER
 70
0
 71
3
 72
10
 73
6
 74
0
 42
0.0000001
 43
0.0000001
 44
0.0000000001
 40
0.0
 40
0.0
 40
0.0
 40
0.0
 40
0.5037993676
 40
0.7526160503
 40
1.0
 40
1.0
 40
1.0
 40
1.0
 10
51.3866944548
 20
49.8941876031
 30
0.0
 10
51.8131531406
 20
48.7945693158
 30
0.0
 10
52.3459768785
 20
47.1080269096
 30
0.0
 10
52.8223732874
 20
44.8147710677
 30
0.0
 10
52.9809638637
 20
43.6628492846
 30
0.0
 10
53.0401518369
 20
43.0867441621
 30
0.0
  0
SPLINE
  5
2F0
100
AcDbEntity
  8
0
100
AcDbSpline
 62
7
  6
BYLAYER
 70
0
 71
3
 72
14
 73
10
 74
0
 42
0.0000001
 43
0.0000001
 44
0.0000000001
 40
0.0
 40
0.0
 40
0.0
 40
0.0
 40
0.2577512491
 40
0.3856619269
 40
0.512624411
 40
0.6382396916
 40
0.7618964463
 40
0.882753586
 40
1.0
 40
1.0
 40
1.0
 40
1.0
 10
24.6696998302
 20
37.8797024312
 30
0.0
 10
24.4961264811
 20
37.7575205923
 30
0.0
 10
24.2399521374
 20
37.5694062503
 30
0.0
 10
23.913277415
 20
37.3018476395
 30
0.0
 10
23.6803871417
 20
37.0919753091
 30
0.0
 10
23.4642378175
 20
36.8695671445
 30
0.0
 10
23.2732270673
 20
36.6311237798
 30
0.0
 10
23.1212791813
 20
36.3733437897
 30
0.0
 10
23.0599248024
 20
36.1842221054
 30
0.0
 10
23.044539914
 20
36.08890049
 30
0.0
  0
SPLINE
  5
2F1
100
AcDbEntity
  8
0
100
AcDbSpline
 62
7
  6
BYLAYER
 70
0
 71
3
 72
12
 73
8
 74
0
 42
0.0000001
 43
0.0000001
 44
0.0000000001
 40
0.0
 40
0.0
 40
0.0
 40
0.0
 40
0.0670315651
 40
0.1487477327
 40
0.3619341881
 40
0.6460179985
 40
1.0
 40
1.0
 40
1.0
 40
1.0
 10
36.8422990537
 20
53.4883853029
 30
0.0
 10
36.837805062
 20
53.4834775312
 30
0.0
 10
36.8294374863
 20
53.4711233619
 30
0.0
 10
36.8150040428
 20
53.4381013827
 30
0.0
 10
36.8027484982
 20
53.3814826433
 30
0.0
 10
36.7960550891
 20
53.2972004366
 30
0.0
 10
36.7951704041
 20
53.2338227433
 30
0.0
 10
36.7951598669
 20
53.198681565
 30
0.0
  0
SPLINE
  5
2F2
100
AcDbEntity
  8
0
100
AcDbSpline
 62
7
  6
BYLAYER
 70
0
 71
3
 72
9
 73
5
 74
0
 42
0.0000001
 43
0.0000001
 44
0.0000000001
 40
0.0
 40
0.0
 40
0.0
 40
0.0
 40
0.2397464632
 40
1.0
 40
1.0
 40
1.0
 40
1.0
 10
51.2551329828
 20
50.1639533383
 30
0.0
 10
51.2478071066
 20
50.1717653843
 30
0.0
 10
51.2158308589
 20
50.2030093576
 30
0.0
 10
51.1788154937
 20
50.2289231811
 30
0.0
 10
51.1492073035
 20
50.2455577645
 30
0.0
  0
SPLINE
  5
2F3
100
AcDbEntity
  8
0
100
AcDbSpline
 62
7
  6
BYLAYER
 70
0
 71
3
 72
9
 73
5
 74
0
 42
0.0000001
 43
0.0000001
 44
0.0000000001
 40
0.0
 40
0.0
 40
0.0
 40
0.0
 40
0.2393974927
 40
1.0
 40
1.0
 40
1.0
 40
1.0
 10
51.1492073035
 20
50.2455577645
 30
0.0
 10
51.1282161139
 20
50.2573511125
 30
0.0
 10
51.0370846129
 20
50.3003714237
 30
0.0
 10
50.9354713346
 20
50.3197037635
 30
0.0
 10
50.8590054473
 20
50.3218871992
 30
0.0
  0
LINE
  5
2F4
100
AcDbEntity
  8
0
100
AcDbLine
 62
7
  6
BYLAYER
 10
39.6925390315
 20
50.5294082011
 11
50.8590054473
 21
50.3218871992
  0
SPLINE
  5
2F5
100
AcDbEntity
  8
0
100
AcDbSpline
 62
7
  6
BYLAYER
 70
0
 71
3
 72
9
 73
5
 74
0
 42
0.0000001
 43
0.0000001
 44
0.0000000001
 40
0.0
 40
0.0
 40
0.0
 40
0.0
 40
0.2395742187
 40
1.0
 40
1.0
 40
1.0
 40
1.0
 10
51.2549591534
 20
51.8935654404
 30
0.0
 10
51.2475739591
 20
51.9014432679
 30
0.0
 10
51.2152698372
 20
51.9329323239
 30
0.0
 10
51.1778066904
 20
51.9589252906
 30
0.0
 10
51.1478747799
 20
51.9756228119
 30
0.0
  0
SPLINE
  5
2F6
100
AcDbEntity
  8
0
100
AcDbSpline
 62
7
  6
BYLAYER
 70
0
 71
3
 72
9
 73
5
 74
0
 42
0.0000001
 43
0.0000001
 44
0.0000000001
 40
0.0
 40
0.0
 40
0.0
 40
0.0
 40
0.2395218119
 40
1.0
 40
1.0
 40
1.0
 40
1.0
 10
51.1478747799
 20
51.9756228119
 30
0.0
 10
51.1269278196
 20
51.9873080773
 30
0.0
 10
51.0361379201
 20
52.0300276524
 30
0.0
 10
50.9349430187
 20
52.0490877371
 30
0.0
 10
50.8588193768
 20
52.0512620754
 30
0.0
  0
SPLINE
  5
2F7
100
AcDbEntity
  8
0
100
AcDbSpline
 62
7
  6
BYLAYER
 70
0
 71
3
 72
14
 73
10
 74
0
 42
0.0000001
 43
0.0000001
 44
0.0000000001
 40
0.0
 40
0.0
 40
0.0
 40
0.0
 40
0.120251706
 40
0.2419966939
 40
0.3655938285
 40
0.4907486497
 40
0.6170549317
 40
0.7441785385
 40
1.0
 40
1.0
 40
1.0
 40
1.0
 10
23.044539914
 20
35.7973054926
 30
0.0
 10
23.0597095935
 20
35.7049834218
 30
0.0
 10
23.1200756816
 20
35.5234905147
 30
0.0
 10
23.2725520456
 20
35.2814339176
 30
0.0
 10
23.4639157937
 20
35.0647184022
 30
0.0
 10
23.6802179419
 20
34.8682685
 30
0.0
 10
23.913158624
 20
34.6876403955
 30
0.0
 10
24.2396905382
 20
34.4629723157
 30
0.0
 10
24.4959788584
 20
34.310360648
 30
0.0
 10
24.6697000462
 20
34.2132158549
 30
0.0
  0
SPLINE
  5
2F8
100
AcDbEntity
  8
0
100
AcDbSpline
 62
7
  6
BYLAYER
 70
0
 71
3
 72
9
 73
5
 74
0
 42
0.0000001
 43
0.0000001
 44
0.0000000001
 40
0.0
 40
0.0
 40
0.0
 40
0.0
 40
0.5020674599
 40
1.0
 40
1.0
 40
1.0
 40
1.0
 10
24.858367141
 20
37.9389574309
 30
0.0
 10
24.824914028
 20
37.9389574309
 30
0.0
 10
24.7578886973
 20
37.9279604487
 30
0.0
 10
24.6974271038
 20
37.8979219664
 30
0.0
 10
24.6696998302
 20
37.8797024312
 30
0.0
  0
ELLIPSE
  5
2F9
100
AcDbEntity
  8
0
100
AcDbEllipse
 62
7
  6
BYLAYER
 10
33.6857994724
 20
42.0893467457
 30
0.0
 11
38.165221805
 21
-10.8244984526
 31
0.0
 40
0.2460158605
 41
1.4828005802
 42
1.5263335151
  0
ELLIPSE
  5
2FA
100
AcDbEntity
  8
0
100
AcDbEllipse
 62
7
  6
BYLAYER
 10
33.8235762639
 20
40.6727355609
 30
0.0
 11
38.1556211395
 21
10.8217764989
 31
0.0
 40
0.2460158779
 41
1.3470817139
 42
1.3892890774
  0
ELLIPSE
  5
2FB
100
AcDbEntity
  8
0
100
AcDbEllipse
 62
7
  6
BYLAYER
 10
16.6746035361
 20
41.3799520534
 30
0.0
 11
23.2519159813
 21
-0.0
 31
0.0
 40
0.4515756899
 41
1.3791491318
 42
1.5447538597
  0
ELLIPSE
  5
2FC
100
AcDbEntity
  8
0
100
AcDbEllipse
 62
7
  6
BYLAYER
 10
33.6895891857
 20
40.672562261
 30
0.0
 11
38.1649578147
 21
10.8244235791
 31
0.0
 40
0.2460158605
 41
7.6267598574
 42
7.670292504
  0
ELLIPSE
  5
2FD
100
AcDbEntity
  8
0
100
AcDbEllipse
 62
7
  6
BYLAYER
 10
33.8197865509
 20
42.0891734458
 30
0.0
 11
38.1558851298
 21
-10.8218513724
 31
0.0
 40
0.2460158779
 41
1.4863077645
 42
1.5285154036
  0
ENDSEC
  0
SECTION
  2
OBJECTS
  0
DICTIONARY
  5
C
100
AcDbDictionary
280
0
281
1
  3
ACAD_GROUP
350
D
  3
ACAD_MLINESTYLE
350
17
  3
ACAD_LAYOUT
350
1A
  3
ACAD_PLOTSETTINGS
350
19
  3
ACAD_PLOTSTYLENAME
350
E
  0
DICTIONARY
  5
D
102
{ACAD_REACTORS
330
C
102
}
100
AcDbDictionary
280
0
281
1
  0
ACDBDICTIONARYWDFLT
  5
E
102
{ACAD_REACTORS
330
C
102
}
100
AcDbDictionary
281
1
  3
Normal
350
F
100
AcDbDictionaryWithDefault
340
F
  0
DICTIONARY
  5
17
102
{ACAD_REACTORS
330
C
102
}
100
AcDbDictionary
280
0
281
1
  3
Standard
350
18
  0
DICTIONARY
  5
19
102
{ACAD_REACTORS
330
C
102
}
100
AcDbDictionary
281
1
  0
DICTIONARY
  5
1A
102
{ACAD_REACTORS
330
C
102
}
100
AcDbDictionary
281
1
  3
Model
350
2FE
  3
Layout1
350
2FF
  0
ACDBPLACEHOLDER
  5
F
102
{ACAD_REACTORS
330
E
102
}
  0
MLINESTYLE
  5
18
102
{ACAD_REACTORS
330
17
102
}
100
AcDbMlineStyle
  2
STANDARD
 70
0
  3

 62
256
 51
90.0
 52
90.0
 71
2
 49
0.5
 62
256
  6
BYLAYER
 49
-0.5
 62
256
  6
BYLAYER
  0
LAYOUT
  5
2FE
102
{ACAD_REACTORS
330
1A
102
}
100
AcDbPlotSettings
  1

  2
none_device
  4

  6

 40
0.0
 41
0.0
 42
0.0
 43
0.0
 44
210.0
 45
297.0
 46
0.0
 47
0.0
 48
0.0
 49
0.0
140
0.0
141
0.0
142
1.0
143
1.0
 70
1024
 72
1
 73
0
 74
0
  7

 75
0
147
1.0
148
0.0
149
0.0
100
AcDbLayout
  1
Model
 70
0
 71
0
 10
0.0
 20
0.0
 11
210.0
 21
297.0
 12
0.0
 22
0.0
 32
0.0
 14
0.0
 24
0.0
 34
0.0
 15
0.0
 25
0.0
 35
0.0
146
0.0
 13
0.0
 23
0.0
 33
0.0
 16
1.0
 26
0.0
 36
0.0
 17
0.0
 27
1.0
 37
0.0
 76
0
330
210
345
0
346
0
  0
LAYOUT
  5
2FF
102
{ACAD_REACTORS
330
1A
102
}
100
AcDbPlotSettings
  1

  2
none_device
  4

  6

 40
0.0
 41
0.0
 42
0.0
 43
0.0
 44
210.0
 45
297.0
 46
0.0
 47
0.0
 48
0.0
 49
0.0
140
0.0
141
0.0
142
1.0
143
1.0
 70
0
 72
1
 73
0
 74
0
  7

 75
0
147
1.0
148
0.0
149
0.0
100
AcDbLayout
  1
Layout1
 70
0
 71
1
 10
0.0
 20
0.0
 11
210.0
 21
297.0
 12
0.0
 22
0.0
 32
0.0
 14
0.0
 24
0.0
 34
0.0
 15
0.0
 25
0.0
 35
0.0
146
0.0
 13
0.0
 23
0.0
 33
0.0
 16
1.0
 26
0.0
 36
0.0
 17
0.0
 27
1.0
 37
0.0
 76
0
330
211
345
0
346
0
  0
ENDSEC
  0
EOF
