999
DXF file: C:\Users\sesa63760\Dev\_Creo\CAD\MCADUE0002366_3D-CAD\drw0001_7.dxf
999
Pro/ENGINEER 2019471 by Parametric Technology Corporation
  0
SECTION
  2
HEADER
  9
$ACADVER
  1
AC1024
  9
$DWGCODEPAGE
  3
ANSI_1252
  9
$EXTMAX
 10
89.6489138454
 20
126.7891781528
 30
0.0
  9
$EXTMIN
 10
0.0
 20
0.0
 30
0.0
  9
$LIMMIN
 10
0.0
 20
0.0
  9
$LIMMAX
 10
89.6489138454
 20
126.7891781528
  9
$VIEWCTR
 10
44.8244569227
 20
63.3945890764
  9
$VIEWSIZE
 40
126.7891781528
  9
$CLAYER
  8
0
  9
$LTSCALE
 40
8.2647760574
  9
$CELTYPE
  6
BYLAYER
  9
$DIMSCALE
 40
1.0
  9
$DIMASZ
 40
1.0672489744
  9
$DIMEXO
 40
1.0
  9
$DIMDLI
 40
5.7102089124
  9
$DIMEXE
 40
1.0
  9
$DIMCEN
 40
1.3524179003
  9
$DIMLFAC
 40
1.0
  9
$DIMBLK
  1
_FILLED
  9
$DIMALT
 70
0
  9
$DIMALTF
 40
0.0393700787
  9
$DIMTXT
 40
1.4941485641
  9
$DIMTOL
 70
1
  9
$DIMLIM
 70
0
  9
$DIMTFAC
 40
1.0
  9
$DIMTP
 40
0.01
  9
$DIMTM
 40
0.01
  9
$DIMGAP
 40
0.625
  9
$DIMDSEP
 70
46
  9
$AUNITS
 70
0
  9
$PDMODE
 70
3
  9
$PDSIZE
 40
0.3125
  9
$HANDSEED
  5
2C5
  9
$TILEMODE
 70
1
  9
$MEASUREMENT
 70
1
  9
$INSUNITS
 70
4
  0
ENDSEC
  0
SECTION
  2
CLASSES
  0
CLASS
  1
ACDBDICTIONARYWDFLT
  2
AcDbDictionaryWithDefault
  3
AutoCAD 2000
 90
0
 91
1
280
0
281
0
  0
CLASS
  1
ACDBPLACEHOLDER
  2
AcDbPlaceHolder
  3
AutoCAD 2000
 90
0
 91
1
280
0
281
0
  0
CLASS
  1
LAYOUT
  2
AcDbLayout
  3
AutoCAD 2000
 90
0
 91
0
280
0
281
0
  0
ENDSEC
  0
SECTION
  2
TABLES
  0
TABLE
  2
VPORT
  5
8
100
AcDbSymbolTable
 70
2
  0
VPORT
  5
1F4
100
AcDbSymbolTableRecord
100
AcDbViewportTableRecord
  2
*ACTIVE
 70
0
 10
0.0
 20
0.0
 11
1.0
 21
1.0
 12
44.8244569227
 22
63.3945890764
 13
0.0
 23
0.0
 14
1.0
 24
1.0
 15
0.0
 25
0.0
 16
0.0
 26
0.0
 36
1.0
 17
0.0
 27
0.0
 37
0.0
 40
126.7891781528
 41
0.7070707071
 42
50.0
 43
0.0
 44
0.0
 50
0.0
 51
0.0
 71
0
 72
100
 73
1
 74
1
 75
0
 76
0
 77
0
 78
0
  0
ENDTAB
  0
TABLE
  2
LTYPE
  5
5
100
AcDbSymbolTable
 70
6
  0
LTYPE
  5
14
100
AcDbSymbolTableRecord
100
AcDbLinetypeTableRecord
  2
BYBLOCK
 70
0
  3

 72
65
 73
0
 40
0.0
  0
LTYPE
  5
15
100
AcDbSymbolTableRecord
100
AcDbLinetypeTableRecord
  2
BYLAYER
 70
0
  3

 72
65
 73
0
 40
0.0
  0
LTYPE
  5
16
100
AcDbSymbolTableRecord
100
AcDbLinetypeTableRecord
  2
CONTINUOUS
 70
64
  3
Solid line
 72
65
 73
0
 40
0.0
  0
LTYPE
  5
1F5
100
AcDbSymbolTableRecord
100
AcDbLinetypeTableRecord
  2
CENTER
 70
64
  3
____ _ ____ _ ____ _ ____ _ ____ _ ____ _ ____
 72
65
 73
4
 40
0.6
 49
0.375
 74
0
 49
-0.075
 74
0
 49
0.075
 74
0
 49
-0.075
 74
0
  0
LTYPE
  5
1F6
100
AcDbSymbolTableRecord
100
AcDbLinetypeTableRecord
  2
HIDDEN
 70
64
  3
- - - - - - - - - - - - - - - - - - - -
 72
65
 73
2
 40
0.2
 49
0.1
 74
0
 49
-0.1
 74
0
  0
LTYPE
  5
1F7
100
AcDbSymbolTableRecord
100
AcDbLinetypeTableRecord
  2
PHANTOM
 70
64
  3
_____ _ _ _____ _ _ _____ _ _ _____
 72
65
 73
6
 40
0.8
 49
0.45
 74
0
 49
-0.05
 74
0
 49
0.1
 74
0
 49
-0.05
 74
0
 49
0.1
 74
0
 49
-0.05
 74
0
  0
LTYPE
  5
1F8
100
AcDbSymbolTableRecord
100
AcDbLinetypeTableRecord
  2
DOT
 70
64
  3
. . . . . . . . . . . . . . . . . . . .
 72
65
 73
2
 40
0.2
 49
0.1
 74
0
 49
-0.1
 74
0
  0
LTYPE
  5
1F9
100
AcDbSymbolTableRecord
100
AcDbLinetypeTableRecord
  2
DASHED
 70
64
  3
- - - - - - - - - - - - - - - - - - - -
 72
65
 73
2
 40
0.2
 49
0.1
 74
0
 49
-0.1
 74
0
  0
ENDTAB
  0
TABLE
  2
LAYER
  5
2
100
AcDbSymbolTable
 70
36
  0
LAYER
  5
10
100
AcDbSymbolTableRecord
100
AcDbLayerTableRecord
  2
0
 70
0
 62
7
  6
CONTINUOUS
370
-3
390
F
  0
LAYER
  5
1FA
100
AcDbSymbolTableRecord
100
AcDbLayerTableRecord
  2
DEFAULT_1
 70
0
 62
7
  6
CENTER
370
-3
390
F
  0
LAYER
  5
1FB
100
AcDbSymbolTableRecord
100
AcDbLayerTableRecord
  2
DEFAULT_2
 70
0
 62
8
  6
HIDDEN
370
-3
390
F
  0
LAYER
  5
1FC
100
AcDbSymbolTableRecord
100
AcDbLayerTableRecord
  2
DEFAULT_3
 70
0
 62
7
  6
PHANTOM
370
-3
390
F
  0
LAYER
  5
1FD
100
AcDbSymbolTableRecord
100
AcDbLayerTableRecord
  2
00_COMPONENTS
 70
0
 62
7
  6
CONTINUOUS
370
-3
390
F
  0
LAYER
  5
1FE
100
AcDbSymbolTableRecord
100
AcDbLayerTableRecord
  2
01_1_DEFAULT_DATUMS
 70
0
 62
7
  6
CONTINUOUS
370
-3
390
F
  0
LAYER
  5
1FF
100
AcDbSymbolTableRecord
100
AcDbLayerTableRecord
  2
01_PLANES
 70
0
 62
7
  6
CONTINUOUS
370
-3
390
F
  0
LAYER
  5
200
100
AcDbSymbolTableRecord
100
AcDbLayerTableRecord
  2
02_COORD_SYS
 70
0
 62
7
  6
CONTINUOUS
370
-3
390
F
  0
LAYER
  5
201
100
AcDbSymbolTableRecord
100
AcDbLayerTableRecord
  2
03_AXES
 70
0
 62
7
  6
CONTINUOUS
370
-3
390
F
  0
LAYER
  5
202
100
AcDbSymbolTableRecord
100
AcDbLayerTableRecord
  2
04_POINTS
 70
0
 62
7
  6
CONTINUOUS
370
-3
390
F
  0
LAYER
  5
203
100
AcDbSymbolTableRecord
100
AcDbLayerTableRecord
  2
05_CURVES
 70
0
 62
7
  6
CONTINUOUS
370
-3
390
F
  0
LAYER
  5
204
100
AcDbSymbolTableRecord
100
AcDbLayerTableRecord
  2
06_SURFS
 70
0
 62
7
  6
CONTINUOUS
370
-3
390
F
  0
LAYER
  5
205
100
AcDbSymbolTableRecord
100
AcDbLayerTableRecord
  2
07_COSMETICS
 70
0
 62
7
  6
CONTINUOUS
370
-3
390
F
  0
LAYER
  5
206
100
AcDbSymbolTableRecord
100
AcDbLayerTableRecord
  2
10_NOTES
 70
0
 62
7
  6
CONTINUOUS
370
-3
390
F
  0
LAYER
  5
207
100
AcDbSymbolTableRecord
100
AcDbLayerTableRecord
  2
11_NOTES_PUB
 70
0
 62
7
  6
CONTINUOUS
370
-3
390
F
  0
LAYER
  5
208
100
AcDbSymbolTableRecord
100
AcDbLayerTableRecord
  2
13_REF_GTOL
 70
0
 62
7
  6
CONTINUOUS
370
-3
390
F
  0
LAYER
  5
209
100
AcDbSymbolTableRecord
100
AcDbLayerTableRecord
  2
16_MISC
 70
0
 62
7
  6
CONTINUOUS
370
-3
390
F
  0
LAYER
  5
20A
100
AcDbSymbolTableRecord
100
AcDbLayerTableRecord
  2
17_NO_PRINT
 70
0
 62
7
  6
CONTINUOUS
370
-3
390
F
  0
LAYER
  5
20B
100
AcDbSymbolTableRecord
100
AcDbLayerTableRecord
  2
18_DATUM_CAMS_JOINTS
 70
0
 62
7
  6
CONTINUOUS
370
-3
390
F
  0
LAYER
  5
20C
100
AcDbSymbolTableRecord
100
AcDbLayerTableRecord
  2
19_DATUM_FUNCTIONAL
 70
0
 62
7
  6
CONTINUOUS
370
-3
390
F
  0
LAYER
  5
20D
100
AcDbSymbolTableRecord
100
AcDbLayerTableRecord
  2
20_DATUM_KINEMATIC_SCHEME
 70
0
 62
7
  6
CONTINUOUS
370
-3
390
F
  0
ENDTAB
  0
TABLE
  2
STYLE
  5
3
100
AcDbSymbolTable
 70
1
  0
STYLE
  5
11
100
AcDbSymbolTableRecord
100
AcDbTextStyleTableRecord
  2
STANDARD
 70
0
 40
0.0
 41
0.8
 50
0.0
 71
0
 42
0.2
  3
txt
  4

  0
STYLE
  5
20E
100
AcDbSymbolTableRecord
100
AcDbTextStyleTableRecord
  2
TEXTSTYLE_1
 70
0
 40
0.0
 41
0.8
 50
0.0
 71
0
 42
0.2
  3
gdt
  4

  0
ENDTAB
  0
TABLE
  2
VIEW
  5
6
100
AcDbSymbolTable
 70
0
  0
ENDTAB
  0
TABLE
  2
UCS
  5
7
100
AcDbSymbolTable
 70
0
  0
ENDTAB
  0
TABLE
  2
APPID
  5
9
100
AcDbSymbolTable
 70
1
  0
APPID
  5
20F
100
AcDbSymbolTableRecord
100
AcDbRegAppTableRecord
  2
ACAD
 70
0
  0
ENDTAB
  0
TABLE
  2
BLOCK_RECORD
  5
1
100
AcDbSymbolTable
 70
0
  0
BLOCK_RECORD
  5
210
100
AcDbSymbolTableRecord
100
AcDbBlockTableRecord
  2
*Model_Space
  0
BLOCK_RECORD
  5
211
100
AcDbSymbolTableRecord
100
AcDbBlockTableRecord
  2
*Paper_Space
  0
BLOCK_RECORD
  5
212
100
AcDbSymbolTableRecord
100
AcDbBlockTableRecord
  2
_FILLED
  0
ENDTAB
  0
TABLE
  2
DIMSTYLE
  5
A
100
AcDbSymbolTable
 70
1
100
AcDbDimStyleTable
 71
0
  0
DIMSTYLE
105
213
100
AcDbSymbolTableRecord
100
AcDbDimStyleTableRecord
  2
STANDARD
 70
0
  3

  4

 40
1.0
 41
1.0672489744
 42
1.0
 43
0.38
 44
1.0
 45
0.0
 46
0.0
 47
0.01
 48
0.01
140
1.4941485641
141
0.09
142
0.0
143
25.4
144
1.0
145
0.0
146
1.0
147
0.625
 71
1
 72
0
 73
0
 74
0
 75
0
 76
0
 77
1
 78
8
 79
2
170
0
171
1
172
0
173
0
174
0
175
0
176
0
177
0
178
0
270
2
179
2
271
2
272
2
273
2
274
2
275
0
280
0
281
0
282
0
283
1
284
8
285
0
286
0
287
3
288
0
340
11
278
46
341
212
342
212
343
212
344
212
  0
ENDTAB
  0
ENDSEC
  0
SECTION
  2
BLOCKS
  0
BLOCK
  5
20
100
AcDbEntity
  8
0
100
AcDbBlockBegin
  2
*Model_Space
 70
0
 10
0.0
 20
0.0
 30
0.0
  3
*Model_Space
  1

  0
ENDBLK
  5
21
100
AcDbEntity
  8
0
100
AcDbBlockEnd
  0
BLOCK
  5
1C
100
AcDbEntity
  8
0
100
AcDbBlockBegin
  2
*Paper_Space
 70
0
 10
0.0
 20
0.0
 30
0.0
  3
*Paper_Space
  1

  0
ENDBLK
  5
1D
100
AcDbEntity
  8
0
100
AcDbBlockEnd
  0
BLOCK
  5
214
100
AcDbEntity
  8
0
100
AcDbBlockBegin
  2
_FILLED
 70
64
 10
0.0
 20
0.0
  3
_FILLED
  1

  0
SOLID
  5
215
100
AcDbEntity
  8
0
  6
BYBLOCK
 62
0
100
AcDbTrace
 10
0.0
 20
0.0
 11
-1.0
 21
0.25
 12
-1.0
 22
-0.25
 13
-1.0
 23
-0.25
  0
ENDBLK
  5
216
100
AcDbEntity
  8
0
  6
BYBLOCK
 62
0
100
AcDbBlockEnd
  0
ENDSEC
  0
SECTION
  2
ENTITIES
  0
LINE
  5
217
100
AcDbEntity
  8
0
100
AcDbLine
 62
7
  6
CONTINUOUS
 10
9.4796456352
 20
55.704491057
 11
9.4796456352
 21
54.204491057
  0
LINE
  5
218
100
AcDbEntity
  8
0
100
AcDbLine
 62
7
  6
CONTINUOUS
 10
9.8335220937
 20
54.204491057
 11
9.8335220937
 21
48.204491057
  0
LINE
  5
219
100
AcDbEntity
  8
0
100
AcDbLine
 62
7
  6
CONTINUOUS
 10
13.8313782819
 20
60.5767188328
 11
13.8311973681
 21
60.5817174542
  0
LINE
  5
21A
100
AcDbEntity
  8
0
100
AcDbLine
 62
7
  6
CONTINUOUS
 10
13.6069081423
 20
54.204491057
 11
13.6069081423
 21
48.204491057
  0
LINE
  5
21B
100
AcDbEntity
  8
0
100
AcDbLine
 62
7
  6
CONTINUOUS
 10
13.8314593346
 20
62.0768497425
 11
13.8314600185
 21
62.0817293893
  0
LINE
  5
21C
100
AcDbEntity
  8
0
100
AcDbLine
 62
7
  6
CONTINUOUS
 10
13.8312215959
 20
68.0821495687
 11
13.8311970531
 21
68.0772649254
  0
LINE
  5
21D
100
AcDbEntity
  8
0
100
AcDbLine
 62
7
  6
CONTINUOUS
 10
13.830960851
 20
72.5822405342
 11
13.8308881332
 21
72.5773504581
  0
LINE
  5
21E
100
AcDbEntity
  8
0
100
AcDbLine
 62
7
  6
CONTINUOUS
 10
13.8311007222
 20
69.58223647
 11
13.8309794518
 21
69.5772976569
  0
LINE
  5
21F
100
AcDbEntity
  8
0
100
AcDbLine
 62
7
  6
CONTINUOUS
 10
13.8320480133
 20
75.5822734118
 11
13.8319118001
 21
75.5772752319
  0
LINE
  5
220
100
AcDbEntity
  8
0
100
AcDbLine
 62
7
  6
CONTINUOUS
 10
13.8333098603
 20
77.0747133969
 11
13.8334625338
 21
77.0799365174
  0
LINE
  5
221
100
AcDbEntity
  8
0
100
AcDbLine
 62
7
  6
CONTINUOUS
 10
13.8311067439
 20
78.5768610026
 11
13.8313100631
 21
78.5818954035
  0
LINE
  5
222
100
AcDbEntity
  8
0
100
AcDbLine
 62
7
  6
CONTINUOUS
 10
13.8316669807
 20
65.082281225
 11
13.8314632655
 21
65.077252601
  0
LINE
  5
223
100
AcDbEntity
  8
0
100
AcDbLine
 62
7
  6
CONTINUOUS
 10
13.8312658447
 20
63.5768483161
 11
13.8314640449
 21
63.5815781597
  0
LINE
  5
224
100
AcDbEntity
  8
0
100
AcDbLine
 62
7
  6
CONTINUOUS
 10
14.6649377863
 20
80.704491057
 11
13.8336444501
 21
80.0809197565
  0
LINE
  5
225
100
AcDbEntity
  8
0
100
AcDbLine
 62
7
  6
CONTINUOUS
 10
13.8315245146
 20
66.5821305745
 11
13.8317180448
 21
66.5773873145
  0
LINE
  5
226
100
AcDbEntity
  8
0
100
AcDbLine
 62
7
  6
CONTINUOUS
 10
13.8318512191
 20
80.0822646684
 11
13.8320281904
 21
80.0775092771
  0
LINE
  5
227
100
AcDbEntity
  8
0
100
AcDbLine
 62
7
  6
CONTINUOUS
 10
13.8308920693
 20
74.0821744736
 11
13.8309825823
 21
74.0773891728
  0
LINE
  5
228
100
AcDbEntity
  8
0
100
AcDbLine
 62
7
  6
CONTINUOUS
 10
13.8319530372
 20
71.0821852906
 11
13.8320175924
 21
71.0773319128
  0
LINE
  5
229
100
AcDbEntity
  8
0
100
AcDbLine
 62
7
  6
CONTINUOUS
 10
13.8317634598
 20
59.076835357
 11
13.8319126466
 21
59.0816201065
  0
LINE
  5
22A
100
AcDbEntity
  8
0
100
AcDbLine
 62
7
  6
CONTINUOUS
 10
14.8322977964
 20
79.3326811948
 11
13.8315168063
 21
78.5820504699
  0
LINE
  5
22B
100
AcDbEntity
  8
0
100
AcDbLine
 62
7
  6
CONTINUOUS
 10
14.8340457904
 20
77.8305379238
 11
13.8340849093
 21
77.0804034002
  0
LINE
  5
22C
100
AcDbEntity
  8
0
100
AcDbLine
 62
7
  6
CONTINUOUS
 10
14.8316119752
 20
76.3320760087
 11
13.8319933038
 21
75.5823144428
  0
LINE
  5
22D
100
AcDbEntity
  8
0
100
AcDbLine
 62
7
  6
CONTINUOUS
 10
14.8323038431
 20
74.8319783113
 11
13.8317719714
 21
74.0815145911
  0
LINE
  5
22E
100
AcDbEntity
  8
0
100
AcDbLine
 62
7
  6
CONTINUOUS
 10
19.4847606652
 20
54.204491057
 11
19.4847606652
 21
48.204491057
  0
LINE
  5
22F
100
AcDbEntity
  8
0
100
AcDbLine
 62
7
  6
CONTINUOUS
 10
14.8314009679
 20
73.3320429469
 11
13.8313408714
 21
72.5819555367
  0
LINE
  5
230
100
AcDbEntity
  8
0
100
AcDbLine
 62
7
  6
CONTINUOUS
 10
14.8313115702
 20
71.8319893626
 11
13.831789649
 21
71.0823078278
  0
LINE
  5
231
100
AcDbEntity
  8
0
100
AcDbLine
 62
7
  6
CONTINUOUS
 10
14.8324048786
 20
70.3320386207
 11
13.831929608
 21
69.5816148402
  0
LINE
  5
232
100
AcDbEntity
  8
0
100
AcDbLine
 62
7
  6
CONTINUOUS
 10
14.8314043207
 20
68.8319516772
 11
13.8314731668
 21
68.0819608998
  0
LINE
  5
233
100
AcDbEntity
  8
0
100
AcDbLine
 62
7
  6
CONTINUOUS
 10
14.8316147979
 20
67.3319357769
 11
13.8317312873
 21
66.5819755024
  0
LINE
  5
234
100
AcDbEntity
  8
0
100
AcDbLine
 62
7
  6
CONTINUOUS
 10
13.8317422103
 20
59.0768194205
 11
14.3281523146
 21
58.704491057
  0
LINE
  5
235
100
AcDbEntity
  8
0
100
AcDbLine
 62
7
  6
CONTINUOUS
 10
13.8320159841
 20
60.5771970873
 11
14.8323028988
 21
59.8269171228
  0
LINE
  5
236
100
AcDbEntity
  8
0
100
AcDbLine
 62
7
  6
CONTINUOUS
 10
14.8321143511
 20
65.8320828962
 11
13.8320629423
 21
65.0819842651
  0
LINE
  5
237
100
AcDbEntity
  8
0
100
AcDbLine
 62
7
  6
CONTINUOUS
 10
14.8318713986
 20
64.3319377241
 11
13.8317333349
 21
63.5817801414
  0
LINE
  5
238
100
AcDbEntity
  8
0
100
AcDbLine
 62
7
  6
CONTINUOUS
 10
13.8316998659
 20
62.0770301336
 11
14.8316147498
 21
61.3270463288
  0
LINE
  5
239
100
AcDbEntity
  8
0
100
AcDbLine
 62
7
  6
CONTINUOUS
 10
13.8317333232
 20
63.5771989051
 11
14.8318679177
 21
62.8270440112
  0
LINE
  5
23A
100
AcDbEntity
  8
0
100
AcDbLine
 62
7
  6
CONTINUOUS
 10
29.363613593
 20
54.204491057
 11
29.363613593
 21
48.204491057
  0
LINE
  5
23B
100
AcDbEntity
  8
0
100
AcDbLine
 62
7
  6
CONTINUOUS
 10
14.8318657437
 20
62.8320875939
 11
13.831706715
 21
62.0819144246
  0
LINE
  5
23C
100
AcDbEntity
  8
0
100
AcDbLine
 62
7
  6
CONTINUOUS
 10
14.8316119752
 20
61.3320760087
 11
13.8319933038
 21
60.5823144428
  0
LINE
  5
23D
100
AcDbEntity
  8
0
100
AcDbLine
 62
7
  6
CONTINUOUS
 10
78.5980781679
 20
46.704491057
 11
11.3612131026
 21
46.704491057
  0
LINE
  5
23E
100
AcDbEntity
  8
0
100
AcDbLine
 62
7
  6
CONTINUOUS
 10
80.1257691768
 20
48.204491057
 11
9.8335220937
 21
48.204491057
  0
LINE
  5
23F
100
AcDbEntity
  8
0
100
AcDbLine
 62
7
  6
CONTINUOUS
 10
13.8320552725
 20
65.0768085646
 11
14.8318692206
 21
64.3268941373
  0
LINE
  5
240
100
AcDbEntity
  8
0
100
AcDbLine
 62
7
  6
CONTINUOUS
 10
13.8317459656
 20
66.5773663723
 11
14.8321159177
 21
65.8270287778
  0
LINE
  5
241
100
AcDbEntity
  8
0
100
AcDbLine
 62
7
  6
CONTINUOUS
 10
14.8323038431
 20
59.8319783113
 11
13.8317719714
 21
59.0815145911
  0
LINE
  5
242
100
AcDbEntity
  8
0
100
AcDbLine
 62
7
  6
CONTINUOUS
 10
13.8314816409
 20
68.0770514714
 11
14.8316120232
 21
67.3269060974
  0
LINE
  5
243
100
AcDbEntity
  8
0
100
AcDbLine
 62
7
  6
CONTINUOUS
 10
13.8318928834
 20
69.5766125457
 11
14.8314009679
 21
68.8269391671
  0
LINE
  5
244
100
AcDbEntity
  8
0
100
AcDbLine
 62
7
  6
CONTINUOUS
 10
13.8318343546
 20
71.0774693533
 11
14.8324051941
 21
70.3269738823
  0
LINE
  5
245
100
AcDbEntity
  8
0
100
AcDbLine
 62
7
  6
CONTINUOUS
 10
13.8313318299
 20
72.5770176683
 11
14.8313115702
 21
71.8269927515
  0
LINE
  5
246
100
AcDbEntity
  8
0
100
AcDbLine
 62
7
  6
CONTINUOUS
 10
13.8317422103
 20
74.0768194205
 11
14.8314043207
 21
73.3270304368
  0
LINE
  5
247
100
AcDbEntity
  8
0
100
AcDbLine
 62
7
  6
CONTINUOUS
 10
80.4795766493
 20
54.204491057
 11
80.1257691768
 21
54.204491057
  0
LINE
  5
248
100
AcDbEntity
  8
0
100
AcDbLine
 62
7
  6
CONTINUOUS
 10
76.3523831283
 20
54.204491057
 11
70.4745306053
 21
54.204491057
  0
LINE
  5
249
100
AcDbEntity
  8
0
100
AcDbLine
 62
7
  6
CONTINUOUS
 10
60.5956776775
 20
54.204491057
 11
51.0851125145
 21
54.204491057
  0
LINE
  5
24A
100
AcDbEntity
  8
0
100
AcDbLine
 62
7
  6
CONTINUOUS
 10
38.874178756
 20
54.204491057
 11
29.363613593
 21
54.204491057
  0
LINE
  5
24B
100
AcDbEntity
  8
0
100
AcDbLine
 62
7
  6
CONTINUOUS
 10
19.4847606652
 20
54.204491057
 11
13.6069081422
 21
54.204491057
  0
LINE
  5
24C
100
AcDbEntity
  8
0
100
AcDbLine
 62
7
  6
CONTINUOUS
 10
9.8335220937
 20
54.204491057
 11
9.4797146212
 21
54.204491057
  0
LINE
  5
24D
100
AcDbEntity
  8
0
100
AcDbLine
 62
7
  6
CONTINUOUS
 10
9.4799491614
 20
55.704491057
 11
80.4793421091
 21
55.704491057
  0
LINE
  5
24E
100
AcDbEntity
  8
0
100
AcDbLine
 62
7
  6
CONTINUOUS
 10
13.8320159841
 20
75.5771970873
 11
14.8323028988
 21
74.8269171228
  0
LINE
  5
24F
100
AcDbEntity
  8
0
100
AcDbLine
 62
7
  6
CONTINUOUS
 10
13.8340492438
 20
77.0752679913
 11
14.8316147498
 21
76.3270463288
  0
LINE
  5
250
100
AcDbEntity
  8
0
100
AcDbLine
 62
7
  6
CONTINUOUS
 10
38.874178756
 20
54.204491057
 11
38.874178756
 21
48.204491057
  0
LWPOLYLINE
  5
251
100
AcDbEntity
  8
0
100
AcDbPolyline
 62
7
  6
CONTINUOUS
 90
5
 70
0
 10
58.5648389738
 20
58.8163470732
 10
65.7284302222
 20
58.8859544331
 10
71.1497771755
 20
58.9557121426
 10
74.3429452555
 20
59.0251285137
 10
75.1280373627
 20
59.0771746734
  0
LINE
  5
252
100
AcDbEntity
  8
0
100
AcDbLine
 62
7
  6
CONTINUOUS
 10
44.9796431038
 20
58.7048094792
 11
58.5648389738
 21
58.8163470732
  0
LINE
  5
253
100
AcDbEntity
  8
0
100
AcDbLine
 62
7
  6
CONTINUOUS
 10
77.6296456352
 20
58.704491057
 11
12.3296456352
 21
58.704491057
  0
LINE
  5
254
100
AcDbEntity
  8
0
100
AcDbLine
 62
7
  6
CONTINUOUS
 10
13.8315523337
 20
78.5771951746
 11
14.8339950196
 21
77.8253149696
  0
LINE
  5
255
100
AcDbEntity
  8
0
100
AcDbLine
 62
7
  6
CONTINUOUS
 10
13.8336421019
 20
80.0762987205
 11
14.8323699213
 21
79.327175439
  0
LINE
  5
256
100
AcDbEntity
  8
0
100
AcDbLine
 62
7
  6
CONTINUOUS
 10
44.9796478282
 20
66.9542117356
 11
44.9796435545
 21
68.4547681261
  0
LINE
  5
257
100
AcDbEntity
  8
0
100
AcDbLine
 62
7
  6
CONTINUOUS
 10
75.1277494844
 20
80.0768716852
 11
75.9645297998
 21
80.704491057
  0
LINE
  5
258
100
AcDbEntity
  8
0
100
AcDbLine
 62
7
  6
CONTINUOUS
 10
51.0851125145
 20
54.204491057
 11
51.0851125145
 21
48.204491057
  0
LINE
  5
259
100
AcDbEntity
  8
0
100
AcDbLine
 62
7
  6
CONTINUOUS
 10
75.1255415133
 20
78.5768032697
 11
76.1266788154
 21
79.3277500783
  0
LINE
  5
25A
100
AcDbEntity
  8
0
100
AcDbLine
 62
7
  6
CONTINUOUS
 10
75.1278903026
 20
77.0769391671
 11
76.1265288334
 21
77.8259603447
  0
LINE
  5
25B
100
AcDbEntity
  8
0
100
AcDbLine
 62
7
  6
CONTINUOUS
 10
75.1269874274
 20
75.5770038027
 11
76.1275192991
 21
76.327467523
  0
LINE
  5
25C
100
AcDbEntity
  8
0
100
AcDbLine
 62
7
  6
CONTINUOUS
 10
75.1276792953
 20
74.0769061053
 11
76.1272979667
 21
74.8266676712
  0
LINE
  5
25D
100
AcDbEntity
  8
0
100
AcDbLine
 62
7
  6
CONTINUOUS
 10
75.1274255268
 20
72.5768945201
 11
76.1275845555
 21
73.3270676894
  0
LINE
  5
25E
100
AcDbEntity
  8
0
100
AcDbLine
 62
7
  6
CONTINUOUS
 10
75.1274198719
 20
71.07704439
 11
76.1275579356
 21
71.8272019727
  0
LINE
  5
25F
100
AcDbEntity
  8
0
100
AcDbLine
 62
7
  6
CONTINUOUS
 10
75.1271769194
 20
69.5768992178
 11
76.1272283282
 21
70.326997849
  0
LINE
  5
260
100
AcDbEntity
  8
0
100
AcDbLine
 62
7
  6
CONTINUOUS
 10
60.5956776775
 20
54.204491057
 11
60.5956776775
 21
48.204491057
  0
LINE
  5
261
100
AcDbEntity
  8
0
100
AcDbLine
 62
7
  6
CONTINUOUS
 10
75.1276764726
 20
68.0770463371
 11
76.1275599832
 21
68.8270066117
  0
LINE
  5
262
100
AcDbEntity
  8
0
100
AcDbLine
 62
7
  6
CONTINUOUS
 10
75.1278869498
 20
66.5770304368
 11
76.1278181037
 21
67.3270212143
  0
LINE
  5
263
100
AcDbEntity
  8
0
100
AcDbLine
 62
7
  6
CONTINUOUS
 10
75.6309038275
 20
58.704491057
 11
75.1276765207
 21
59.0819357852
  0
LINE
  5
264
100
AcDbEntity
  8
0
100
AcDbLine
 62
7
  6
CONTINUOUS
 10
76.1272752864
 20
59.8317850268
 11
75.1269883717
 21
60.5820649913
  0
LINE
  5
265
100
AcDbEntity
  8
0
100
AcDbLine
 62
7
  6
CONTINUOUS
 10
75.1268863919
 20
65.0769434933
 11
76.1273616625
 21
65.8273672738
  0
LINE
  5
266
100
AcDbEntity
  8
0
100
AcDbLine
 62
7
  6
CONTINUOUS
 10
75.1279797003
 20
63.5769927514
 11
76.1275016215
 21
64.3266742862
  0
LINE
  5
267
100
AcDbEntity
  8
0
100
AcDbLine
 62
7
  6
CONTINUOUS
 10
75.9645300038
 20
80.704491057
 11
14.6649306864
 21
80.704491057
  0
LINE
  5
268
100
AcDbEntity
  8
0
100
AcDbLine
 62
7
  6
CONTINUOUS
 10
76.1275490602
 20
61.3321626936
 11
75.1278869498
 21
62.0819516772
  0
LINE
  5
269
100
AcDbEntity
  8
0
100
AcDbLine
 62
7
  6
CONTINUOUS
 10
76.1279594406
 20
62.8319644457
 11
75.1279797003
 21
63.5819893626
  0
LINE
  5
26A
100
AcDbEntity
  8
0
100
AcDbLine
 62
7
  6
CONTINUOUS
 10
75.1278903026
 20
62.0769391671
 11
76.1279503991
 21
62.8270265773
  0
LINE
  5
26B
100
AcDbEntity
  8
0
100
AcDbLine
 62
7
  6
CONTINUOUS
 10
75.1269874273
 20
60.5770038027
 11
76.1275192991
 21
61.327467523
  0
LINE
  5
26C
100
AcDbEntity
  8
0
100
AcDbLine
 62
7
  6
CONTINUOUS
 10
76.1274569159
 20
64.3315127608
 11
75.1268860764
 21
65.0820082318
  0
LINE
  5
26D
100
AcDbEntity
  8
0
100
AcDbLine
 62
7
  6
CONTINUOUS
 10
76.1273983871
 20
65.8323695684
 11
75.1278903026
 21
66.5820429469
  0
LINE
  5
26E
100
AcDbEntity
  8
0
100
AcDbLine
 62
7
  6
CONTINUOUS
 10
75.1276792953
 20
59.0769061053
 11
76.1272979667
 21
59.8266676712
  0
LINE
  5
26F
100
AcDbEntity
  8
0
100
AcDbLine
 62
7
  6
CONTINUOUS
 10
76.1278096296
 20
67.3319306426
 11
75.1276792473
 21
68.0820760166
  0
LINE
  5
270
100
AcDbEntity
  8
0
100
AcDbLine
 62
7
  6
CONTINUOUS
 10
76.1275453049
 20
68.8316157417
 11
75.1271753528
 21
69.5819533362
  0
LINE
  5
271
100
AcDbEntity
  8
0
100
AcDbLine
 62
7
  6
CONTINUOUS
 10
70.4745306053
 20
54.204491057
 11
70.4745306053
 21
48.204491057
  0
LINE
  5
272
100
AcDbEntity
  8
0
100
AcDbLine
 62
7
  6
CONTINUOUS
 10
76.127235998
 20
70.3321735495
 11
75.1274220499
 21
71.0820879767
  0
LINE
  5
273
100
AcDbEntity
  8
0
100
AcDbLine
 62
7
  6
CONTINUOUS
 10
76.1275579473
 20
71.8317832089
 11
75.1274233528
 21
72.5819381029
  0
LINE
  5
274
100
AcDbEntity
  8
0
100
AcDbLine
 62
7
  6
CONTINUOUS
 10
76.1275914046
 20
73.3319519805
 11
75.1276765207
 21
74.0819357852
  0
LINE
  5
275
100
AcDbEntity
  8
0
100
AcDbLine
 62
7
  6
CONTINUOUS
 10
76.1272752864
 20
74.8317850268
 11
75.1269883717
 21
75.5820649913
  0
LINE
  5
276
100
AcDbEntity
  8
0
100
AcDbLine
 62
7
  6
CONTINUOUS
 10
76.1275490602
 20
76.3321626936
 11
75.1278869498
 21
77.0819516772
  0
LINE
  5
277
100
AcDbEntity
  8
0
100
AcDbLine
 62
7
  6
CONTINUOUS
 10
76.1280273892
 20
71.8268499023
 11
76.1278292041
 21
71.831579752
  0
LINE
  5
278
100
AcDbEntity
  8
0
100
AcDbLine
 62
7
  6
CONTINUOUS
 10
76.1273860343
 20
70.3322860732
 11
76.1275746449
 21
70.3272576068
  0
LINE
  5
279
100
AcDbEntity
  8
0
100
AcDbLine
 62
7
  6
CONTINUOUS
 10
76.1279129886
 20
74.8322632812
 11
76.1280939024
 21
74.8272646599
  0
LINE
  5
27A
100
AcDbEntity
  8
0
100
AcDbLine
 62
7
  6
CONTINUOUS
 10
76.1283992012
 20
61.3268076405
 11
76.1283086882
 21
61.3315929413
  0
LINE
  5
27B
100
AcDbEntity
  8
0
100
AcDbLine
 62
7
  6
CONTINUOUS
 10
76.1282560352
 20
62.8321868791
 11
76.1283107528
 21
62.8272968574
  0
LINE
  5
27C
100
AcDbEntity
  8
0
100
AcDbLine
 62
7
  6
CONTINUOUS
 10
76.1272251851
 20
65.8322396706
 11
76.1272739585
 21
65.8273014901
  0
LINE
  5
27D
100
AcDbEntity
  8
0
100
AcDbLine
 62
7
  6
CONTINUOUS
 10
76.1282674522
 20
67.3322739873
 11
76.1283087426
 21
67.3273892136
  0
LINE
  5
27E
100
AcDbEntity
  8
0
100
AcDbLine
 62
7
  6
CONTINUOUS
 10
76.1283802429
 20
64.332205212
 11
76.12840407
 21
64.3273511576
  0
LINE
  5
27F
100
AcDbEntity
  8
0
100
AcDbLine
 62
7
  6
CONTINUOUS
 10
76.3523831282
 20
54.204491057
 11
76.3523831282
 21
48.204491057
  0
LINE
  5
280
100
AcDbEntity
  8
0
100
AcDbLine
 62
7
  6
CONTINUOUS
 10
76.1280772027
 20
73.3266982266
 11
76.1280899777
 21
73.3315780275
  0
LINE
  5
281
100
AcDbEntity
  8
0
100
AcDbLine
 62
7
  6
CONTINUOUS
 10
76.1272432572
 20
59.8267087022
 11
76.1273794704
 21
59.8317068821
  0
LINE
  5
282
100
AcDbEntity
  8
0
100
AcDbLine
 62
7
  6
CONTINUOUS
 10
76.1275278107
 20
76.332146757
 11
76.1273786239
 21
76.3273620076
  0
LINE
  5
283
100
AcDbEntity
  8
0
100
AcDbLine
 62
7
  6
CONTINUOUS
 10
76.1282562339
 20
68.8321489047
 11
76.1280915875
 21
68.8274053395
  0
LINE
  5
284
100
AcDbEntity
  8
0
100
AcDbLine
 62
7
  6
CONTINUOUS
 10
76.1269486427
 20
79.3322755034
 11
76.126569583
 21
79.3276681439
  0
LINE
  5
285
100
AcDbEntity
  8
0
100
AcDbLine
 62
7
  6
CONTINUOUS
 10
76.1267267622
 20
79.3321090939
 11
75.1277446227
 21
80.0814044136
  0
LINE
  5
286
100
AcDbEntity
  8
0
100
AcDbLine
 62
7
  6
CONTINUOUS
 10
76.1265113066
 20
77.831477719
 11
75.1255708701
 21
78.5822828183
  0
LINE
  5
287
100
AcDbEntity
  8
0
100
AcDbLine
 62
7
  6
CONTINUOUS
 10
76.1278419994
 20
77.8324756887
 11
76.1283105239
 21
77.8272966857
  0
LINE
  5
288
100
AcDbEntity
  8
0
100
AcDbLine
 62
7
  6
CONTINUOUS
 10
80.1257691768
 20
54.204491057
 11
80.1257691768
 21
48.204491057
  0
LINE
  5
289
100
AcDbEntity
  8
0
100
AcDbLine
 62
7
  6
CONTINUOUS
 10
80.4796456352
 20
55.704491057
 11
80.4796456352
 21
54.204491057
  0
ARC
  5
28A
100
AcDbEntity
  8
0
100
AcDbCircle
 62
7
  6
CONTINUOUS
 10
12.3296456352
 20
57.204491057
 40
1.5
100
AcDbArc
 50
90.0
 51
270.0
  0
ARC
  5
28B
100
AcDbEntity
  8
0
100
AcDbCircle
 62
7
  6
CONTINUOUS
 10
77.6296456352
 20
57.204491057
 40
1.5
100
AcDbArc
 50
270.0
 51
90.0
  0
SPLINE
  5
28C
100
AcDbEntity
  8
0
100
AcDbSpline
 62
7
  6
CONTINUOUS
 70
0
 71
3
 72
15
 73
11
 74
0
 42
0.0000001
 43
0.0000001
 44
0.0000000001
 40
0.0
 40
0.0
 40
0.0
 40
0.0
 40
0.1249090248
 40
0.2499168193
 40
0.374847594
 40
0.499826694
 40
0.624837636
 40
0.7498488959
 40
0.8749610751
 40
1.0
 40
1.0
 40
1.0
 40
1.0
 10
11.3612131026
 20
46.704491057
 30
0.0
 10
11.2623619995
 20
46.704491057
 30
0.0
 10
11.0640710379
 20
46.723502957
 30
0.0
 10
10.7778476094
 20
46.8078346868
 30
0.0
 10
10.5129105767
 20
46.9455171673
 30
0.0
 10
10.2794468536
 20
47.1316671295
 30
0.0
 10
10.0867573131
 20
47.3599024803
 30
0.0
 10
9.9426750207
 20
47.6217523633
 30
0.0
 10
9.8536692895
 20
47.9070013198
 30
0.0
 10
9.8335220937
 20
48.105537153
 30
0.0
 10
9.8335220937
 20
48.204491057
 30
0.0
  0
SPLINE
  5
28D
100
AcDbEntity
  8
0
100
AcDbSpline
 62
7
  6
CONTINUOUS
 70
0
 71
3
 72
15
 73
11
 74
0
 42
0.0000001
 43
0.0000001
 44
0.0000000001
 40
0.0
 40
0.0
 40
0.0
 40
0.0
 40
0.1249092928
 40
0.2499172216
 40
0.3748478117
 40
0.4998267622
 40
0.624837658
 40
0.7498488818
 40
0.8749610623
 40
1.0
 40
1.0
 40
1.0
 40
1.0
 10
78.5980781679
 20
46.704491057
 30
0.0
 10
78.6969294886
 20
46.704491057
 30
0.0
 10
78.8952207664
 20
46.7235029484
 30
0.0
 10
79.1814444977
 20
46.8078343619
 30
0.0
 10
79.4463813494
 20
46.9455169604
 30
0.0
 10
79.679844567
 20
47.1316670966
 30
0.0
 10
79.8725337648
 20
47.3599024993
 30
0.0
 10
80.0166159276
 20
47.6217523895
 30
0.0
 10
80.1056217192
 20
47.9070012989
 30
0.0
 10
80.1257691768
 20
48.1055371373
 30
0.0
 10
80.1257691768
 20
48.204491057
 30
0.0
  0
SPLINE
  5
28E
100
AcDbEntity
  8
0
100
AcDbSpline
 62
7
  6
CONTINUOUS
 70
0
 71
3
 72
14
 73
10
 74
0
 42
0.0000001
 43
0.0000001
 44
0.0000000001
 40
0.0
 40
0.0
 40
0.0
 40
0.0
 40
0.1139303056
 40
0.2298202763
 40
0.3488745251
 40
0.4720365461
 40
0.5995042207
 40
0.730829257
 40
1.0
 40
1.0
 40
1.0
 40
1.0
 10
69.1918925631
 20
46.704491057
 30
0.0
 10
69.2747744477
 20
46.704491057
 30
0.0
 10
69.4425567909
 20
46.7238890793
 30
0.0
 10
69.6836434577
 20
46.8093475343
 30
0.0
 10
69.9063499481
 20
46.9482722905
 30
0.0
 10
70.1020925923
 20
47.1352406183
 30
0.0
 10
70.2632765114
 20
47.3637158614
 30
0.0
 10
70.424744975
 20
47.7138492915
 30
0.0
 10
70.4745306053
 20
48.0086750418
 30
0.0
 10
70.4745306053
 20
48.204491057
 30
0.0
  0
SPLINE
  5
28F
100
AcDbEntity
  8
0
100
AcDbSpline
 62
7
  6
CONTINUOUS
 70
0
 71
3
 72
34
 73
30
 74
0
 42
0.0000001
 43
0.0000001
 44
0.0000000001
 40
0.0
 40
0.0
 40
0.0
 40
0.0
 40
0.193789426
 40
0.2883674042
 40
0.3802178745
 40
0.468459158
 40
0.5522384271
 40
0.630765588
 40
0.7033261611
 40
0.769189854
 40
0.8277234201
 40
0.8540845124
 40
0.8784233649
 40
0.9006748008
 40
0.9207790349
 40
0.9386910931
 40
0.9543686286
 40
0.9677759517
 40
0.9788896545
 40
0.9835795709
 40
0.9876879186
 40
0.9912119411
 40
0.9941489396
 40
0.9964964336
 40
0.998252459
 40
0.9989084934
 40
0.9994168809
 40
0.9997790305
 40
1.0
 40
1.0
 40
1.0
 40
1.0
 10
44.9796497337
 20
72.9542139156
 30
0.0
 10
46.9919775027
 20
72.969544665
 30
0.0
 10
49.9864099864
 20
72.9926183763
 30
0.0
 10
53.9346206182
 20
73.0237089533
 30
0.0
 10
56.7868059196
 20
73.046870398
 30
0.0
 10
59.5268494535
 20
73.0700165048
 30
0.0
 10
62.1285334501
 20
73.0931476794
 30
0.0
 10
64.5673760638
 20
73.1162647663
 30
0.0
 10
66.8201677594
 20
73.1393392796
 30
0.0
 10
68.8653265267
 20
73.1623806794
 30
0.0
 10
70.4307366849
 20
73.1821717846
 30
0.0
 10
71.5649477761
 20
73.1981937659
 30
0.0
 10
72.3224154571
 20
73.2097771832
 30
0.0
 10
73.0149013988
 20
73.2213490273
 30
0.0
 10
73.640638984
 20
73.232910366
 30
0.0
 10
74.1980980454
 20
73.24445125
 30
0.0
 10
74.6859979679
 20
73.2559592307
 30
0.0
 10
75.1032791054
 20
73.2674317965
 30
0.0
 10
75.4064560797
 20
73.2774050429
 30
0.0
 10
75.6130689792
 20
73.2855749242
 30
0.0
 10
75.7408999629
 20
73.2913361717
 30
0.0
 10
75.8505062096
 20
73.2970793434
 30
0.0
 10
75.941805033
 20
73.3027794035
 30
0.0
 10
76.0146920459
 20
73.308445801
 30
0.0
 10
76.0638935369
 20
73.313399547
 30
0.0
 10
76.0939136549
 20
73.3176139529
 30
0.0
 10
76.1095573901
 20
73.3204009691
 30
0.0
 10
76.1204928195
 20
73.323165859
 30
0.0
 10
76.1262863728
 20
73.3253270359
 30
0.0
 10
76.1281274914
 20
73.3266965725
 30
0.0
  0
SPLINE
  5
290
100
AcDbEntity
  8
0
100
AcDbSpline
 62
7
  6
CONTINUOUS
 70
0
 71
3
 72
34
 73
30
 74
0
 42
0.0000001
 43
0.0000001
 44
0.0000000001
 40
0.0
 40
0.0
 40
0.0
 40
0.0
 40
0.000220243
 40
0.0005814993
 40
0.0010883642
 40
0.0017421595
 40
0.0034918201
 40
0.0058308718
 40
0.0087578734
 40
0.0122708651
 40
0.0163676678
 40
0.0210459932
 40
0.0321377656
 40
0.0455270622
 40
0.0611943923
 40
0.0791089188
 40
0.0992166638
 40
0.1214607684
 40
0.1457843474
 40
0.1721304982
 40
0.2306627645
 40
0.2965441025
 40
0.3691009743
 40
0.4476324402
 40
0.5314304468
 40
0.6196947737
 40
0.7115607399
 40
0.8061622983
 40
1.0
 40
1.0
 40
1.0
 40
1.0
 10
76.12840407
 20
64.3273511576
 30
0.0
 10
76.1265743844
 20
64.325978885
 30
0.0
 10
76.1207960356
 20
64.3238185402
 30
0.0
 10
76.1098958679
 20
64.3210530141
 30
0.0
 10
76.0943006223
 20
64.3182647189
 30
0.0
 10
76.0643869773
 20
64.314048653
 30
0.0
 10
76.0153628155
 20
64.3090930458
 30
0.0
 10
75.9427336732
 20
64.3034251854
 30
0.0
 10
75.8517406151
 20
64.2977240077
 30
0.0
 10
75.7424721015
 20
64.2919797928
 30
0.0
 10
75.6149951068
 20
64.286217333
 30
0.0
 10
75.4088487338
 20
64.2780438226
 30
0.0
 10
75.1062045767
 20
64.2680661401
 30
0.0
 10
74.6894406734
 20
64.2565893718
 30
0.0
 10
74.2018037912
 20
64.2450776433
 30
0.0
 10
73.6443832469
 20
64.2335397348
 30
0.0
 10
73.018653735
 20
64.2219791269
 30
0.0
 10
72.3263595875
 20
64.2104024109
 30
0.0
 10
71.5692747226
 20
64.1988132205
 30
0.0
 10
70.4353802676
 20
64.1827808416
 30
0.0
 10
68.8699406333
 20
64.1629874763
 30
0.0
 10
66.8246310465
 20
64.1399487501
 30
0.0
 10
64.5716285115
 20
64.1168610157
 30
0.0
 10
62.132561873
 20
64.0937366699
 30
0.0
 10
59.530374537
 20
64.0706006323
 30
0.0
 10
56.7897101035
 20
64.0474525782
 30
0.0
 10
53.9368525522
 20
64.0242888417
 30
0.0
 10
49.9876976078
 20
63.9931425324
 30
0.0
 10
46.9924894161
 20
63.9701957336
 30
0.0
 10
44.9796418706
 20
63.9547698277
 30
0.0
  0
SPLINE
  5
291
100
AcDbEntity
  8
0
100
AcDbSpline
 62
7
  6
CONTINUOUS
 70
0
 71
3
 72
34
 73
30
 74
0
 42
0.0000001
 43
0.0000001
 44
0.0000000001
 40
0.0
 40
0.0
 40
0.0
 40
0.0
 40
0.0002209698
 40
0.0005818253
 40
0.001087399
 40
0.0017393216
 40
0.0034847699
 40
0.00582113
 40
0.0087495327
 40
0.0122702635
 40
0.0163805478
 40
0.0210760388
 40
0.0322049034
 40
0.0456212721
 40
0.0612931394
 40
0.0791929267
 40
0.0992924541
 40
0.1215453634
 40
0.1458871949
 40
0.1722527326
 40
0.2307976033
 40
0.2966553349
 40
0.3692075587
 40
0.4477538191
 40
0.5315305394
 40
0.6197660094
 40
0.7116259972
 40
0.8062079523
 40
1.0
 40
1.0
 40
1.0
 40
1.0
 10
76.1275156538
 20
70.3272576065
 30
0.0
 10
76.1256718274
 20
70.3258917865
 30
0.0
 10
76.1198962804
 20
70.3237290237
 30
0.0
 10
76.1090033413
 20
70.3209631132
 30
0.0
 10
76.093448148
 20
70.3181732666
 30
0.0
 10
76.0636118431
 20
70.313956826
 30
0.0
 10
76.0146814114
 20
70.3089995281
 30
0.0
 10
75.9421113334
 20
70.3033319696
 30
0.0
 10
75.8510538041
 20
70.2976315869
 30
0.0
 10
75.7415529667
 20
70.2918908191
 30
0.0
 10
75.6136804707
 20
70.2861317926
 30
0.0
 10
75.4068358468
 20
70.2779632932
 30
0.0
 10
75.1033551119
 20
70.2679946948
 30
0.0
 10
74.6858893722
 20
70.256523288
 30
0.0
 10
74.1980912864
 20
70.2450109261
 30
0.0
 10
73.6408781887
 20
70.2334660472
 30
0.0
 10
73.0153135772
 20
70.2219064789
 30
0.0
 10
72.3228435298
 20
70.2103351076
 30
0.0
 10
71.5652979653
 20
70.1987504127
 30
0.0
 10
70.4309140967
 20
70.1827276479
 30
0.0
 10
68.8654321816
 20
70.162942548
 30
0.0
 10
66.8203438466
 20
70.1398965929
 30
0.0
 10
64.567545629
 20
70.1168142831
 30
0.0
 10
62.1286644564
 20
70.0937059731
 30
0.0
 10
59.5269187513
 20
70.0705771692
 30
0.0
 10
56.7869157814
 20
70.0474199895
 30
0.0
 10
53.9347054863
 20
70.024236697
 30
0.0
 10
49.9864017292
 20
69.9933228308
 30
0.0
 10
46.9919618165
 20
69.9697517743
 30
0.0
 10
44.9796427328
 20
69.9547684503
 30
0.0
  0
SPLINE
  5
292
100
AcDbEntity
  8
0
100
AcDbSpline
 62
7
  6
CONTINUOUS
 70
0
 71
3
 72
12
 73
8
 74
0
 42
0.0000001
 43
0.0000001
 44
0.0000000001
 40
0.0
 40
0.0
 40
0.0
 40
0.0
 40
0.0837941045
 40
0.1833580223
 40
0.422642188
 40
0.7010524781
 40
1.0
 40
1.0
 40
1.0
 40
1.0
 10
71.9551045216
 20
80.7018167494
 30
0.0
 10
71.2016986842
 20
80.6902569424
 30
0.0
 10
69.553052782
 20
80.6679310944
 30
0.0
 10
65.7528123189
 20
80.6243607245
 30
0.0
 10
60.2025320567
 20
80.5723553844
 30
0.0
 10
52.8593597539
 20
80.5121368292
 30
0.0
 10
47.6677865057
 20
80.4724109189
 30
0.0
 10
44.9796653481
 20
80.45181239
 30
0.0
  0
SPLINE
  5
293
100
AcDbEntity
  8
0
100
AcDbSpline
 62
7
  6
CONTINUOUS
 70
0
 71
3
 72
34
 73
30
 74
0
 42
0.0000001
 43
0.0000001
 44
0.0000000001
 40
0.0
 40
0.0
 40
0.0
 40
0.0
 40
0.1938563012
 40
0.2884824323
 40
0.3803745195
 40
0.4686366522
 40
0.5524327113
 40
0.6309968984
 40
0.7035674596
 40
0.7694145211
 40
0.8279566328
 40
0.8543201436
 40
0.8786556024
 40
0.900895758
 40
0.9209780227
 40
0.9388633843
 40
0.9545203163
 40
0.9679173629
 40
0.9790231952
 40
0.9837071949
 40
0.9878067844
 40
0.9913181898
 40
0.9942377506
 40
0.9965626086
 40
0.9982936536
 40
0.9989375781
 40
0.9994348015
 40
0.9997871569
 40
1.0
 40
1.0
 40
1.0
 40
1.0
 10
44.9796425656
 20
66.9547691975
 30
0.0
 10
42.966640258
 20
66.9393418266
 30
0.0
 10
39.9710409053
 20
66.9163871135
 30
0.0
 10
36.021241685
 20
66.8852388473
 30
0.0
 10
33.1679348643
 20
66.8620763917
 30
0.0
 10
30.4270944961
 20
66.8389209685
 30
0.0
 10
27.8246600744
 20
66.8157748304
 30
0.0
 10
25.3851781607
 20
66.7926550421
 30
0.0
 10
23.1320925055
 20
66.7695727724
 30
0.0
 10
21.0869337348
 20
66.7465101787
 30
0.0
 10
19.521597383
 20
66.7267179395
 30
0.0
 10
18.3873185849
 20
66.7106892133
 30
0.0
 10
17.6299854833
 20
66.6991009226
 30
0.0
 10
16.9378867734
 20
66.6875256041
 30
0.0
 10
16.3127778534
 20
66.6759591826
 30
0.0
 10
15.7560437293
 20
66.664410965
 30
0.0
 10
15.2687466927
 20
66.6528957837
 30
0.0
 10
14.8518721843
 20
66.6414203465
 30
0.0
 10
14.5489481475
 20
66.6314455305
 30
0.0
 10
14.3425716778
 20
66.6232721441
 30
0.0
 10
14.215025559
 20
66.6175105083
 30
0.0
 10
14.1058240766
 20
66.6117677332
 30
0.0
 10
14.0150736717
 20
66.6060702714
 30
0.0
 10
13.9428659393
 20
66.6004033966
 30
0.0
 10
13.8942860565
 20
66.5954462039
 30
0.0
 10
13.8647759242
 20
66.5912238298
 30
0.0
 10
13.8494761131
 20
66.5884368774
 30
0.0
 10
13.8388613242
 20
66.5856749059
 30
0.0
 10
13.8332515905
 20
66.5835098158
 30
0.0
 10
13.8315245146
 20
66.5821305745
 30
0.0
  0
SPLINE
  5
294
100
AcDbEntity
  8
0
100
AcDbSpline
 62
7
  6
CONTINUOUS
 70
0
 71
3
 72
61
 73
57
 74
0
 42
0.0000001
 43
0.0000001
 44
0.0000000001
 40
0.0
 40
0.0
 40
0.0
 40
0.0
 40
0.000112303
 40
0.0002944117
 40
0.000548879
 40
0.0008766116
 40
0.0017534298
 40
0.0029268506
 40
0.0043972799
 40
0.0061632668
 40
0.0082229904
 40
0.0105745706
 40
0.0161456243
 40
0.022860951
 40
0.0307049167
 40
0.0396618203
 40
0.0497159224
 40
0.0608475831
 40
0.0730254352
 40
0.0862158998
 40
0.1155003171
 40
0.1484321047
 40
0.1847205402
 40
0.2240008609
 40
0.2658927013
 40
0.3100136236
 40
0.3559458855
 40
0.4032421005
 40
0.5001297212
 40
0.5970202412
 40
0.6443066326
 40
0.6902219212
 40
0.7343377058
 40
0.7762260365
 40
0.815477791
 40
0.8517403809
 40
0.8846717992
 40
0.9139347103
 40
0.9271031421
 40
0.9392596751
 40
0.9503772235
 40
0.9604287106
 40
0.9693870735
 40
0.9772253111
 40
0.9839221487
 40
0.9894679876
 40
0.991806767
 40
0.9938548022
 40
0.9956111441
 40
0.9970749014
 40
0.9982452989
 40
0.9991218349
 40
0.9994499775
 40
0.9997049672
 40
0.9998875191
 40
1.0
 40
1.0
 40
1.0
 40
1.0
 10
14.8317562447
 20
65.8323514627
 30
0.0
 10
14.8335622124
 20
65.8337060428
 30
0.0
 10
14.839198662
 20
65.8358757293
 30
0.0
 10
14.8498290551
 20
65.8386410014
 30
0.0
 10
14.8649726487
 20
65.8414342369
 30
0.0
 10
14.8939864932
 20
65.8456491465
 30
0.0
 10
14.9415553615
 20
65.8506082038
 30
0.0
 10
15.0120969079
 20
65.8562744129
 30
0.0
 10
15.1005659034
 20
65.8619717399
 30
0.0
 10
15.2068745416
 20
65.8677128807
 30
0.0
 10
15.3309184475
 20
65.8734727276
 30
0.0
 10
15.5314187975
 20
65.8816406927
 30
0.0
 10
15.8255061376
 20
65.8916109442
 30
0.0
 10
16.2300061158
 20
65.9030824025
 30
0.0
 10
16.7025911289
 20
65.91459327
 30
0.0
 10
17.242308669
 20
65.9261368721
 30
0.0
 10
17.8481286763
 20
65.9376984323
 30
0.0
 10
18.51870676
 20
65.949268861
 30
0.0
 10
19.2523405101
 20
65.9608522457
 30
0.0
 10
20.3508568008
 20
65.9768729496
 30
0.0
 10
21.8665584292
 20
65.9966560534
 30
0.0
 10
23.8465714904
 20
66.0197088597
 30
0.0
 10
26.027534926
 20
66.0427812836
 30
0.0
 10
28.3886227365
 20
66.0658911819
 30
0.0
 10
30.9071664906
 20
66.0890273193
 30
0.0
 10
33.559433238
 20
66.1121725985
 30
0.0
 10
36.3203429647
 20
66.1353250783
 30
0.0
 10
40.1419426211
 20
66.1664585452
 30
0.0
 10
44.987883491
 20
66.2048270132
 30
0.0
 10
49.8336269451
 20
66.2431873554
 30
0.0
 10
53.6547461785
 20
66.2743229989
 30
0.0
 10
56.4150138831
 20
66.2974812998
 30
0.0
 10
59.0667655987
 20
66.3206243712
 30
0.0
 10
61.584561344
 20
66.3437505509
 30
0.0
 10
63.9444846847
 20
66.366868485
 30
0.0
 10
66.1243467189
 20
66.3899523992
 30
0.0
 10
68.1034006422
 20
66.4129857181
 30
0.0
 10
69.618219582
 20
66.4327677703
 30
0.0
 10
70.7154318176
 20
66.4487977319
 30
0.0
 10
71.4479102274
 20
66.4603841197
 30
0.0
 10
72.1177233151
 20
66.4719583528
 30
0.0
 10
72.7232364062
 20
66.4835165236
 30
0.0
 10
73.262815696
 20
66.495052579
 30
0.0
 10
73.7349433003
 20
66.5065559325
 30
0.0
 10
74.1384491819
 20
66.5180291117
 30
0.0
 10
74.4313998632
 20
66.5280051112
 30
0.0
 10
74.6309000804
 20
66.5361769847
 30
0.0
 10
74.7542570169
 20
66.5419381076
 30
0.0
 10
74.8600017795
 20
66.5476810136
 30
0.0
 10
74.9480809404
 20
66.5533816369
 30
0.0
 10
75.0184211598
 20
66.559048553
 30
0.0
 10
75.0659316739
 20
66.5640052794
 30
0.0
 10
75.0949588834
 20
66.5682175074
 30
0.0
 10
75.1101310949
 20
66.5710098452
 30
0.0
 10
75.120784399
 20
66.5737747785
 30
0.0
 10
75.1264361638
 20
66.5759423095
 30
0.0
 10
75.1282450177
 20
66.5772990034
 30
0.0
  0
SPLINE
  5
295
100
AcDbEntity
  8
0
100
AcDbSpline
 62
7
  6
CONTINUOUS
 70
0
 71
3
 72
34
 73
30
 74
0
 42
0.0000001
 43
0.0000001
 44
0.0000000001
 40
0.0
 40
0.0
 40
0.0
 40
0.0
 40
0.1938606836
 40
0.2884787409
 40
0.3803462759
 40
0.4686120589
 40
0.552429267
 40
0.6309679677
 40
0.703512526
 40
0.7693947303
 40
0.8279482228
 40
0.8542900021
 40
0.8786023205
 40
0.900833661
 40
0.9209325233
 40
0.9388474329
 40
0.9545269573
 40
0.967921898
 40
0.9790055198
 40
0.9836764196
 40
0.9877645696
 40
0.9912684366
 40
0.9941865971
 40
0.9965178477
 40
0.9982615039
 40
0.9989132077
 40
0.9994187129
 40
0.9997794296
 40
1.0
 40
1.0
 40
1.0
 40
1.0
 10
44.9796435545
 20
68.4547681261
 30
0.0
 10
42.966579012
 20
68.4393398257
 30
0.0
 10
39.9709930562
 20
68.4163899227
 30
0.0
 10
36.0214542837
 20
68.3852443257
 30
0.0
 10
33.1684246936
 20
68.3620763273
 30
0.0
 10
30.4275589643
 20
68.3389226162
 30
0.0
 10
27.8251099315
 20
68.3157891165
 30
0.0
 10
25.3859228606
 20
68.2926642776
 30
0.0
 10
23.1329883721
 20
68.2695690298
 30
0.0
 10
21.0875993113
 20
68.2465234815
 30
0.0
 10
19.5219923489
 20
68.2267399114
 30
0.0
 10
18.3880520641
 20
68.2107020641
 30
0.0
 10
17.6312702843
 20
68.1991107344
 30
0.0
 10
16.9393253981
 20
68.1875313773
 30
0.0
 10
16.3138235145
 20
68.175968072
 30
0.0
 10
15.7563706865
 20
68.1644260217
 30
0.0
 10
15.2685496466
 20
68.1529202285
 30
0.0
 10
14.851689468
 20
68.1414473505
 30
0.0
 10
14.5491518495
 20
68.1314659804
 30
0.0
 10
14.3432596223
 20
68.1232890318
 30
0.0
 10
14.2160460175
 20
68.117525868
 30
0.0
 10
14.1070554838
 20
68.1117809257
 30
0.0
 10
14.0163316193
 20
68.1060788239
 30
0.0
 10
13.9439390117
 20
68.1004100214
 30
0.0
 10
13.8950818495
 20
68.0954527923
 30
0.0
 10
13.8652671428
 20
68.0912364248
 30
0.0
 10
13.8497155316
 20
68.0884465303
 30
0.0
 10
13.838830331
 20
68.0856802576
 30
0.0
 10
13.8330583658
 20
68.0835180015
 30
0.0
 10
13.8312215959
 20
68.0821495687
 30
0.0
  0
SPLINE
  5
296
100
AcDbEntity
  8
0
100
AcDbSpline
 62
7
  6
CONTINUOUS
 70
0
 71
3
 72
34
 73
30
 74
0
 42
0.0000001
 43
0.0000001
 44
0.0000000001
 40
0.0
 40
0.0
 40
0.0
 40
0.0
 40
0.0002194051
 40
0.000578245
 40
0.0010814273
 40
0.0017306102
 40
0.0034696
 40
0.0057982854
 40
0.0087178928
 40
0.0122291261
 40
0.0163317007
 40
0.0210219773
 40
0.0321473438
 40
0.0455684017
 40
0.0612480234
 40
0.0791489537
 40
0.099233869
 40
0.1214654057
 40
0.145800195
 40
0.1721717376
 40
0.2307366891
 40
0.296583417
 40
0.3691301525
 40
0.4476917517
 40
0.5314839648
 40
0.6197185336
 40
0.7115854103
 40
0.8061940818
 40
1.0
 40
1.0
 40
1.0
 40
1.0
 10
76.1272739585
 20
65.8273014901
 30
0.0
 10
76.125451356
 20
65.8259344119
 30
0.0
 10
76.1197134038
 20
65.8237706877
 30
0.0
 10
76.1088857483
 20
65.8210053089
 30
0.0
 10
76.0934053085
 20
65.8182155543
 30
0.0
 10
76.0636912405
 20
65.8139982998
 30
0.0
 10
76.0149369259
 20
65.8090408388
 30
0.0
 10
75.9426063551
 20
65.8033730868
 30
0.0
 10
75.8518196355
 20
65.797672249
 30
0.0
 10
75.7425901321
 20
65.7919290122
 30
0.0
 10
75.6149516342
 20
65.7861697238
 30
0.0
 10
75.4082793084
 20
65.7779984297
 30
0.0
 10
75.104842629
 20
65.768028427
 30
0.0
 10
74.6872870124
 20
65.7565581272
 30
0.0
 10
74.1993513595
 20
65.7450474796
 30
0.0
 10
73.6422017159
 20
65.7335034561
 30
0.0
 10
73.0170036712
 20
65.7219391688
 30
0.0
 10
72.3249856976
 20
65.7103610403
 30
0.0
 10
71.5676784392
 20
65.6987769661
 30
0.0
 10
70.4331051687
 20
65.682753805
 30
0.0
 10
68.8674781167
 20
65.6629731225
 30
0.0
 10
66.8223677218
 20
65.6399157538
 30
0.0
 10
64.5695981036
 20
65.6168312006
 30
0.0
 10
62.1304717289
 20
65.5937230433
 30
0.0
 10
59.5284344596
 20
65.570586451
 30
0.0
 10
56.7882285841
 20
65.5474330148
 30
0.0
 10
53.9356994988
 20
65.5242767419
 30
0.0
 10
49.9869335515
 20
65.4931401136
 30
0.0
 10
46.992089523
 20
65.4701908025
 30
0.0
 10
44.9796445635
 20
65.4547669599
 30
0.0
  0
SPLINE
  5
297
100
AcDbEntity
  8
0
100
AcDbSpline
 62
7
  6
CONTINUOUS
 70
0
 71
3
 72
35
 73
31
 74
0
 42
0.0000001
 43
0.0000001
 44
0.0000000001
 40
0.0
 40
0.0
 40
0.0
 40
0.0
 40
0.0002183346
 40
0.0005772019
 40
0.0010813038
 40
0.0017320075
 40
0.0034746234
 40
0.0058056633
 40
0.00872389
 40
0.0122275506
 40
0.0163149584
 40
0.0209847138
 40
0.032065489
 40
0.0454579591
 40
0.0611364165
 40
0.0790501766
 40
0.0991458585
 40
0.1213726273
 40
0.1456834172
 40
0.1720310601
 40
0.2305866151
 40
0.2964604931
 40
0.3690095916
 40
0.4475529069
 40
0.5313695351
 40
0.619639098
 40
0.7115094144
 40
0.8061303808
 40
0.9026204989
 40
1.0
 40
1.0
 40
1.0
 40
1.0
 10
76.1281208503
 20
68.827405323
 30
0.0
 10
76.1263174039
 20
68.8260312357
 30
0.0
 10
76.1205837871
 20
68.8238697168
 30
0.0
 10
76.1097610921
 20
68.821104824
 30
0.0
 10
76.0942518948
 20
68.818316654
 30
0.0
 10
76.0644744558
 20
68.8140993805
 30
0.0
 10
76.0156396643
 20
68.8091434739
 30
0.0
 10
75.9432595917
 20
68.8034753211
 30
0.0
 10
75.8525389938
 20
68.79777382
 30
0.0
 10
75.7435574641
 20
68.7920287986
 30
0.0
 10
75.6163653463
 20
68.7862652136
 30
0.0
 10
75.4105218978
 20
68.778087677
 30
0.0
 10
75.1080508018
 20
68.7681050734
 30
0.0
 10
74.6912560825
 20
68.7566310242
 30
0.0
 10
74.2034826835
 20
68.7451251749
 30
0.0
 10
73.6460847191
 20
68.7335830756
 30
0.0
 10
73.0206739588
 20
68.7220192293
 30
0.0
 10
72.3288239953
 20
68.7104388268
 30
0.0
 10
71.5720430684
 20
68.6988463458
 30
0.0
 10
70.4380338629
 20
68.6828120766
 30
0.0
 10
68.8724277536
 20
68.6630250242
 30
0.0
 10
66.8270522629
 20
68.6399746524
 30
0.0
 10
64.5741043047
 20
68.6168832956
 30
0.0
 10
62.1348229712
 20
68.5937577425
 30
0.0
 10
59.5322873091
 20
68.5706133125
 30
0.0
 10
56.7913534909
 20
68.5474712352
 30
0.0
 10
53.938219272
 20
68.5243260725
 30
0.0
 10
50.9997180185
 20
68.5010190824
 30
0.0
 10
48.0040026625
 20
68.4780686984
 30
0.0
 10
45.9908401673
 20
68.4627473407
 30
0.0
 10
44.9796434075
 20
68.4547683189
 30
0.0
  0
SPLINE
  5
298
100
AcDbEntity
  8
0
100
AcDbSpline
 62
7
  6
CONTINUOUS
 70
0
 71
3
 72
34
 73
30
 74
0
 42
0.0000001
 43
0.0000001
 44
0.0000000001
 40
0.0
 40
0.0
 40
0.0
 40
0.0
 40
0.1937933456
 40
0.288385325
 40
0.3802243083
 40
0.4684617436
 40
0.5522620201
 40
0.6307948776
 40
0.7033253768
 40
0.7692007609
 40
0.8277710218
 40
0.8541214915
 40
0.8784388086
 40
0.9006742602
 40
0.9207791498
 40
0.9387048064
 40
0.9544026004
 40
0.9678239961
 40
0.9789302407
 40
0.9836105861
 40
0.9877074448
 40
0.9912196632
 40
0.9941461959
 40
0.9964862142
 40
0.9982393984
 40
0.9988962538
 40
0.9994072081
 40
0.9997736544
 40
1.0
 40
1.0
 40
1.0
 40
1.0
 10
44.9796445558
 20
65.454767914
 30
0.0
 10
42.9673103627
 20
65.4393449209
 30
0.0
 10
39.9727407412
 20
65.4164015882
 30
0.0
 10
36.0245294924
 20
65.3852692434
 30
0.0
 10
33.172405622
 20
65.3621091364
 30
0.0
 10
30.4323489078
 20
65.3389620191
 30
0.0
 10
27.830470924
 20
65.3158361832
 30
0.0
 10
25.3917039542
 20
65.2927232489
 30
0.0
 10
23.1390817382
 20
65.2696337139
 30
0.0
 10
21.0937669514
 20
65.2465916887
 30
0.0
 10
19.5279904849
 20
65.2268198586
 30
0.0
 10
18.3937513218
 20
65.2107890581
 30
0.0
 10
17.6367963279
 20
65.1992011241
 30
0.0
 10
16.9447048744
 20
65.1876251519
 30
0.0
 10
16.3189956938
 20
65.1760648046
 30
0.0
 10
15.7611874436
 20
65.1645256662
 30
0.0
 10
15.27279774
 20
65.1530213997
 30
0.0
 10
14.8552441462
 20
65.1415578769
 30
0.0
 10
14.552103046
 20
65.1315803461
 30
0.0
 10
14.3457901238
 20
65.123405846
 30
0.0
 10
14.2183029353
 20
65.1176443011
 30
0.0
 10
14.1090494492
 20
65.1119008608
 30
0.0
 10
14.0180620481
 20
65.1061995005
 30
0.0
 10
13.9453919802
 20
65.1005314117
 30
0.0
 10
13.8962927045
 20
65.0955738096
 30
0.0
 10
13.86626481
 20
65.0913613647
 30
0.0
 10
13.8505456652
 20
65.0885691591
 30
0.0
 10
13.8394720157
 20
65.0858006172
 30
0.0
 10
13.8335857311
 20
65.0836387543
 30
0.0
 10
13.8316669807
 20
65.082281225
 30
0.0
  0
SPLINE
  5
299
100
AcDbEntity
  8
0
100
AcDbSpline
 62
7
  6
CONTINUOUS
 70
0
 71
3
 72
34
 73
30
 74
0
 42
0.0000001
 43
0.0000001
 44
0.0000000001
 40
0.0
 40
0.0
 40
0.0
 40
0.0
 40
0.0002207152
 40
0.0005823086
 40
0.0010898205
 40
0.0017447013
 40
0.0034978947
 40
0.0058423709
 40
0.0087767798
 40
0.0122992534
 40
0.0164077024
 40
0.0210995824
 40
0.032220051
 40
0.0456327666
 40
0.0613089018
 40
0.0792145921
 40
0.0993132806
 40
0.1215647782
 40
0.1459079154
 40
0.1722738778
 40
0.2308100149
 40
0.2966691055
 40
0.3692289491
 40
0.447763428
 40
0.5315403097
 40
0.6197776963
 40
0.7116325631
 40
0.8062112554
 40
1.0
 40
1.0
 40
1.0
 40
1.0
 10
13.8313683646
 20
62.0817294132
 30
0.0
 10
13.8332063595
 20
62.0830987004
 30
0.0
 10
13.8389904495
 20
62.0852608406
 30
0.0
 10
13.8499077504
 20
62.0880262552
 30
0.0
 10
13.865523913
 20
62.0908141092
 30
0.0
 10
13.8954927877
 20
62.0950294322
 30
0.0
 10
13.9446208196
 20
62.0999840318
 30
0.0
 10
14.0174194781
 20
62.1056506149
 30
0.0
 10
14.1086432972
 20
62.1113505553
 30
0.0
 10
14.2182068999
 20
62.1170934867
 30
0.0
 10
14.3460424806
 20
62.1228542627
 30
0.0
 10
14.5527458965
 20
62.1310235763
 30
0.0
 10
14.856067786
 20
62.1409946793
 30
0.0
 10
15.2734581228
 20
62.1524657938
 30
0.0
 10
15.7613303019
 20
62.1639753339
 30
0.0
 10
16.3186475864
 20
62.1755180373
 30
0.0
 10
16.9442581802
 20
62.18708049
 30
0.0
 10
17.6367273861
 20
62.1986517994
 30
0.0
 10
18.3942861007
 20
62.2102346181
 30
0.0
 10
19.5286119584
 20
62.2262553515
 30
0.0
 10
21.0940419047
 20
62.2460457536
 30
0.0
 10
23.1391593019
 20
62.2690894906
 30
0.0
 10
25.3919576516
 20
62.292165546
 30
0.0
 10
27.8308288176
 20
62.3152787715
 30
0.0
 10
30.4325074144
 20
62.3384113906
 30
0.0
 10
33.1725143533
 20
62.3615590584
 30
0.0
 10
36.0246945979
 20
62.3847191759
 30
0.0
 10
39.9729267699
 20
62.4158088062
 30
0.0
 10
42.9673410311
 20
62.4388837067
 30
0.0
 10
44.979649257
 20
62.4542143072
 30
0.0
  0
SPLINE
  5
29A
100
AcDbEntity
  8
0
100
AcDbSpline
 62
7
  6
CONTINUOUS
 70
0
 71
3
 72
34
 73
30
 74
0
 42
0.0000001
 43
0.0000001
 44
0.0000000001
 40
0.0
 40
0.0
 40
0.0
 40
0.0
 40
0.1938124994
 40
0.2884030337
 40
0.3802542919
 40
0.4685065744
 40
0.5523023266
 40
0.6308269403
 40
0.7033805072
 40
0.769256562
 40
0.8277933405
 40
0.8541457445
 40
0.8784731469
 40
0.9007179802
 40
0.9208231677
 40
0.9387382565
 40
0.9544188344
 40
0.9678219282
 40
0.9789208056
 40
0.9836015781
 40
0.9877008946
 40
0.99121706
 40
0.9941481462
 40
0.9964920025
 40
0.9982469624
 40
0.9989035174
 40
0.9994131679
 40
0.9997771801
 40
1.0
 40
1.0
 40
1.0
 40
1.0
 10
44.9796420135
 20
72.9547679247
 30
0.0
 10
42.9670618991
 20
72.9394352529
 30
0.0
 10
39.9722404504
 20
72.9163602681
 30
0.0
 10
36.0236266507
 20
72.8852656751
 30
0.0
 10
33.1711705198
 20
72.8620997063
 30
0.0
 10
30.4308160703
 20
72.8389511061
 30
0.0
 10
27.8288566297
 20
72.8158216333
 30
0.0
 10
25.3899266555
 20
72.7926984437
 30
0.0
 10
23.1370916
 20
72.7696164414
 30
0.0
 10
21.0918308562
 20
72.7465787371
 30
0.0
 10
19.5263392724
 20
72.7267866408
 30
0.0
 10
18.3922968566
 20
72.7107590881
 30
0.0
 10
17.6351021481
 20
72.6991724763
 30
0.0
 10
16.9427894488
 20
72.6875985208
 30
0.0
 10
16.3170750784
 20
72.6760382567
 30
0.0
 10
15.7595395262
 20
72.664496303
 30
0.0
 10
15.2716173317
 20
72.6529895215
 30
0.0
 10
14.8544998386
 20
72.6415182649
 30
0.0
 10
14.5516140477
 20
72.6315405042
 30
0.0
 10
14.3453428998
 20
72.623367801
 30
0.0
 10
14.2177817476
 20
72.6176059012
 30
0.0
 10
14.1084118964
 20
72.6118621883
 30
0.0
 10
14.017293745
 20
72.6061614448
 30
0.0
 10
13.9445166901
 20
72.6004939656
 30
0.0
 10
13.8953592264
 20
72.595538464
 30
0.0
 10
13.8653308279
 20
72.5913242527
 30
0.0
 10
13.849649974
 20
72.588535114
 30
0.0
 10
13.8386598931
 20
72.5857685425
 30
0.0
 10
13.8328279083
 20
72.5836087715
 30
0.0
 10
13.8309619073
 20
72.5822405574
 30
0.0
  0
SPLINE
  5
29B
100
AcDbEntity
  8
0
100
AcDbSpline
 62
7
  6
CONTINUOUS
 70
0
 71
3
 72
61
 73
57
 74
0
 42
0.0000001
 43
0.0000001
 44
0.0000000001
 40
0.0
 40
0.0
 40
0.0
 40
0.0
 40
0.0001123774
 40
0.0002947498
 40
0.000549696
 40
0.0008781461
 40
0.0017572041
 40
0.002933362
 40
0.0044055677
 40
0.0061723012
 40
0.0082319245
 40
0.0105827417
 40
0.0161510185
 40
0.0228631311
 40
0.0307049223
 40
0.0396621687
 40
0.049719855
 40
0.0608529324
 40
0.0730292427
 40
0.0862164679
 40
0.1154943583
 40
0.1484273094
 40
0.1847142204
 40
0.2239878322
 40
0.2658750139
 40
0.309995678
 40
0.3559237782
 40
0.4032146036
 40
0.5000970166
 40
0.5969814051
 40
0.6442647131
 40
0.6901807141
 40
0.7342968337
 40
0.7761811799
 40
0.815434066
 40
0.8517018356
 40
0.884634384
 40
0.9138952448
 40
0.9270668091
 40
0.939227878
 40
0.9503500311
 40
0.9604048573
 40
0.9693639596
 40
0.9772003563
 40
0.9838985939
 40
0.9894489453
 40
0.9917906779
 40
0.9938418799
 40
0.9956014141
 40
0.9970682006
 40
0.9982412755
 40
0.9991199476
 40
0.9994488957
 40
0.9997044838
 40
0.999887403
 40
1.0
 40
1.0
 40
1.0
 40
1.0
 10
14.8315076342
 20
62.8323561603
 30
0.0
 10
14.8333148143
 20
62.8337116387
 30
0.0
 10
14.8389592927
 20
62.8358808846
 30
0.0
 10
14.8496063655
 20
62.8386459944
 30
0.0
 10
14.8647801691
 20
62.8414387896
 30
0.0
 10
14.8938638075
 20
62.8456540575
 30
0.0
 10
14.9415483337
 20
62.8506109269
 30
0.0
 10
15.0122266097
 20
62.8562741758
 30
0.0
 10
15.1008019481
 20
62.8619727604
 30
0.0
 10
15.2071599219
 20
62.867714227
 30
0.0
 10
15.3312021437
 20
62.8734743362
 30
0.0
 10
15.5316303817
 20
62.8816418058
 30
0.0
 10
15.8255834702
 20
62.8916125457
 30
0.0
 10
16.229921459
 20
62.9030842913
 30
0.0
 10
16.7024076095
 20
62.9145951134
 30
0.0
 10
17.242163367
 20
62.9261383389
 30
0.0
 10
17.8480942303
 20
62.9376953552
 30
0.0
 10
18.5187455472
 20
62.9492654997
 30
0.0
 10
19.2523156851
 20
62.960848973
 30
0.0
 10
20.3506106692
 20
62.976869682
 30
0.0
 10
21.8661476501
 20
62.9966551002
 30
0.0
 10
23.8460331979
 20
63.0197013897
 30
0.0
 10
26.0268665014
 20
63.0427724559
 30
0.0
 10
28.3877081046
 20
63.0658834377
 30
0.0
 10
30.9060319883
 20
63.0890188828
 30
0.0
 10
33.5581308375
 20
63.1121600422
 30
0.0
 10
36.3188585349
 20
63.1353123461
 30
0.0
 10
40.1401824953
 20
63.1664455339
 30
0.0
 10
44.985813726
 20
63.2048100561
 30
0.0
 10
49.8312938851
 20
63.2431683941
 30
0.0
 10
53.652263193
 20
63.2743036421
 30
0.0
 10
56.4125051534
 20
63.2974595526
 30
0.0
 10
59.0642124221
 20
63.3205996677
 30
0.0
 10
61.5819713644
 20
63.3437278196
 30
0.0
 10
63.9419544612
 20
63.3668442902
 30
0.0
 10
66.1219781088
 20
63.3899242089
 30
0.0
 10
68.101128569
 20
63.4129551819
 30
0.0
 10
69.6160002503
 20
63.4327415729
 30
0.0
 10
70.7133315128
 20
63.4487681185
 30
0.0
 10
71.4460607133
 20
63.4603533759
 30
0.0
 10
72.1161284139
 20
63.4719261891
 30
0.0
 10
72.721819441
 20
63.4834829403
 30
0.0
 10
73.2614467343
 20
63.4950170447
 30
0.0
 10
73.7335828207
 20
63.5065250356
 30
0.0
 10
74.1371727922
 20
63.5179982312
 30
0.0
 10
74.43030345
 20
63.5279724196
 30
0.0
 10
74.6300187508
 20
63.5361424586
 30
0.0
 10
74.7535637812
 20
63.5419032127
 30
0.0
 10
74.8594981391
 20
63.5476457411
 30
0.0
 10
74.9477570791
 20
63.5533459282
 30
0.0
 10
75.0182558299
 20
63.5590123966
 30
0.0
 10
75.0658803214
 20
63.5639683758
 30
0.0
 10
75.0949794742
 20
63.5681802805
 30
0.0
 10
75.1101883741
 20
63.5709719654
 30
0.0
 10
75.1208636469
 20
63.5737366629
 30
0.0
 10
75.1265270377
 20
63.5759032197
 30
0.0
 10
75.1283377699
 20
63.5772613185
 30
0.0
  0
SPLINE
  5
29C
100
AcDbEntity
  8
0
100
AcDbSpline
 62
7
  6
CONTINUOUS
 70
0
 71
3
 72
34
 73
30
 74
0
 42
0.0000001
 43
0.0000001
 44
0.0000000001
 40
0.0
 40
0.0
 40
0.0
 40
0.0
 40
0.1938267185
 40
0.2884290107
 40
0.3802822016
 40
0.468535502
 40
0.5523425362
 40
0.6308737462
 40
0.7034137549
 40
0.7692947048
 40
0.8278505733
 40
0.8541949003
 40
0.8785106831
 40
0.9007464346
 40
0.9208506858
 40
0.9387719953
 40
0.9544589664
 40
0.9678623976
 40
0.9789554671
 40
0.9836314604
 40
0.9877249604
 40
0.9912344461
 40
0.9941585125
 40
0.9964959874
 40
0.9982462464
 40
0.9989014346
 40
0.9994105876
 40
0.9997751837
 40
1.0
 40
1.0
 40
1.0
 40
1.0
 10
44.9796499431
 20
67.7038922131
 30
0.0
 10
46.9276823274
 20
67.7193178814
 30
0.0
 10
49.8265038876
 20
67.7422639396
 30
0.0
 10
53.6484779239
 20
67.7734041195
 30
0.0
 10
56.4093953094
 20
67.7965681623
 30
0.0
 10
59.0618090147
 20
67.8197179334
 30
0.0
 10
61.5803224039
 20
67.8428475047
 30
0.0
 10
63.9408993164
 20
67.8659684191
 30
0.0
 10
66.121297695
 20
67.8890597986
 30
0.0
 10
68.1009182525
 20
67.9121015452
 30
0.0
 10
69.6162455046
 20
67.931881548
 30
0.0
 10
70.7138252116
 20
67.9479163601
 30
0.0
 10
71.4463879136
 20
67.9595057438
 30
0.0
 10
72.1162252016
 20
67.9710831767
 30
0.0
 10
72.721783411
 20
67.982644593
 30
0.0
 10
73.2615089358
 20
67.9941848005
 30
0.0
 10
73.7338703592
 20
68.0056888473
 30
0.0
 10
74.137580378
 20
68.0171600115
 30
0.0
 10
74.4306174853
 20
68.0271396225
 30
0.0
 10
74.630083272
 20
68.0353146319
 30
0.0
 10
74.7533622151
 20
68.0410770358
 30
0.0
 10
74.8590105906
 20
68.0468212234
 30
0.0
 10
74.9469863206
 20
68.0525231647
 30
0.0
 10
75.0172274904
 20
68.0581914143
 30
0.0
 10
75.0646631335
 20
68.0631496289
 30
0.0
 10
75.093641221
 20
68.0673629193
 30
0.0
 10
75.1087876721
 20
68.0701562515
 30
0.0
 10
75.1194255261
 20
68.0729218508
 30
0.0
 10
75.1250689991
 20
68.075090547
 30
0.0
 10
75.1268765777
 20
68.0764463768
 30
0.0
  0
SPLINE
  5
29D
100
AcDbEntity
  8
0
100
AcDbSpline
 62
7
  6
CONTINUOUS
 70
0
 71
3
 72
34
 73
30
 74
0
 42
0.0000001
 43
0.0000001
 44
0.0000000001
 40
0.0
 40
0.0
 40
0.0
 40
0.0
 40
0.000219012
 40
0.0005769258
 40
0.0010786344
 40
0.0017257817
 40
0.0034589514
 40
0.0057793753
 40
0.0086881451
 40
0.0121857727
 40
0.0162714
 40
0.0209429811
 40
0.0320353523
 40
0.0454451113
 40
0.0611400038
 40
0.0790657256
 40
0.0991661733
 40
0.1213905763
 40
0.1456948214
 40
0.1720346486
 40
0.2305825538
 40
0.2964793785
 40
0.36904378
 40
0.4475698855
 40
0.5313719772
 40
0.6196497704
 40
0.7115363147
 40
0.8061431417
 40
1.0
 40
1.0
 40
1.0
 40
1.0
 10
76.1265719922
 20
79.3276681803
 30
0.0
 10
76.1247537486
 20
79.3263021779
 30
0.0
 10
76.1190313647
 20
79.3241375157
 30
0.0
 10
76.1082335375
 20
79.3213720022
 30
0.0
 10
76.0928005422
 20
79.318581637
 30
0.0
 10
76.0631848729
 20
79.3143643924
 30
0.0
 10
76.0145999808
 20
79.3094063939
 30
0.0
 10
75.9425305792
 20
79.3037379898
 30
0.0
 10
75.852086217
 20
79.298036201
 30
0.0
 10
75.7432895615
 20
79.2922921686
 30
0.0
 10
75.6161659385
 20
79.2865299149
 30
0.0
 10
75.4102117497
 20
79.2783514488
 30
0.0
 10
75.107436513
 20
79.2683705438
 30
0.0
 10
74.6901916019
 20
79.2568994311
 30
0.0
 10
74.2019678083
 20
79.2453954183
 30
0.0
 10
73.644252993
 20
79.2338554096
 30
0.0
 10
73.0187240418
 20
79.2222928878
 30
0.0
 10
72.3269513897
 20
79.21071306
 30
0.0
 10
71.5703816499
 20
79.1991211047
 30
0.0
 10
70.4366572093
 20
79.1830859159
 30
0.0
 10
68.8710510229
 20
79.1632936294
 30
0.0
 10
66.8254589494
 20
79.1402545685
 30
0.0
 10
64.5724040515
 20
79.1171684185
 30
0.0
 10
62.1334143436
 20
79.0940374493
 30
0.0
 10
59.5312516528
 20
79.0709077501
 30
0.0
 10
56.7903507706
 20
79.0477434855
 30
0.0
 10
53.9372511366
 20
79.024541572
 30
0.0
 10
49.9878561639
 20
78.9936971622
 30
0.0
 10
46.9925749928
 20
78.9698873678
 30
0.0
 10
44.9796408982
 20
78.9550811506
 30
0.0
  0
SPLINE
  5
29E
100
AcDbEntity
  8
0
100
AcDbSpline
 62
7
  6
CONTINUOUS
 70
0
 71
3
 72
34
 73
30
 74
0
 42
0.0000001
 43
0.0000001
 44
0.0000000001
 40
0.0
 40
0.0
 40
0.0
 40
0.0
 40
0.1938164365
 40
0.2884106453
 40
0.3802599889
 40
0.4685129357
 40
0.5523128747
 40
0.6308392737
 40
0.7033874291
 40
0.7692627056
 40
0.8278100354
 40
0.8541615087
 40
0.8784826412
 40
0.900721536
 40
0.920826696
 40
0.9387473791
 40
0.9544334661
 40
0.9678368758
 40
0.9789317692
 40
0.9836098895
 40
0.9877066106
 40
0.9912205908
 40
0.9941500048
 40
0.9964926848
 40
0.9982469537
 40
0.9989033416
 40
0.9994129416
 40
0.9997770166
 40
1.0
 40
1.0
 40
1.0
 40
1.0
 10
44.9796427328
 20
69.9547684503
 30
0.0
 10
42.9670260854
 20
69.9397829108
 30
0.0
 10
39.97213972
 20
69.9162111251
 30
0.0
 10
36.0234790594
 20
69.8852942784
 30
0.0
 10
33.1710078363
 20
69.8621005612
 30
0.0
 10
30.4306324445
 20
69.8389448941
 30
0.0
 10
27.8286130258
 20
69.8158229136
 30
0.0
 10
25.3896856888
 20
69.7926980034
 30
0.0
 10
23.1369041971
 20
69.7696135771
 30
0.0
 10
21.0916052634
 20
69.7465740248
 30
0.0
 10
19.5260272129
 20
69.7267863565
 30
0.0
 10
18.3919539386
 20
69.7107576785
 30
0.0
 10
17.6348983316
 20
69.6991696057
 30
0.0
 10
16.9427151401
 20
69.6875938448
 30
0.0
 10
16.3170068065
 20
69.67603322
 30
0.0
 10
15.7593581114
 20
69.6644929252
 30
0.0
 10
15.2713189335
 20
69.6529885161
 30
0.0
 10
14.8541837519
 20
69.6415173122
 30
0.0
 10
14.5513647254
 20
69.631537858
 30
0.0
 10
14.3451902754
 20
69.6233639916
 30
0.0
 10
14.2177068501
 20
69.6176016623
 30
0.0
 10
14.1084044835
 20
69.611857751
 30
0.0
 10
14.0173390416
 20
69.6061569682
 30
0.0
 10
13.944599066
 20
69.6004895055
 30
0.0
 10
13.895463097
 20
69.5955339819
 30
0.0
 10
13.865444193
 20
69.591319992
 30
0.0
 10
13.8497652649
 20
69.5885306718
 30
0.0
 10
13.8387729711
 20
69.5857639977
 30
0.0
 10
13.8329391942
 20
69.5836040653
 30
0.0
 10
13.8310706287
 20
69.5822364922
 30
0.0
  0
SPLINE
  5
29F
100
AcDbEntity
  8
0
100
AcDbSpline
 62
7
  6
CONTINUOUS
 70
0
 71
3
 72
34
 73
30
 74
0
 42
0.0000001
 43
0.0000001
 44
0.0000000001
 40
0.0
 40
0.0
 40
0.0
 40
0.0
 40
0.0002248158
 40
0.000589412
 40
0.0010985655
 40
0.0017537543
 40
0.0035040147
 40
0.0058414912
 40
0.0087655592
 40
0.0122750466
 40
0.0163685482
 40
0.0210445432
 40
0.0321376158
 40
0.0455410501
 40
0.061228024
 40
0.079149336
 40
0.0992535895
 40
0.121489343
 40
0.1458051275
 40
0.172149456
 40
0.2307053266
 40
0.2965862775
 40
0.3691262859
 40
0.4476574945
 40
0.5314645261
 40
0.6197178228
 40
0.711571009
 40
0.8061732955
 40
1.0
 40
1.0
 40
1.0
 40
1.0
 10
14.8312566879
 20
67.3322043451
 30
0.0
 10
14.833064363
 20
67.3335601825
 30
0.0
 10
14.8387080767
 20
67.3357288703
 30
0.0
 10
14.8493463698
 20
67.3384944722
 30
0.0
 10
14.8644934341
 20
67.3412878019
 30
0.0
 10
14.8934726851
 20
67.3455010931
 30
0.0
 10
14.940910208
 20
67.3504593067
 30
0.0
 10
15.0111541446
 20
67.3561275567
 30
0.0
 10
15.0991333223
 20
67.3618294978
 30
0.0
 10
15.2047858244
 20
67.3675736854
 30
0.0
 10
15.3280695707
 20
67.3733360892
 30
0.0
 10
15.5275431099
 20
67.3815110984
 30
0.0
 10
15.8205915838
 20
67.3914907092
 30
0.0
 10
16.2243172387
 20
67.4029618733
 30
0.0
 10
16.6966969313
 20
67.41446592
 30
0.0
 10
17.2364433084
 20
67.4260061273
 30
0.0
 10
17.842024894
 20
67.4375675435
 30
0.0
 10
18.5118880225
 20
67.4491449763
 30
0.0
 10
19.2444789696
 20
67.4607343597
 30
0.0
 10
20.342100969
 20
67.4767691715
 30
0.0
 10
21.8574865787
 20
67.496549174
 30
0.0
 10
23.8371833403
 20
67.5195909203
 30
0.0
 10
26.0176656115
 20
67.5426822995
 30
0.0
 10
28.3783333135
 20
67.5658032135
 30
0.0
 10
30.8969435343
 20
67.5889327845
 30
0.0
 10
33.5494591894
 20
67.6120825553
 30
0.0
 10
36.3104826677
 20
67.6352465978
 30
0.0
 10
40.1326035199
 20
67.6663867771
 30
0.0
 10
43.0315364221
 20
67.689332835
 30
0.0
 10
44.9796436213
 20
67.7047585032
 30
0.0
  0
SPLINE
  5
2A0
100
AcDbEntity
  8
0
100
AcDbSpline
 62
7
  6
CONTINUOUS
 70
0
 71
3
 72
34
 73
30
 74
0
 42
0.0000001
 43
0.0000001
 44
0.0000000001
 40
0.0
 40
0.0
 40
0.0
 40
0.0
 40
0.1938396446
 40
0.2884478978
 40
0.380325971
 40
0.4685747016
 40
0.5523699162
 40
0.6309371864
 40
0.7034843059
 40
0.7693368626
 40
0.8278983168
 40
0.8542609673
 40
0.8785887538
 40
0.9008246056
 40
0.9209125344
 40
0.9388087011
 40
0.9544792847
 40
0.9678907172
 40
0.9790081128
 40
0.9836954137
 40
0.9877958891
 40
0.991305255
 40
0.994221532
 40
0.9965457262
 40
0.998279548
 40
0.9989260492
 40
0.9994265742
 40
0.9997828665
 40
1.0
 40
1.0
 40
1.0
 40
1.0
 10
44.9796444859
 20
71.4547703617
 30
0.0
 10
42.966847372
 20
71.4389749577
 30
0.0
 10
39.9716462544
 20
71.4165475921
 30
0.0
 10
36.0224102165
 20
71.3852194202
 30
0.0
 10
33.1696151445
 20
71.3620874151
 30
0.0
 10
30.4291081661
 20
71.3389396372
 30
0.0
 10
27.8268276571
 20
71.3157921335
 30
0.0
 10
25.3876013999
 20
71.2926850241
 30
0.0
 10
23.1347030546
 20
71.2695942474
 30
0.0
 10
21.0895595898
 20
71.2465358137
 30
0.0
 10
19.5239969174
 20
71.2267557626
 30
0.0
 10
18.3896223954
 20
71.210727689
 30
0.0
 10
17.632433678
 20
71.1991379066
 30
0.0
 10
16.9404106496
 20
71.1875610473
 30
0.0
 10
16.3151844559
 20
71.1759974806
 30
0.0
 10
15.758145561
 20
71.164451802
 30
0.0
 10
15.270452118
 20
71.1529393904
 30
0.0
 10
14.8531722379
 20
71.1414670023
 30
0.0
 10
14.5499486318
 20
71.1314950235
 30
0.0
 10
14.3434114465
 20
71.1233223605
 30
0.0
 10
14.2158448305
 20
71.1175622765
 30
0.0
 10
14.106690929
 20
71.1118200561
 30
0.0
 10
14.0160046845
 20
71.1061188185
 30
0.0
 10
13.9438095507
 20
71.1004506468
 30
0.0
 10
13.8951832602
 20
71.0954927955
 30
0.0
 10
13.8655803015
 20
71.0912736987
 30
0.0
 10
13.8501814824
 20
71.0884844727
 30
0.0
 10
13.8394363835
 20
71.0857200588
 30
0.0
 10
13.8337475375
 20
71.0835553541
 30
0.0
 10
13.8319568117
 20
71.0821852518
 30
0.0
  0
SPLINE
  5
2A1
100
AcDbEntity
  8
0
100
AcDbSpline
 62
7
  6
CONTINUOUS
 70
0
 71
3
 72
34
 73
30
 74
0
 42
0.0000001
 43
0.0000001
 44
0.0000000001
 40
0.0
 40
0.0
 40
0.0
 40
0.0
 40
0.1937960993
 40
0.2883863404
 40
0.38023682
 40
0.4684709944
 40
0.5522616034
 40
0.6308154256
 40
0.703349378
 40
0.7692068715
 40
0.8277850266
 40
0.8541463032
 40
0.8784673556
 40
0.9007003756
 40
0.9207981069
 40
0.9387147982
 40
0.9544057451
 40
0.9678274007
 40
0.9789467976
 40
0.98363477
 40
0.9877371828
 40
0.991250905
 40
0.9941746545
 40
0.9965088359
 40
0.9982544155
 40
0.9989072146
 40
0.9994141696
 40
0.9997768659
 40
1.0
 40
1.0
 40
1.0
 40
1.0
 10
44.9796456352
 20
75.954767953
 30
0.0
 10
42.9673047417
 20
75.9393943723
 30
0.0
 10
39.9727582801
 20
75.9163781013
 30
0.0
 10
36.0244606002
 20
75.8852721009
 30
0.0
 10
33.1723008498
 20
75.8621092638
 30
0.0
 10
30.43228935
 20
75.8389605767
 30
0.0
 10
27.830356758
 20
75.8158297224
 30
0.0
 10
25.3914635492
 20
75.7927229203
 30
0.0
 10
23.1387984667
 20
75.76963453
 30
0.0
 10
21.0935743773
 20
75.7465829269
 30
0.0
 10
19.5278068105
 20
75.726812997
 30
0.0
 10
18.3933471395
 20
75.7107863033
 30
0.0
 10
17.6362747676
 20
75.6991972652
 30
0.0
 10
16.9442517901
 20
75.68762057
 30
0.0
 10
16.318742257
 20
75.6760596827
 30
0.0
 10
15.7611787837
 20
75.6645196826
 30
0.0
 10
15.2729560561
 20
75.6530142191
 30
0.0
 10
14.85533907
 20
75.6415446847
 30
0.0
 10
14.5519826327
 20
75.6315711394
 30
0.0
 10
14.3453982536
 20
75.623398948
 30
0.0
 10
14.2177597433
 20
75.6176389224
 30
0.0
 10
14.1084629998
 20
75.6118965533
 30
0.0
 10
14.0175504465
 20
75.606195615
 30
0.0
 10
13.9450504513
 20
75.600527946
 30
0.0
 10
13.8961335055
 20
75.5955702878
 30
0.0
 10
13.8662712462
 20
75.5913556085
 30
0.0
 10
13.8506749958
 20
75.5885644103
 30
0.0
 10
13.839721351
 20
75.585797342
 30
0.0
 10
13.8339073115
 20
75.5836342529
 30
0.0
 10
13.8320320044
 20
75.5822733943
 30
0.0
  0
SPLINE
  5
2A2
100
AcDbEntity
  8
0
100
AcDbSpline
 62
7
  6
CONTINUOUS
 70
0
 71
3
 72
34
 73
30
 74
0
 42
0.0000001
 43
0.0000001
 44
0.0000000001
 40
0.0
 40
0.0
 40
0.0
 40
0.0
 40
0.1938652195
 40
0.2884793648
 40
0.3803663998
 40
0.4686315965
 40
0.5524310347
 40
0.6309820083
 40
0.7035514416
 40
0.7694124054
 40
0.8279425788
 40
0.8543024517
 40
0.8786372762
 40
0.9008781575
 40
0.9209640364
 40
0.9388547864
 40
0.9545138075
 40
0.9679072559
 40
0.9790063011
 40
0.9836866539
 40
0.9877830379
 40
0.9912929231
 40
0.9942142182
 40
0.996545057
 40
0.9982841051
 40
0.9989317424
 40
0.9994319278
 40
0.9997862102
 40
1.0
 40
1.0
 40
1.0
 40
1.0
 10
44.9796493966
 20
71.454213181
 30
0.0
 10
46.9927635468
 20
71.4700110729
 30
0.0
 10
49.9883680507
 20
71.4924355336
 30
0.0
 10
53.9381247989
 20
71.5237780375
 30
0.0
 10
56.791318112
 20
71.5469046166
 30
0.0
 10
59.5322030442
 20
71.5700578896
 30
0.0
 10
62.1345957052
 20
71.5932068614
 30
0.0
 10
64.5739905617
 20
71.6163269506
 30
0.0
 10
66.8270963637
 20
71.639411978
 30
0.0
 10
68.872286383
 20
71.6624652874
 30
0.0
 10
70.4376224622
 20
71.6822638293
 30
0.0
 10
71.5717453743
 20
71.6982916673
 30
0.0
 10
72.3290499733
 20
71.709879079
 30
0.0
 10
73.021194761
 20
71.7214549709
 30
0.0
 10
73.6464115748
 20
71.7330218806
 30
0.0
 10
74.2032670417
 20
71.7445689249
 30
0.0
 10
74.690609762
 20
71.7560827427
 30
0.0
 10
75.1074026785
 20
71.767558046
 30
0.0
 10
75.4101842411
 20
71.777533382
 30
0.0
 10
75.6164212272
 20
71.7857070081
 30
0.0
 10
75.7438816774
 20
71.791469384
 30
0.0
 10
75.8530531812
 20
71.7972137116
 30
0.0
 10
75.9438687905
 20
71.8029142468
 30
0.0
 10
76.0162409696
 20
71.808581594
 30
0.0
 10
76.065006197
 20
71.8135362852
 30
0.0
 10
76.0946707537
 20
71.8177567538
 30
0.0
 10
76.1100618318
 20
71.8205427462
 30
0.0
 10
76.120738794
 20
71.8233055603
 30
0.0
 10
76.1263809998
 20
71.8254700141
 30
0.0
 10
76.1281191703
 20
71.8268511457
 30
0.0
  0
SPLINE
  5
2A3
100
AcDbEntity
  8
0
100
AcDbSpline
 62
7
  6
CONTINUOUS
 70
0
 71
3
 72
34
 73
30
 74
0
 42
0.0000001
 43
0.0000001
 44
0.0000000001
 40
0.0
 40
0.0
 40
0.0
 40
0.0
 40
0.0002200191
 40
0.0005805593
 40
0.0010862571
 40
0.0017384825
 40
0.0034839872
 40
0.0058178463
 40
0.0087389972
 40
0.0122458581
 40
0.0163366265
 40
0.0210093911
 40
0.0320929676
 40
0.0454804783
 40
0.0611527318
 40
0.0790672305
 40
0.0991699048
 40
0.1214065601
 40
0.1457229756
 40
0.1720649133
 40
0.2306058106
 40
0.2964898948
 40
0.3690417396
 40
0.447576528
 40
0.5313882229
 40
0.6196575749
 40
0.7115276833
 40
0.8061407335
 40
1.0
 40
1.0
 40
1.0
 40
1.0
 10
76.1283087426
 20
67.3273892136
 30
0.0
 10
76.1264809373
 20
67.3260183188
 30
0.0
 10
76.1207143038
 20
67.3238568081
 30
0.0
 10
76.1098361681
 20
67.3210909851
 30
0.0
 10
76.0942778384
 20
67.3183018923
 30
0.0
 10
76.0644364591
 20
67.3140853214
 30
0.0
 10
76.0155265772
 20
67.3091287409
 30
0.0
 10
75.9430559536
 20
67.3034601894
 30
0.0
 10
75.8522419031
 20
67.2977583238
 30
0.0
 10
75.7431610694
 20
67.2920134778
 30
0.0
 10
75.6158687315
 20
67.2862503938
 30
0.0
 10
75.4099287169
 20
67.2780746803
 30
0.0
 10
75.1074469801
 20
67.2680947436
 30
0.0
 10
74.6907368347
 20
67.2566174633
 30
0.0
 10
74.203068962
 20
67.2451098774
 30
0.0
 10
73.6456519044
 20
67.2335695192
 30
0.0
 10
73.02005456
 20
67.2220069728
 30
0.0
 10
72.3279668767
 20
67.2104283211
 30
0.0
 10
71.5710797436
 20
67.1988374834
 30
0.0
 10
70.4372171349
 20
67.1828009749
 30
0.0
 10
68.8717075752
 20
67.1630110806
 30
0.0
 10
66.8263379921
 20
67.1399689955
 30
0.0
 10
64.5733311978
 20
67.1168762334
 30
0.0
 10
62.1341471754
 20
67.0937494012
 30
0.0
 10
59.5317385084
 20
67.0706143163
 30
0.0
 10
56.7908446752
 20
67.0474622761
 30
0.0
 10
53.9377808516
 20
67.0242951216
 30
0.0
 10
49.9882510265
 20
66.9931471348
 30
0.0
 10
46.99270822
 20
66.970197955
 30
0.0
 10
44.9796425591
 20
66.9547700991
 30
0.0
  0
SPLINE
  5
2A4
100
AcDbEntity
  8
0
100
AcDbSpline
 62
7
  6
CONTINUOUS
 70
0
 71
3
 72
34
 73
30
 74
0
 42
0.0000001
 43
0.0000001
 44
0.0000000001
 40
0.0
 40
0.0
 40
0.0
 40
0.0
 40
0.1938452968
 40
0.2884497166
 40
0.3803196041
 40
0.4685828254
 40
0.5523840956
 40
0.6309191722
 40
0.7034815285
 40
0.7693568635
 40
0.827884499
 40
0.8542361916
 40
0.8785659227
 40
0.9008110433
 40
0.9209093647
 40
0.9388108849
 40
0.9544775445
 40
0.967872414
 40
0.9789677623
 40
0.9836468065
 40
0.9877434867
 40
0.9912554207
 40
0.9941804675
 40
0.9965169212
 40
0.9982636164
 40
0.9989158804
 40
0.9994212323
 40
0.9997810426
 40
1.0
 40
1.0
 40
1.0
 40
1.0
 10
44.9796415906
 20
74.4547690536
 30
0.0
 10
42.9667191544
 20
74.4393910302
 30
0.0
 10
39.9714093936
 20
74.4163728859
 30
0.0
 10
36.0221134905
 20
74.3852500418
 30
0.0
 10
33.169203155
 20
74.3620853124
 30
0.0
 10
30.4284815498
 20
74.3389327855
 30
0.0
 10
27.8262399353
 20
74.3157961108
 30
0.0
 10
25.3870502273
 20
74.2926711543
 30
0.0
 10
23.1340204215
 20
74.2695860309
 30
0.0
 10
21.0887687622
 20
74.2465441222
 30
0.0
 10
19.523385459
 20
74.2267458727
 30
0.0
 10
18.3894200642
 20
74.2107161289
 30
0.0
 10
17.632204811
 20
74.1991285424
 30
0.0
 10
16.9399355478
 20
74.1875539835
 30
0.0
 10
16.3144298159
 20
74.1759919812
 30
0.0
 10
15.7572505752
 20
74.1644462843
 30
0.0
 10
15.2696989297
 20
74.1529349195
 30
0.0
 10
14.8528477704
 20
74.1414613465
 30
0.0
 10
14.5501017208
 20
74.1314841308
 30
0.0
 10
14.3439124353
 20
74.1233106345
 30
0.0
 10
14.2164404843
 20
74.1175485479
 30
0.0
 10
14.1072048139
 20
74.1118045732
 30
0.0
 10
14.016270249
 20
74.1061034136
 30
0.0
 10
13.9437197432
 20
74.1004354056
 30
0.0
 10
13.8947693592
 20
74.0954795718
 30
0.0
 10
13.8649193673
 20
74.0912624306
 30
0.0
 10
13.8493706395
 20
74.0884744093
 30
0.0
 10
13.8385173907
 20
74.085709374
 30
0.0
 10
13.8327668417
 20
74.0835485024
 30
0.0
 10
13.8309551847
 20
74.0821745042
 30
0.0
  0
SPLINE
  5
2A5
100
AcDbEntity
  8
0
100
AcDbSpline
 62
7
  6
CONTINUOUS
 70
0
 71
3
 72
34
 73
30
 74
0
 42
0.0000001
 43
0.0000001
 44
0.0000000001
 40
0.0
 40
0.0
 40
0.0
 40
0.0
 40
0.0002276808
 40
0.0005946004
 40
0.0011058147
 40
0.0017630029
 40
0.0035177388
 40
0.0058614362
 40
0.0087947802
 40
0.0123179042
 40
0.0164306994
 40
0.0211317247
 40
0.0322819525
 40
0.0457335547
 40
0.0614499894
 40
0.0793888076
 40
0.099504575
 40
0.1217508699
 40
0.1460761362
 40
0.1724270605
 40
0.2309711936
 40
0.2968472466
 40
0.3694106981
 40
0.4479387358
 40
0.5316887836
 40
0.6198891403
 40
0.7117146901
 40
0.8062751615
 40
1.0
 40
1.0
 40
1.0
 40
1.0
 10
13.8333279921
 20
77.0798227929
 30
0.0
 10
13.8352180319
 20
77.0812430435
 30
0.0
 10
13.8410784248
 20
77.083545229
 30
0.0
 10
13.8521274293
 20
77.0864887787
 30
0.0
 10
13.867822452
 20
77.0894783714
 30
0.0
 10
13.8978272173
 20
77.0939958024
 30
0.0
 10
13.946945669
 20
77.0993264494
 30
0.0
 10
14.0197063519
 20
77.1053906727
 30
0.0
 10
14.1108917243
 20
77.111425519
 30
0.0
 10
14.2204784505
 20
77.1173983035
 30
0.0
 10
14.3484508504
 20
77.1232378296
 30
0.0
 10
14.5555980469
 20
77.1312712554
 30
0.0
 10
14.8597291369
 20
77.140711558
 30
0.0
 10
15.2782495214
 20
77.1513656989
 30
0.0
 10
15.7672780787
 20
77.1621339812
 30
0.0
 10
16.3255146167
 20
77.1731740647
 30
0.0
 10
16.9515604655
 20
77.1846005502
 30
0.0
 10
17.6439226139
 20
77.1965583145
 30
0.0
 10
18.4010329412
 20
77.2088353527
 30
0.0
 10
19.5350223398
 20
77.2259124611
 30
0.0
 10
21.1004585599
 20
77.246614764
 30
0.0
 10
23.1457737742
 20
77.2685191844
 30
0.0
 10
25.3986140506
 20
77.2896320808
 30
0.0
 10
27.8370444414
 20
77.3125921635
 30
0.0
 10
30.4378338607
 20
77.3374659266
 30
0.0
 10
33.176710421
 20
77.3620606722
 30
0.0
 10
36.0278623261
 20
77.3844603796
 30
0.0
 10
39.974739473
 20
77.4130156853
 30
0.0
 10
42.9681344194
 20
77.4363893903
 30
0.0
 10
44.9796612415
 20
77.4526439934
 30
0.0
  0
SPLINE
  5
2A6
100
AcDbEntity
  8
0
100
AcDbSpline
 62
7
  6
CONTINUOUS
 70
0
 71
3
 72
61
 73
57
 74
0
 42
0.0000001
 43
0.0000001
 44
0.0000000001
 40
0.0
 40
0.0
 40
0.0
 40
0.0
 40
0.0001153784
 40
0.0003014156
 40
0.000560614
 40
0.0008939139
 40
0.001783725
 40
0.0029705538
 40
0.0044529267
 40
0.0062291015
 40
0.0082972216
 40
0.0106553761
 40
0.0162349623
 40
0.0229556174
 40
0.0308053265
 40
0.039769967
 40
0.0498308358
 40
0.0609685467
 40
0.0731578109
 40
0.0863618828
 40
0.1156642075
 40
0.1485982984
 40
0.1848813385
 40
0.2241715203
 40
0.2660770732
 40
0.3101886944
 40
0.3561093783
 40
0.4034033653
 40
0.5002802472
 40
0.5971428891
 40
0.6444161189
 40
0.6903261639
 40
0.7344355793
 40
0.7763012095
 40
0.8155383148
 40
0.8517933714
 40
0.8847224515
 40
0.9139804902
 40
0.9271399339
 40
0.939286255
 40
0.9503956744
 40
0.9604427152
 40
0.9694011776
 40
0.9772455085
 40
0.983954284
 40
0.9895077908
 40
0.9918453777
 40
0.9938887802
 40
0.9956382378
 40
0.9970940563
 40
0.9982566587
 40
0.999126742
 40
0.9994525329
 40
0.9997058944
 40
0.9998875877
 40
1.0
 40
1.0
 40
1.0
 40
1.0
 10
14.8311313409
 20
77.8327880496
 30
0.0
 10
14.833017326
 20
77.8341379508
 30
0.0
 10
14.8387959997
 20
77.8363055819
 30
0.0
 10
14.8496737552
 20
77.8390738446
 30
0.0
 10
14.8651049294
 20
77.8418684966
 30
0.0
 10
14.8945930232
 20
77.8460797731
 30
0.0
 10
14.9428061703
 20
77.8510342853
 30
0.0
 10
15.0141202094
 20
77.8566997873
 30
0.0
 10
15.103303133
 20
77.8623990199
 30
0.0
 10
15.2102245455
 20
77.8681404132
 30
0.0
 10
15.3347725731
 20
77.873899854
 30
0.0
 10
15.5357425351
 20
77.8820630449
 30
0.0
 10
15.8302358481
 20
77.8920322922
 30
0.0
 10
16.235123169
 20
77.9035034939
 30
0.0
 10
16.7080783464
 20
77.915012675
 30
0.0
 10
17.2481938467
 20
77.9265524804
 30
0.0
 10
17.8544167601
 20
77.9381134931
 30
0.0
 10
18.5254704729
 20
77.9496863186
 30
0.0
 10
19.2597164046
 20
77.9612650363
 30
0.0
 10
20.3590770599
 20
77.9772770257
 30
0.0
 10
21.8754327767
 20
77.9970515284
 30
0.0
 10
23.8557098948
 20
78.0201017825
 30
0.0
 10
26.0367720929
 20
78.0431822209
 30
0.0
 10
28.3981851255
 20
78.0662828118
 30
0.0
 10
30.9169729447
 20
78.0894029746
 30
0.0
 10
33.5690503436
 20
78.112549153
 30
0.0
 10
36.3294484275
 20
78.135702624
 30
0.0
 10
40.1504895075
 20
78.1668283509
 30
0.0
 10
44.9955267356
 20
78.2051773895
 30
0.0
 10
49.8401465672
 20
78.2435425259
 30
0.0
 10
53.660270225
 20
78.2746713718
 30
0.0
 10
56.4199928653
 20
78.2978200961
 30
0.0
 10
59.0710096187
 20
78.3209536331
 30
0.0
 10
61.5878834622
 20
78.3440863734
 30
0.0
 10
63.9468643047
 20
78.3671984712
 30
0.0
 10
66.1261962868
 20
78.3902734218
 30
0.0
 10
68.1049200914
 20
78.4133012549
 30
0.0
 10
69.6193876206
 20
78.433076208
 30
0.0
 10
70.7160971544
 20
78.4491078671
 30
0.0
 10
71.4480136453
 20
78.4606932559
 30
0.0
 10
72.1173572087
 20
78.472264997
 30
0.0
 10
72.7226091832
 20
78.4838202871
 30
0.0
 10
73.2622144076
 20
78.4953546049
 30
0.0
 10
73.7346984892
 20
78.5068585526
 30
0.0
 10
74.1387144761
 20
78.518323537
 30
0.0
 10
74.4320308564
 20
78.5282905003
 30
0.0
 10
74.6315646486
 20
78.5364651721
 30
0.0
 10
74.7546637587
 20
78.5422256732
 30
0.0
 10
74.8600151384
 20
78.5479677739
 30
0.0
 10
74.9476371731
 20
78.5536678755
 30
0.0
 10
75.0175290534
 20
78.5593343819
 30
0.0
 10
75.0647026997
 20
78.5642926137
 30
0.0
 10
75.093518332
 20
78.5685039345
 30
0.0
 10
75.10858992
 20
78.5712971753
 30
0.0
 10
75.119192653
 20
78.5740619034
 30
0.0
 10
75.124819839
 20
78.5762310193
 30
0.0
 10
75.126631321
 20
78.5775818304
 30
0.0
  0
SPLINE
  5
2A7
100
AcDbEntity
  8
0
100
AcDbSpline
 62
7
  6
CONTINUOUS
 70
0
 71
3
 72
14
 73
10
 74
0
 42
0.0000001
 43
0.0000001
 44
0.0000000001
 40
0.0
 40
0.0
 40
0.0
 40
0.0
 40
0.2771867168
 40
0.4109016489
 40
0.5391513773
 40
0.6613538109
 40
0.7778762353
 40
0.8901242168
 40
1.0
 40
1.0
 40
1.0
 40
1.0
 10
76.3523831282
 20
48.204491057
 30
0.0
 10
76.3523831282
 20
48.0091103979
 30
0.0
 10
76.307437293
 20
47.7163758128
 30
0.0
 10
76.1587283921
 20
47.365180409
 30
0.0
 10
76.0103887106
 20
47.1367204288
 30
0.0
 10
75.82953759
 20
46.9494008825
 30
0.0
 10
75.6227764694
 20
46.809922517
 30
0.0
 10
75.397821406
 20
46.723971184
 30
0.0
 10
75.2406133601
 20
46.704491057
 30
0.0
 10
75.1631651938
 20
46.704491057
 30
0.0
  0
SPLINE
  5
2A8
100
AcDbEntity
  8
0
100
AcDbSpline
 62
7
  6
CONTINUOUS
 70
0
 71
3
 72
61
 73
57
 74
0
 42
0.0000001
 43
0.0000001
 44
0.0000000001
 40
0.0
 40
0.0
 40
0.0
 40
0.0
 40
0.0001125983
 40
0.0002955184
 40
0.0005511074
 40
0.0008800562
 40
0.0017587298
 40
0.002931806
 40
0.0043985937
 40
0.006158129
 40
0.0082093322
 40
0.0105510659
 40
0.0161014194
 40
0.0227996591
 40
0.0306360578
 40
0.0395951619
 40
0.0496499899
 40
0.0607721448
 40
0.0729332153
 40
0.0861047813
 40
0.115365645
 40
0.148298196
 40
0.1845659678
 40
0.2238188558
 40
0.2657032036
 40
0.3098193242
 40
0.3557353261
 40
0.4030186344
 40
0.4999030224
 40
0.5967854334
 40
0.6440762573
 40
0.6900043557
 40
0.7341250176
 40
0.776012197
 40
0.8152858061
 40
0.8515727142
 40
0.8845056622
 40
0.9137835494
 40
0.926970773
 40
0.9391470816
 40
0.9502801573
 40
0.9603378419
 40
0.9692950865
 40
0.9771368761
 40
0.983848987
 40
0.9894172622
 40
0.9917680787
 40
0.9938277012
 40
0.9955944339
 40
0.997066639
 40
0.9982427963
 40
0.9991218538
 40
0.9994503037
 40
0.9997052498
 40
0.9998876222
 40
1.0
 40
1.0
 40
1.0
 40
1.0
 10
14.8321115754
 20
71.8313893996
 30
0.0
 10
14.8339222384
 20
71.8327474878
 30
0.0
 10
14.8395854285
 20
71.8349140528
 30
0.0
 10
14.8502603286
 20
71.8376787487
 30
0.0
 10
14.8654686777
 20
71.8404704369
 30
0.0
 10
14.8945667516
 20
71.84468234
 30
0.0
 10
14.9421894653
 20
71.8496383206
 30
0.0
 10
15.0126855705
 20
71.8553047889
 30
0.0
 10
15.1009411818
 20
71.8610049765
 30
0.0
 10
15.206871531
 20
71.8667475049
 30
0.0
 10
15.3304118759
 20
71.8725082592
 30
0.0
 10
15.5301195829
 20
71.8806782979
 30
0.0
 10
15.8232390784
 20
71.8906524863
 30
0.0
 10
16.226813664
 20
71.902125682
 30
0.0
 10
16.6989317295
 20
71.913633673
 30
0.0
 10
17.2385384069
 20
71.9251677774
 30
0.0
 10
17.8442062772
 20
71.9367245286
 30
0.0
 10
18.514248345
 20
71.9482973418
 30
0.0
 10
19.2469495024
 20
71.9598825992
 30
0.0
 10
20.344238744
 20
71.9759091446
 30
0.0
 10
21.8590523894
 20
71.9956955355
 30
0.0
 10
23.8381269988
 20
72.0187265084
 30
0.0
 10
26.0180670616
 20
72.0418064272
 30
0.0
 10
28.3779596423
 20
72.0649228977
 30
0.0
 10
30.8956219883
 20
72.0880510495
 30
0.0
 10
33.5472274943
 20
72.1111911645
 30
0.0
 10
36.3073635012
 20
72.134347075
 30
0.0
 10
40.1281860904
 20
72.1654823229
 30
0.0
 10
44.9734801344
 20
72.2038406606
 30
0.0
 10
49.8189252067
 20
72.2422051828
 30
0.0
 10
53.6401023156
 20
72.2733383707
 30
0.0
 10
56.4007238859
 20
72.2964906745
 30
0.0
 10
59.0527207605
 20
72.3196318338
 30
0.0
 10
61.5709477894
 20
72.3427672788
 30
0.0
 10
63.9316985695
 20
72.3658782606
 30
0.0
 10
66.112447948
 20
72.3889493266
 30
0.0
 10
68.0922572751
 20
72.4119956161
 30
0.0
 10
69.6077358912
 20
72.4317810342
 30
0.0
 10
70.7059885617
 20
72.4478017433
 30
0.0
 10
71.4395304238
 20
72.4593852165
 30
0.0
 10
72.1101558789
 20
72.4709553609
 30
0.0
 10
72.7160633643
 20
72.4825123773
 30
0.0
 10
73.2557982842
 20
72.4940556027
 30
0.0
 10
73.7282661801
 20
72.5055664247
 30
0.0
 10
74.1325885314
 20
72.5170381702
 30
0.0
 10
74.4265302386
 20
72.5270089102
 30
0.0
 10
74.6269507045
 20
72.5351763798
 30
0.0
 10
74.7509881074
 20
72.540936489
 30
0.0
 10
74.8573419416
 20
72.5466779555
 30
0.0
 10
74.945913824
 20
72.5523765402
 30
0.0
 10
75.0165893316
 20
72.5580397887
 30
0.0
 10
75.0642719814
 20
72.5629966591
 30
0.0
 10
75.0933544632
 20
72.567211926
 30
0.0
 10
75.1085276607
 20
72.5700047237
 30
0.0
 10
75.119174303
 20
72.572769831
 30
0.0
 10
75.1248185459
 20
72.5749390853
 30
0.0
 10
75.1266256332
 20
72.5762945557
 30
0.0
  0
SPLINE
  5
2A9
100
AcDbEntity
  8
0
100
AcDbSpline
 62
7
  6
CONTINUOUS
 70
0
 71
3
 72
34
 73
30
 74
0
 42
0.0000001
 43
0.0000001
 44
0.0000000001
 40
0.0
 40
0.0
 40
0.0
 40
0.0
 40
0.1939401704
 40
0.2885720133
 40
0.3804799265
 40
0.4688078215
 40
0.5526996181
 40
0.63129925
 40
0.7038043996
 40
0.7696117192
 40
0.8281639391
 40
0.8545452624
 40
0.8789038726
 40
0.9011701441
 40
0.9212744691
 40
0.93914916
 40
0.9547559567
 40
0.9680798558
 40
0.9791066111
 40
0.9837541869
 40
0.9878222751
 40
0.9913092352
 40
0.9942135365
 40
0.9965338699
 40
0.9982694486
 40
0.9989181489
 40
0.9994213279
 40
0.9997803921
 40
1.0
 40
1.0
 40
1.0
 40
1.0
 10
44.9796653481
 20
80.45181239
 30
0.0
 10
42.9657636836
 20
80.4363802686
 30
0.0
 10
39.969191785
 20
80.4134200101
 30
0.0
 10
36.0182423347
 20
80.3822480809
 30
0.0
 10
33.163988757
 20
80.3590687586
 30
0.0
 10
30.4212682602
 20
80.3359039658
 30
0.0
 10
27.8167518227
 20
80.3127597574
 30
0.0
 10
25.3765524143
 20
80.2896403586
 30
0.0
 10
23.1241592016
 20
80.2665239577
 30
0.0
 10
21.0799587808
 20
80.2434458018
 30
0.0
 10
19.514723154
 20
80.223648651
 30
0.0
 10
18.3798979889
 20
80.2076154612
 30
0.0
 10
17.6218575977
 20
80.1960221873
 30
0.0
 10
16.9290083934
 20
80.1844419901
 30
0.0
 10
16.3035010101
 20
80.1728803818
 30
0.0
 10
15.7471614242
 20
80.1613325367
 30
0.0
 10
15.2612490718
 20
80.1498095231
 30
0.0
 10
14.8464710553
 20
80.1383255346
 30
0.0
 10
14.5455031411
 20
80.1283394595
 30
0.0
 10
14.3406517567
 20
80.1201586108
 30
0.0
 10
14.2140642953
 20
80.1143924285
 30
0.0
 10
14.1056018393
 20
80.1086444868
 30
0.0
 10
14.0153113284
 20
80.1029393945
 30
0.0
 10
13.9432607522
 20
80.0972676986
 30
0.0
 10
13.8946330829
 20
80.0923078488
 30
0.0
 10
13.8649591268
 20
80.0880894524
 30
0.0
 10
13.8494812743
 20
80.0852978261
 30
0.0
 10
13.8386493683
 20
80.0825305343
 30
0.0
 10
13.8329065771
 20
80.0803660797
 30
0.0
 10
13.8310821901
 20
80.0789977521
 30
0.0
  0
SPLINE
  5
2AA
100
AcDbEntity
  8
0
100
AcDbSpline
 62
7
  6
CONTINUOUS
 70
0
 71
3
 72
61
 73
57
 74
0
 42
0.0000001
 43
0.0000001
 44
0.0000000001
 40
0.0
 40
0.0
 40
0.0
 40
0.0
 40
0.000112221
 40
0.0002940168
 40
0.00054789
 40
0.0008746998
 40
0.0017484967
 40
0.0029170135
 40
0.004380892
 40
0.0061404989
 40
0.0081956846
 40
0.0105446188
 40
0.0161146023
 40
0.0228320622
 40
0.0306784497
 40
0.0396351489
 40
0.049683507
 40
0.0608048502
 40
0.0729774471
 40
0.0861680072
 40
0.1154588634
 40
0.1483890819
 40
0.1846678222
 40
0.2239523882
 40
0.2658507289
 40
0.3099688233
 40
0.3559016791
 40
0.4032040903
 40
0.500099666
 40
0.5969982584
 40
0.6442935836
 40
0.6902113083
 40
0.7343271504
 40
0.7762232536
 40
0.8154844724
 40
0.8517434606
 40
0.8846738241
 40
0.9139505234
 40
0.9271211716
 40
0.9392750414
 40
0.9503877746
 40
0.9604350223
 40
0.969392449
 40
0.9772357414
 40
0.983940637
 40
0.989487834
 40
0.9918250178
 40
0.9938704457
 40
0.9956235474
 40
0.9970838105
 40
0.9982508395
 40
0.9991245129
 40
0.9994515336
 40
0.9997056719
 40
0.9998876907
 40
1.0
 40
1.0
 40
1.0
 40
1.0
 10
14.8332048565
 20
70.3314386591
 30
0.0
 10
14.8350093977
 20
70.3327922043
 30
0.0
 10
14.8406362239
 20
70.3349623058
 30
0.0
 10
14.8512458972
 20
70.3377277752
 30
0.0
 10
14.8663509601
 20
70.3405215267
 30
0.0
 10
14.8952713502
 20
70.3447357674
 30
0.0
 10
14.9426588286
 20
70.3496948551
 30
0.0
 10
15.012904775
 20
70.35536271
 30
0.0
 10
15.10100976
 20
70.3610640417
 30
0.0
 10
15.2069612758
 20
70.3668070668
 30
0.0
 10
15.3307259848
 20
70.3725661426
 30
0.0
 10
15.5310500291
 20
70.3807360767
 30
0.0
 10
15.8250906632
 20
70.3907051892
 30
0.0
 10
16.2296402294
 20
70.402174924
 30
0.0
 10
16.7022887559
 20
70.4136848845
 30
0.0
 10
17.2419080104
 20
70.4252281058
 30
0.0
 10
17.8473702177
 20
70.4367915422
 30
0.0
 10
18.5174856146
 20
70.4483687497
 30
0.0
 10
19.2507710092
 20
70.4599518932
 30
0.0
 10
20.3492572784
 20
70.4759733461
 30
0.0
 10
21.8649818929
 20
70.4957521932
 30
0.0
 10
23.8447974758
 20
70.5188077976
 30
0.0
 10
26.0255090831
 20
70.5418904654
 30
0.0
 10
28.3864982857
 20
70.5649967766
 30
0.0
 10
30.9050734639
 20
70.5881314959
 30
0.0
 10
33.557291389
 20
70.6112829807
 30
0.0
 10
36.3181407094
 20
70.6344374265
 30
0.0
 10
40.1398429351
 20
70.6655705361
 30
0.0
 10
44.9859847123
 20
70.7039430295
 30
0.0
 10
49.8319840969
 20
70.7423093935
 30
0.0
 10
53.6533003584
 20
70.7734428692
 30
0.0
 10
56.4136577453
 20
70.7966040651
 30
0.0
 10
59.065481284
 20
70.8197521116
 30
0.0
 10
61.583496961
 20
70.842878894
 30
0.0
 10
63.9435747321
 20
70.8659928012
 30
0.0
 10
66.1234227765
 20
70.8890832284
 30
0.0
 10
68.1025597623
 20
70.9121260812
 30
0.0
 10
69.6176025119
 20
70.9318989412
 30
0.0
 10
70.715027269
 20
70.9479307468
 30
0.0
 10
71.4473627059
 20
70.9595191299
 30
0.0
 10
72.1169061999
 20
70.9710955348
 30
0.0
 10
72.7221876579
 20
70.9826562841
 30
0.0
 10
73.2617370646
 20
70.9941957888
 30
0.0
 10
73.7340854948
 20
71.0057003266
 30
0.0
 10
74.137862154
 20
71.017164102
 30
0.0
 10
74.4309552209
 20
71.0271421651
 30
0.0
 10
74.6303879405
 20
71.0353174862
 30
0.0
 10
74.7535888144
 20
71.0410791242
 30
0.0
 10
74.8591401334
 20
71.0468225617
 30
0.0
 10
74.9470112623
 20
71.052523796
 30
0.0
 10
75.0171517979
 20
71.0581913714
 30
0.0
 10
75.0645110564
 20
71.0631493044
 30
0.0
 10
75.0934386853
 20
71.0673621986
 30
0.0
 10
75.1085582938
 20
71.0701554956
 30
0.0
 10
75.1191795138
 20
71.0729207862
 30
0.0
 10
75.1248140322
 20
71.0750898087
 30
0.0
 10
75.1266199837
 20
71.0764444296
 30
0.0
  0
SPLINE
  5
2AB
100
AcDbEntity
  8
0
100
AcDbSpline
 62
7
  6
CONTINUOUS
 70
0
 71
3
 72
34
 73
30
 74
0
 42
0.0000001
 43
0.0000001
 44
0.0000000001
 40
0.0
 40
0.0
 40
0.0
 40
0.0
 40
0.0002128393
 40
0.0005655692
 40
0.0010636059
 40
0.0017088315
 40
0.0034441255
 40
0.0057743995
 40
0.0086975695
 40
0.0122105689
 40
0.0163101034
 40
0.0209927673
 40
0.0320935603
 40
0.0454848714
 40
0.0611383255
 40
0.0790254215
 40
0.0991161877
 40
0.1213608659
 40
0.1456950803
 40
0.1720540955
 40
0.2305875246
 40
0.296441851
 40
0.3690149871
 40
0.4475716389
 40
0.5313644273
 40
0.6196322623
 40
0.7115221886
 40
0.8061434641
 40
1.0
 40
1.0
 40
1.0
 40
1.0
 10
13.8312638829
 20
63.582132213
 30
0.0
 10
13.8329898926
 20
63.5835127551
 30
0.0
 10
13.8386050476
 20
63.5856774362
 30
0.0
 10
13.8492319069
 20
63.5884393351
 30
0.0
 10
13.8645585772
 20
63.5912258814
 30
0.0
 10
13.8941354013
 20
63.5954489186
 30
0.0
 10
13.9428305046
 20
63.6004042786
 30
0.0
 10
14.0151772074
 20
63.6060682693
 30
0.0
 10
14.1060387515
 20
63.6117672371
 30
0.0
 10
14.2152946318
 20
63.6175106391
 30
0.0
 10
14.3428438894
 20
63.6232728349
 30
0.0
 10
14.5491552448
 20
63.6314461633
 30
0.0
 10
14.8519559247
 20
63.641421991
 30
0.0
 10
15.268685804
 20
63.6528983037
 30
0.0
 10
15.755909176
 20
63.6644140281
 30
0.0
 10
16.3127180979
 20
63.6759624979
 30
0.0
 10
16.9379855448
 20
63.687524982
 30
0.0
 10
17.6302123147
 20
63.6991005454
 30
0.0
 10
18.387539026
 20
63.7106895372
 30
0.0
 10
19.5216774092
 20
63.7267190922
 30
0.0
 10
21.0869652574
 20
63.7465146821
 30
0.0
 10
23.1321530223
 20
63.7695719839
 30
0.0
 10
25.3852812436
 20
63.7926540147
 30
0.0
 10
27.8246978319
 20
63.8157760934
 30
0.0
 10
30.4271007727
 20
63.8389227508
 30
0.0
 10
33.1679666443
 20
63.8620752285
 30
0.0
 10
36.0212834077
 20
63.8852386961
 30
0.0
 10
39.9710448562
 20
63.9163882113
 30
0.0
 10
42.9666210062
 20
63.9393416982
 30
0.0
 10
44.979642399
 20
63.954768937
 30
0.0
  0
SPLINE
  5
2AC
100
AcDbEntity
  8
0
100
AcDbSpline
 62
7
  6
CONTINUOUS
 70
0
 71
3
 72
34
 73
30
 74
0
 42
0.0000001
 43
0.0000001
 44
0.0000000001
 40
0.0
 40
0.0
 40
0.0
 40
0.0
 40
0.0002227024
 40
0.0005861017
 40
0.0010954287
 40
0.0017522064
 40
0.0035095363
 40
0.0058585629
 40
0.0087977695
 40
0.0123250769
 40
0.0164381649
 40
0.0211342361
 40
0.0322611405
 40
0.0456768615
 40
0.061351522
 40
0.0792501706
 40
0.099335511
 40
0.1215676655
 40
0.1458939647
 40
0.1722577761
 40
0.2308400268
 40
0.2967164426
 40
0.3692464198
 40
0.4477602516
 40
0.5315409935
 40
0.6197886173
 40
0.7116439309
 40
0.806222015
 40
1.0
 40
1.0
 40
1.0
 40
1.0
 10
13.8314136912
 20
78.5819292629
 30
0.0
 10
13.8332605474
 20
78.5833211177
 30
0.0
 10
13.8390791507
 20
78.5855152432
 30
0.0
 10
13.850056644
 20
78.5882786757
 30
0.0
 10
13.8657392285
 20
78.5910244326
 30
0.0
 10
13.8958073027
 20
78.5951163775
 30
0.0
 10
13.9450700744
 20
78.5998262678
 30
0.0
 10
14.0180356232
 20
78.605131762
 30
0.0
 10
14.1094312811
 20
78.6104176359
 30
0.0
 10
14.2191638881
 20
78.6157356994
 30
0.0
 10
14.3471576957
 20
78.6211044183
 30
0.0
 10
14.5540361788
 20
78.6288127359
 30
0.0
 10
14.8575083591
 20
78.6384400899
 30
0.0
 10
15.2749790989
 20
78.6499020365
 30
0.0
 10
15.7627794313
 20
78.661899927
 30
0.0
 10
16.3198503386
 20
78.6742121146
 30
0.0
 10
16.9450304703
 20
78.6865499275
 30
0.0
 10
17.6369731798
 20
78.6986400276
 30
0.0
 10
18.3941274934
 20
78.7103985418
 30
0.0
 10
19.5287347981
 20
78.7260563522
 30
0.0
 10
21.0948150495
 20
78.74408283
 30
0.0
 10
23.1402802766
 20
78.7662100123
 30
0.0
 10
25.3927120414
 20
78.7902771352
 30
0.0
 10
27.8310653265
 20
78.8155516757
 30
0.0
 10
30.4326644992
 20
78.8385947851
 30
0.0
 10
33.1728218956
 20
78.8601326438
 30
0.0
 10
36.0251031358
 20
78.8819429385
 30
0.0
 10
39.9731979115
 20
78.9135576306
 30
0.0
 10
42.967455446
 20
78.9396634234
 30
0.0
 10
44.9796458358
 20
78.9544641703
 30
0.0
  0
SPLINE
  5
2AD
100
AcDbEntity
  8
0
100
AcDbSpline
 62
7
  6
CONTINUOUS
 70
0
 71
3
 72
14
 73
10
 74
0
 42
0.0000001
 43
0.0000001
 44
0.0000000001
 40
0.0
 40
0.0
 40
0.0
 40
0.0
 40
0.1098758232
 40
0.222123814
 40
0.3386461638
 40
0.4608484974
 40
0.5890981228
 40
0.7228129906
 40
1.0
 40
1.0
 40
1.0
 40
1.0
 10
14.7961260767
 20
46.704491057
 30
0.0
 10
14.7186778822
 20
46.704491057
 30
0.0
 10
14.5614698091
 20
46.7239712372
 30
0.0
 10
14.3365147482
 20
46.8099225196
 30
0.0
 10
14.1297537423
 20
46.94940085
 30
0.0
 10
13.9489027347
 20
47.1367202223
 30
0.0
 10
13.8005630843
 20
47.3651799962
 30
0.0
 10
13.651854039
 20
47.7163754346
 30
0.0
 10
13.6069081423
 20
48.0091101916
 30
0.0
 10
13.6069081423
 20
48.204491057
 30
0.0
  0
SPLINE
  5
2AE
100
AcDbEntity
  8
0
100
AcDbSpline
 62
7
  6
CONTINUOUS
 70
0
 71
3
 72
61
 73
57
 74
0
 42
0.0000001
 43
0.0000001
 44
0.0000000001
 40
0.0
 40
0.0
 40
0.0
 40
0.0
 40
0.0001124822
 40
0.0002950349
 40
0.0005500255
 40
0.0008781688
 40
0.0017547061
 40
0.0029251049
 40
0.0043888633
 40
0.0061452063
 40
0.0081932426
 40
0.010532023
 40
0.0160778639
 40
0.0227747035
 40
0.030612943
 40
0.0395713077
 40
0.0496227965
 40
0.0607403465
 40
0.0728968811
 40
0.0860653144
 40
0.1153282283
 40
0.1482596492
 40
0.1845222412
 40
0.2237739976
 40
0.2656623298
 40
0.3097781156
 40
0.355693405
 40
0.4029797968
 40
0.4998703165
 40
0.5967579355
 40
0.6440541491
 40
0.6899864092
 40
0.7341073296
 40
0.7759991677
 40
0.8152794858
 40
0.8515679185
 40
0.8844997031
 40
0.9137841173
 40
0.9269745803
 40
0.9391524308
 40
0.9502840898
 40
0.9603381902
 40
0.9692950921
 40
0.9771390562
 40
0.9838543813
 40
0.9894254333
 40
0.9917770128
 40
0.9938367356
 40
0.9956027218
 40
0.9970731504
 40
0.9982465706
 40
0.9991233883
 40
0.9994511207
 40
0.9997055879
 40
0.9998876966
 40
1.0
 40
1.0
 40
1.0
 40
1.0
 10
14.8322043221
 20
68.8313517132
 30
0.0
 10
14.8340131059
 20
68.8327083968
 30
0.0
 10
14.839664669
 20
68.8348759359
 30
0.0
 10
14.850317599
 20
68.8376408676
 30
0.0
 10
14.8654892588
 20
68.8404332087
 30
0.0
 10
14.8945153891
 20
68.8446454351
 30
0.0
 10
14.9420241262
 20
68.8496021628
 30
0.0
 10
15.0123617018
 20
68.8552690789
 30
0.0
 10
15.1004375368
 20
68.8609697027
 30
0.0
 10
15.206178294
 20
68.8667126087
 30
0.0
 10
15.3295305484
 20
68.8724737317
 30
0.0
 10
15.5290231752
 20
68.880645605
 30
0.0
 10
15.8219626953
 20
68.8906216045
 30
0.0
 10
16.2254531875
 20
68.9020947838
 30
0.0
 10
16.6975627646
 20
68.9135981374
 30
0.0
 10
17.2371214341
 20
68.9251341928
 30
0.0
 10
17.8426113695
 20
68.9366923637
 30
0.0
 10
18.5123988288
 20
68.9482665968
 30
0.0
 10
19.2448492006
 20
68.9598529846
 30
0.0
 10
20.3420194146
 20
68.9758829461
 30
0.0
 10
21.8567803149
 20
68.9956649982
 30
0.0
 10
23.8357583855
 20
69.0186983172
 30
0.0
 10
26.0155368376
 20
69.0417822314
 30
0.0
 10
28.3753696627
 20
69.0649001655
 30
0.0
 10
30.8930688099
 20
69.0880263452
 30
0.0
 10
33.5447187623
 20
69.1111694165
 30
0.0
 10
36.3048805151
 20
69.1343277174
 30
0.0
 10
40.12585303
 20
69.1654633608
 30
0.0
 10
44.9714103687
 20
69.2038237029
 30
0.0
 10
49.8171650795
 20
69.242192171
 30
0.0
 10
53.6386178838
 20
69.273325638
 30
0.0
 10
56.3994214843
 20
69.2964781178
 30
0.0
 10
59.0515862586
 20
69.3196233969
 30
0.0
 10
61.5700331573
 20
69.3427595343
 30
0.0
 10
63.9310301426
 20
69.3658694325
 30
0.0
 10
66.1119096551
 20
69.3889418565
 30
0.0
 10
68.0918464968
 20
69.4119946627
 30
0.0
 10
69.607489759
 20
69.4317777665
 30
0.0
 10
70.7059637309
 20
69.4477984705
 30
0.0
 10
71.4395692045
 20
69.4593818551
 30
0.0
 10
72.1101214309
 20
69.4709522838
 30
0.0
 10
72.7159180661
 20
69.482513844
 30
0.0
 10
73.2556147716
 20
69.4940574461
 30
0.0
 10
73.7281815275
 20
69.5055683135
 30
0.0
 10
74.1326658626
 20
69.5170397718
 30
0.0
 10
74.4267418166
 20
69.5270100233
 30
0.0
 10
74.6272343918
 20
69.5351779885
 30
0.0
 10
74.7512734787
 20
69.5409378354
 30
0.0
 10
74.8575779788
 20
69.5466789761
 30
0.0
 10
74.9460435221
 20
69.5523763032
 30
0.0
 10
75.0165823051
 20
69.5580425119
 30
0.0
 10
75.0641493013
 20
69.5630015702
 30
0.0
 10
75.0931619917
 20
69.5672164789
 30
0.0
 10
75.1083049802
 20
69.5700097169
 30
0.0
 10
75.1189349432
 20
69.5727749865
 30
0.0
 10
75.1245711575
 20
69.5749446813
 30
0.0
 10
75.1263770325
 20
69.5762992535
 30
0.0
  0
SPLINE
  5
2AF
100
AcDbEntity
  8
0
100
AcDbSpline
 62
7
  6
CONTINUOUS
 70
0
 71
3
 72
14
 73
10
 74
0
 42
0.0000001
 43
0.0000001
 44
0.0000000001
 40
0.0
 40
0.0
 40
0.0
 40
0.0
 40
0.1139331465
 40
0.2298243254
 40
0.3488767585
 40
0.4720374742
 40
0.5995049793
 40
0.7308298839
 40
1.0
 40
1.0
 40
1.0
 40
1.0
 10
20.7673987074
 20
46.704491057
 30
0.0
 10
20.6845146322
 20
46.704491057
 30
0.0
 10
20.5167291576
 20
46.7238888355
 30
0.0
 10
20.275639628
 20
46.8093459178
 30
0.0
 10
20.052935493
 20
46.948273012
 30
0.0
 10
19.8571964123
 20
47.1352418291
 30
0.0
 10
19.6960122783
 20
47.3637158003
 30
0.0
 10
19.5345428948
 20
47.7138490069
 30
0.0
 10
19.4847606652
 20
48.0086752051
 30
0.0
 10
19.4847606652
 20
48.204491057
 30
0.0
  0
SPLINE
  5
2B0
100
AcDbEntity
  8
0
100
AcDbSpline
 62
7
  6
CONTINUOUS
 70
0
 71
3
 72
34
 73
30
 74
0
 42
0.0000001
 43
0.0000001
 44
0.0000000001
 40
0.0
 40
0.0
 40
0.0
 40
0.0
 40
0.0002219969
 40
0.0005849948
 40
0.0010935334
 40
0.0017489487
 40
0.003501802
 40
0.0058441982
 40
0.008774964
 40
0.0122923904
 40
0.0163943332
 40
0.0210784103
 40
0.0321831384
 40
0.0455864724
 40
0.0612606334
 40
0.0791686993
 40
0.0992726201
 40
0.1215223394
 40
0.1458556876
 40
0.1722100505
 40
0.2307403477
 40
0.2966148635
 40
0.3691730068
 40
0.4477008939
 40
0.5314923223
 40
0.6197433771
 40
0.7115992052
 40
0.8061881345
 40
1.0
 40
1.0
 40
1.0
 40
1.0
 10
76.1282461251
 20
62.8272968261
 30
0.0
 10
76.1263912142
 20
62.8259279671
 30
0.0
 10
76.1205784647
 20
62.8237676735
 30
0.0
 10
76.1096206218
 20
62.8210014037
 30
0.0
 10
76.0939738316
 20
62.8182123505
 30
0.0
 10
76.063991509
 20
62.8139973013
 30
0.0
 10
76.0148830888
 20
62.8090414472
 30
0.0
 10
75.9421467733
 20
62.8033738373
 30
0.0
 10
75.851034185
 20
62.7976730752
 30
0.0
 10
75.7416274718
 20
62.7919298748
 30
0.0
 10
75.6139918138
 20
62.7861686115
 30
0.0
 10
75.4075986478
 20
62.7779970789
 30
0.0
 10
75.1046158561
 20
62.7680216895
 30
0.0
 10
74.6875027213
 20
62.7565498704
 30
0.0
 10
74.199718807
 20
62.7450403231
 30
0.0
 10
73.6423373019
 20
62.7334965425
 30
0.0
 10
73.0166596888
 20
62.7219365222
 30
0.0
 10
72.3242491893
 20
62.7103639452
 30
0.0
 10
71.5669233385
 20
62.6987783617
 30
0.0
 10
70.4328686941
 20
62.6827517125
 30
0.0
 10
68.8674436328
 20
62.6629571045
 30
0.0
 10
66.8222232786
 20
62.6399192311
 30
0.0
 10
64.569327772
 20
62.6168379966
 30
0.0
 10
62.1303666767
 20
62.5937169264
 30
0.0
 10
59.5284368005
 20
62.5705850863
 30
0.0
 10
56.7880987476
 20
62.5474356758
 30
0.0
 10
53.9356310086
 20
62.5242719772
 30
0.0
 10
49.9870019377
 20
62.4931765804
 30
0.0
 10
46.9922105181
 20
62.4701007855
 30
0.0
 10
44.9796415368
 20
62.4547681984
 30
0.0
  0
SPLINE
  5
2B1
100
AcDbEntity
  8
0
100
AcDbSpline
 62
7
  6
CONTINUOUS
 70
0
 71
3
 72
61
 73
57
 74
0
 42
0.0000001
 43
0.0000001
 44
0.0000000001
 40
0.0
 40
0.0
 40
0.0
 40
0.0
 40
0.0001164621
 40
0.0003028613
 40
0.0005613858
 40
0.0008927223
 40
0.0017746408
 40
0.0029491639
 40
0.0044159159
 40
0.0061743891
 40
0.0082243133
 40
0.0105654178
 40
0.0161199325
 40
0.0228344246
 40
0.0306924324
 40
0.0396680407
 40
0.049735016
 40
0.0608663523
 40
0.0730345429
 40
0.0862120219
 40
0.1154826335
 40
0.1484353747
 40
0.1847290504
 40
0.2239981545
 40
0.2658853606
 40
0.3100080229
 40
0.3559434162
 40
0.4032376764
 40
0.500126144
 40
0.5970114873
 40
0.644305265
 40
0.6902242894
 40
0.7343263737
 40
0.7762058472
 40
0.8154795789
 40
0.8517461589
 40
0.8846540668
 40
0.9139092769
 40
0.9270879671
 40
0.9392585432
 40
0.9503862494
 40
0.9604361143
 40
0.9693807187
 40
0.9772056756
 40
0.9838979409
 40
0.9894454867
 40
0.9917867178
 40
0.9938378911
 40
0.995597773
 40
0.9970651864
 40
0.9982390578
 40
0.9991185796
 40
0.9994479356
 40
0.9997039
 40
0.9998871471
 40
1.0
 40
1.0
 40
1.0
 40
1.0
 10
14.8322581513
 20
79.332657359
 30
0.0
 10
14.8341761209
 20
79.3339998388
 30
0.0
 10
14.8399792298
 20
79.3361671678
 30
0.0
 10
14.8508768412
 20
79.3389365522
 30
0.0
 10
14.8662592442
 20
79.341733028
 30
0.0
 10
14.8955354898
 20
79.3459411847
 30
0.0
 10
14.9433000828
 20
79.3509000225
 30
0.0
 10
15.0138931585
 20
79.3565680875
 30
0.0
 10
15.1021579729
 20
79.3622701636
 30
0.0
 10
15.2080438016
 20
79.3680141315
 30
0.0
 10
15.3315280767
 20
79.3737760846
 30
0.0
 10
15.5312871057
 20
79.3819505311
 30
0.0
 10
15.8248133811
 20
79.3919308776
 30
0.0
 10
16.2292456941
 20
79.4033965243
 30
0.0
 10
16.702471571
 20
79.4148990886
 30
0.0
 10
17.2431053084
 20
79.4264371996
 30
0.0
 10
17.8495524302
 20
79.4379949107
 30
0.0
 10
18.520187054
 20
79.44956762
 30
0.0
 10
19.2533573471
 20
79.4611526314
 30
0.0
 10
20.351138304
 20
79.4771789364
 30
0.0
 10
21.8667191343
 20
79.4969734556
 30
0.0
 10
23.8469771788
 20
79.5200042643
 30
0.0
 10
26.0282369155
 20
79.5430787208
 30
0.0
 10
28.3891062398
 20
79.5661918132
 30
0.0
 10
30.9073608218
 20
79.5893288323
 30
0.0
 10
33.5596265452
 20
79.6124748727
 30
0.0
 10
36.3205889075
 20
79.6356243335
 30
0.0
 10
40.1422209225
 20
79.6667559492
 30
0.0
 10
44.9880248592
 20
79.7051275525
 30
0.0
 10
49.8338191577
 20
79.7434915809
 30
0.0
 10
53.655049634
 20
79.7746198658
 30
0.0
 10
56.4152594928
 20
79.7977778519
 30
0.0
 10
59.066627003
 20
79.8209271061
 30
0.0
 10
61.5844055145
 20
79.844061001
 30
0.0
 10
63.9446678501
 20
79.8671603815
 30
0.0
 10
66.1245745654
 20
79.8902408505
 30
0.0
 10
68.1030767219
 20
79.9132928256
 30
0.0
 10
69.617471065
 20
79.9330779239
 30
0.0
 10
70.7150147897
 20
79.9490978908
 30
0.0
 10
71.4481844494
 20
79.9606804748
 30
0.0
 10
72.1184501052
 20
79.9722500305
 30
0.0
 10
72.7238569119
 20
79.9838063449
 30
0.0
 10
73.2628585736
 20
79.9953508527
 30
0.0
 10
73.7343492858
 20
80.006862673
 30
0.0
 10
74.1375295949
 20
80.0183349643
 30
0.0
 10
74.430471388
 20
80.0283079103
 30
0.0
 10
74.6301180963
 20
80.036476528
 30
0.0
 10
74.7536585153
 20
80.0422369727
 30
0.0
 10
74.8596111121
 20
80.047979365
 30
0.0
 10
74.9479050132
 20
80.0536797292
 30
0.0
 10
75.0184490639
 20
80.059346614
 30
0.0
 10
75.0661145418
 20
80.0643030181
 30
0.0
 10
75.0952467229
 20
80.0685151013
 30
0.0
 10
75.1104779423
 20
80.0713072382
 30
0.0
 10
75.1211732643
 20
80.0740725456
 30
0.0
 10
75.1268484689
 20
80.0762391143
 30
0.0
 10
75.1286656855
 20
80.0775971046
 30
0.0
  0
SPLINE
  5
2B2
100
AcDbEntity
  8
0
100
AcDbSpline
 62
7
  6
CONTINUOUS
 70
0
 71
3
 72
16
 73
12
 74
0
 42
0.0000001
 43
0.0000001
 44
0.0000000001
 40
0.0
 40
0.0
 40
0.0
 40
0.0
 40
0.0246050764
 40
0.0518945422
 40
0.0838239098
 40
0.1215420398
 40
0.2160480314
 40
0.3362250181
 40
0.4796086708
 40
0.6418644322
 40
1.0
 40
1.0
 40
1.0
 40
1.0
 10
29.7601176221
 20
46.704491057
 30
0.0
 10
29.7468419166
 20
46.704491057
 30
0.0
 10
29.7186634934
 20
46.709913152
 30
0.0
 10
29.6789503984
 20
46.7327516198
 30
0.0
 10
29.6409429772
 20
46.7692142699
 30
0.0
 10
29.5885137529
 20
46.8409807711
 30
0.0
 10
29.5303943282
 20
46.9652318485
 30
0.0
 10
29.4729068995
 20
47.1499168618
 30
0.0
 10
29.4255833666
 20
47.3750589825
 30
0.0
 10
29.3769636759
 20
47.7300526551
 30
0.0
 10
29.363613593
 20
48.0112584784
 30
0.0
 10
29.363613593
 20
48.204491057
 30
0.0
  0
SPLINE
  5
2B3
100
AcDbEntity
  8
0
100
AcDbSpline
 62
7
  6
CONTINUOUS
 70
0
 71
3
 72
61
 73
57
 74
0
 42
0.0000001
 43
0.0000001
 44
0.0000000001
 40
0.0
 40
0.0
 40
0.0
 40
0.0
 40
0.0001124773
 40
0.0002951892
 40
0.0005507417
 40
0.000880078
 40
0.0017610223
 40
0.0029380689
 40
0.0044101548
 40
0.0061759429
 40
0.0082339798
 40
0.0105827544
 40
0.0161463173
 40
0.0228541122
 40
0.0306934637
 40
0.0396516158
 40
0.04971101
 40
0.0608423908
 40
0.0730147337
 40
0.0861970045
 40
0.1154671619
 40
0.1484004273
 40
0.1846816586
 40
0.2239465417
 40
0.2658294155
 40
0.3099478638
 40
0.355870043
 40
0.4031550321
 40
0.5000325262
 40
0.5969108665
 40
0.644193185
 40
0.6901112057
 40
0.7342280766
 40
0.7761102461
 40
0.8153679662
 40
0.8516425983
 40
0.8845762362
 40
0.9138403923
 40
0.9270172803
 40
0.9391843842
 40
0.9503119692
 40
0.9603703096
 40
0.9693297758
 40
0.9771671544
 40
0.9838701372
 40
0.9894275396
 40
0.9917731942
 40
0.9938283331
 40
0.9955916315
 40
0.9970618221
 40
0.9982377534
 40
0.9991185462
 40
0.9994482199
 40
0.9997042797
 40
0.9998873961
 40
1.0
 40
1.0
 40
1.0
 40
1.0
 10
14.8324119755
 20
76.3314760481
 30
0.0
 10
14.8342206912
 20
76.3328326881
 30
0.0
 10
14.8398753128
 20
76.335001369
 30
0.0
 10
14.8505432321
 20
76.3377663053
 30
0.0
 10
14.8657542723
 20
76.3405585712
 30
0.0
 10
14.8949056581
 20
76.344771499
 30
0.0
 10
14.9426626785
 20
76.3497256187
 30
0.0
 10
15.0133917544
 20
76.355390689
 30
0.0
 10
15.1019603222
 20
76.3610897026
 30
0.0
 10
15.2082610741
 20
76.366831506
 30
0.0
 10
15.3322067917
 20
76.3725916362
 30
0.0
 10
15.5324599943
 20
76.3807590817
 30
0.0
 10
15.8261797945
 20
76.3907303606
 30
0.0
 10
16.2302726141
 20
76.402202105
 30
0.0
 10
16.7026241771
 20
76.4137129162
 30
0.0
 10
17.2423641554
 20
76.4252532272
 30
0.0
 10
17.8482918032
 20
76.4368071259
 30
0.0
 10
18.5188395449
 20
76.4483779376
 30
0.0
 10
19.2521699349
 20
76.4599613239
 30
0.0
 10
20.3500907453
 20
76.4759825597
 30
0.0
 10
21.8653246842
 20
76.4957695482
 30
0.0
 10
23.8448760908
 20
76.5188078925
 30
0.0
 10
26.0253479373
 20
76.5418799196
 30
0.0
 10
28.3857287267
 20
76.5649917559
 30
0.0
 10
30.9036558223
 20
76.5881249362
 30
0.0
 10
33.5554095413
 20
76.6112629919
 30
0.0
 10
36.3157574678
 20
76.6344153052
 30
0.0
 10
40.1366093341
 20
76.6655480999
 30
0.0
 10
44.9817292601
 20
76.7039081513
 30
0.0
 10
49.8267955209
 20
76.7422658339
 30
0.0
 10
53.6475271102
 20
76.7733994716
 30
0.0
 10
56.4077060371
 20
76.7965529609
 30
0.0
 10
59.0593302942
 20
76.8196907955
 30
0.0
 10
61.5770675558
 20
76.8428212537
 30
0.0
 10
63.9371575162
 20
76.8659350476
 30
0.0
 10
66.1173601567
 20
76.8890104345
 30
0.0
 10
68.0966658143
 20
76.91204289
 30
0.0
 10
69.6116783798
 20
76.9318306321
 30
0.0
 10
70.7092649798
 20
76.9478537809
 30
0.0
 10
71.4423055059
 20
76.9594378144
 30
0.0
 10
72.1126504089
 20
76.9710093664
 30
0.0
 10
72.7185069566
 20
76.9825640458
 30
0.0
 10
73.2582126004
 20
76.994099788
 30
0.0
 10
73.7304541704
 20
77.0056104674
 30
0.0
 10
74.1342866557
 20
77.017082614
 30
0.0
 10
74.427722984
 20
77.0270550643
 30
0.0
 10
74.6277311462
 20
77.0352233698
 30
0.0
 10
74.7515056523
 20
77.0409837273
 30
0.0
 10
74.8576597798
 20
77.046725829
 30
0.0
 10
74.9461175027
 20
77.0524255026
 30
0.0
 10
75.0167827562
 20
77.0580913551
 30
0.0
 10
75.0645208466
 20
77.0630465858
 30
0.0
 10
75.0936863386
 20
77.0672581898
 30
0.0
 10
75.1089233053
 20
77.0700493666
 30
0.0
 10
75.1196124496
 20
77.0728130763
 30
0.0
 10
75.1252796614
 20
77.0749810162
 30
0.0
 10
75.1270903983
 20
77.0763392039
 30
0.0
  0
SPLINE
  5
2B4
100
AcDbEntity
  8
0
100
AcDbSpline
 62
7
  6
CONTINUOUS
 70
0
 71
3
 72
17
 73
13
 74
0
 42
0.0000001
 43
0.0000001
 44
0.0000000001
 40
0.0
 40
0.0
 40
0.0
 40
0.0
 40
0.0312022066
 40
0.0644369214
 40
0.1011742284
 40
0.1424415853
 40
0.2405309029
 40
0.3604053099
 40
0.5004224341
 40
0.6570050862
 40
0.8255014482
 40
1.0
 40
1.0
 40
1.0
 40
1.0
 10
39.4218396947
 20
46.704491057
 30
0.0
 10
39.4042238952
 20
46.704491057
 30
0.0
 10
39.3676897155
 20
46.7096381344
 30
0.0
 10
39.3145415308
 20
46.7318925266
 30
0.0
 10
39.2627628793
 20
46.7681246147
 30
0.0
 10
39.1920358807
 20
46.8385217752
 30
0.0
 10
39.1111435774
 20
46.962103105
 30
0.0
 10
39.0301048907
 20
47.1478052702
 30
0.0
 10
38.962912039
 20
47.37364687
 30
0.0
 10
38.912468408
 20
47.6316654824
 30
0.0
 10
38.8812225378
 20
47.9122536533
 30
0.0
 10
38.874178756
 20
48.105974579
 30
0.0
 10
38.874178756
 20
48.204491057
 30
0.0
  0
SPLINE
  5
2B5
100
AcDbEntity
  8
0
100
AcDbSpline
 62
7
  6
CONTINUOUS
 70
0
 71
3
 72
34
 73
30
 74
0
 42
0.0000001
 43
0.0000001
 44
0.0000000001
 40
0.0
 40
0.0
 40
0.0
 40
0.0
 40
0.0002186288
 40
0.0005765941
 40
0.0010788103
 40
0.0017269138
 40
0.0034632906
 40
0.0057885566
 40
0.0087036922
 40
0.0122091126
 40
0.0163035765
 40
0.0209839603
 40
0.0320892511
 40
0.0454982162
 40
0.0611779498
 40
0.0790849038
 40
0.0991743403
 40
0.1214004839
 40
0.1457160428
 40
0.1720731859
 40
0.2306473781
 40
0.2965062685
 40
0.3690464174
 40
0.4476110031
 40
0.5314164208
 40
0.6196688191
 40
0.7115403566
 40
0.8061538098
 40
1.0
 40
1.0
 40
1.0
 40
1.0
 10
13.831897588
 20
59.0816200899
 30
0.0
 10
13.8337091608
 20
59.0829884324
 30
0.0
 10
13.8394303878
 20
59.0851525008
 30
0.0
 10
13.8502291033
 20
59.0879177374
 30
0.0
 10
13.8656793179
 20
59.0907074631
 30
0.0
 10
13.8953443192
 20
59.0949252523
 30
0.0
 10
13.9440248057
 20
59.0998829139
 30
0.0
 10
14.016246126
 20
59.1055511791
 30
0.0
 10
14.1068906253
 20
59.1112527201
 30
0.0
 10
14.2159292586
 20
59.1169962721
 30
0.0
 10
14.343320624
 20
59.1227575205
 30
0.0
 10
14.5495979114
 20
59.1309326663
 30
0.0
 10
14.8525986393
 20
59.1409089448
 30
0.0
 10
15.2698229203
 20
59.1523811172
 30
0.0
 10
15.7576987492
 20
59.163889314
 30
0.0
 10
16.3149613698
 20
59.1754321796
 30
0.0
 10
16.9402154712
 20
59.1869959971
 30
0.0
 10
17.6320274564
 20
59.1985756703
 30
0.0
 10
18.3889324062
 20
59.2101677223
 30
0.0
 10
19.5232568984
 20
59.2261991504
 30
0.0
 10
21.0889631329
 20
59.2459745112
 30
0.0
 10
23.1342357111
 20
59.2690320057
 30
0.0
 10
25.3871033161
 20
59.2921264272
 30
0.0
 10
27.8263393163
 20
59.315239266
 30
0.0
 10
30.428740464
 20
59.3383761928
 30
0.0
 10
33.169328156
 20
59.3615309713
 30
0.0
 10
36.0221519571
 20
59.3846999354
 30
0.0
 10
39.9714504103
 20
59.4158142907
 30
0.0
 10
42.9667739275
 20
59.4388365252
 30
0.0
 10
44.9796456352
 20
59.4542141611
 30
0.0
  0
SPLINE
  5
2B6
100
AcDbEntity
  8
0
100
AcDbSpline
 62
7
  6
CONTINUOUS
 70
0
 71
3
 72
58
 73
54
 74
0
 42
0.0000001
 43
0.0000001
 44
0.0000000001
 40
0.0
 40
0.0
 40
0.0
 40
0.0
 40
0.0001122234
 40
0.0002939899
 40
0.0005477544
 40
0.0008743281
 40
0.0017470797
 40
0.0029134687
 40
0.0043737555
 40
0.0061279254
 40
0.0081758468
 40
0.01051733
 40
0.0160775744
 40
0.0227914756
 40
0.0306376276
 40
0.0395945527
 40
0.0496407365
 40
0.0607546427
 40
0.0729147218
 40
0.0860970954
 40
0.1153852265
 40
0.1483152699
 40
0.2038651693
 40
0.2657567283
 40
0.332635512
 40
0.4031004323
 40
0.4756318588
 40
0.5486799112
 40
0.620694707
 40
0.6901275341
 40
0.7554963487
 40
0.7862247934
 40
0.8154205924
 40
0.8429198146
 40
0.8685864356
 40
0.8922908671
 40
0.9139035302
 40
0.9332953566
 40
0.9503598656
 40
0.9650220004
 40
0.9714294687
 40
0.9772091039
 40
0.9823518472
 40
0.9868486615
 40
0.990690663
 40
0.9938726318
 40
0.9963936663
 40
0.9974062178
 40
0.9982534649
 40
0.9989355338
 40
0.9994527882
 40
0.9998062704
 40
1.0
 40
1.0
 40
1.0
 40
1.0
 10
14.8331038216
 20
59.8313783481
 30
0.0
 10
14.8349083913
 20
59.832731911
 30
0.0
 10
14.8405346639
 20
59.8349017881
 30
0.0
 10
14.8511414425
 20
59.8376672651
 30
0.0
 10
14.8662387405
 20
59.840461037
 30
0.0
 10
14.8951308215
 20
59.8446746042
 30
0.0
 10
14.9424490965
 20
59.84963333
 30
0.0
 10
15.0125582066
 20
59.8553012234
 30
0.0
 10
15.1004379093
 20
59.861002694
 30
0.0
 10
15.2060607723
 20
59.8667463369
 30
0.0
 10
15.3294190956
 20
59.8725081811
 30
0.0
 10
15.5292497377
 20
59.8806844659
 30
0.0
 10
15.8228713986
 20
59.8906527454
 30
0.0
 10
16.2271465066
 20
59.9021191297
 30
0.0
 10
16.6997205335
 20
59.9136269073
 30
0.0
 10
17.23929269
 20
59.9251688062
 30
0.0
 10
17.8445626217
 20
59.9367313223
 30
0.0
 10
18.5142291334
 20
59.9483091314
 30
0.0
 10
19.2469443384
 20
59.9598979628
 30
0.0
 10
20.3449530391
 20
59.9759215202
 30
0.0
 10
21.8604458039
 20
59.995697584
 30
0.0
 10
24.2275333626
 20
60.0232569054
 30
0.0
 10
27.2499804227
 20
60.0544112762
 30
0.0
 10
30.9548288398
 20
60.0888139221
 30
0.0
 10
34.9594940689
 20
60.1233065228
 30
0.0
 10
39.1780376689
 20
60.1578254504
 30
0.0
 10
43.5205930486
 20
60.1923724977
 30
0.0
 10
47.894303262
 20
60.2269276452
 30
0.0
 10
52.2057269566
 20
60.2614654322
 30
0.0
 10
56.3627859577
 20
60.2959796743
 30
0.0
 10
59.6899654945
 20
60.3252766115
 30
0.0
 10
62.2083608932
 20
60.3489589369
 30
0.0
 10
63.9655677176
 20
60.3663447077
 30
0.0
 10
65.6210219662
 20
60.3837280734
 30
0.0
 10
67.166088306
 20
60.4010986576
 30
0.0
 10
68.592821569
 20
60.4184500063
 30
0.0
 10
69.8934158664
 20
60.4357742203
 30
0.0
 10
71.0605290865
 20
60.4530680208
 30
0.0
 10
72.0879134125
 20
60.4703334723
 30
0.0
 10
72.8543008973
 20
60.4852482151
 30
0.0
 10
73.3938595563
 20
60.4973793314
 30
0.0
 10
73.7420979305
 20
60.5060526736
 30
0.0
 10
74.0519178457
 20
60.514708892
 30
0.0
 10
74.3227725723
 20
60.5233433962
 30
0.0
 10
74.5541940924
 20
60.5319404741
 30
0.0
 10
74.7458654422
 20
60.5405029723
 30
0.0
 10
74.8806586821
 20
60.5479831905
 30
0.0
 10
74.9684909379
 20
60.5541978309
 30
0.0
 10
75.0194270501
 20
60.558470412
 30
0.0
 10
75.0602938281
 20
60.562757417
 30
0.0
 10
75.0913705379
 20
60.5668308815
 30
0.0
 10
75.1121164096
 20
60.5710525373
 30
0.0
 10
75.1230723789
 20
60.5740671599
 30
0.0
 10
75.1261875492
 20
60.5764038412
 30
0.0
  0
SPLINE
  5
2B7
100
AcDbEntity
  8
0
100
AcDbSpline
 62
7
  6
CONTINUOUS
 70
0
 71
3
 72
58
 73
54
 74
0
 42
0.0000001
 43
0.0000001
 44
0.0000000001
 40
0.0
 40
0.0
 40
0.0
 40
0.0
 40
0.0001122234
 40
0.0002939899
 40
0.0005477544
 40
0.0008743281
 40
0.0017470797
 40
0.0029134687
 40
0.0043737555
 40
0.0061279254
 40
0.0081758468
 40
0.01051733
 40
0.0160775744
 40
0.0227914756
 40
0.0306376276
 40
0.0395945527
 40
0.0496407365
 40
0.0607546427
 40
0.0729147218
 40
0.0860970954
 40
0.1153852265
 40
0.1483152699
 40
0.2038651693
 40
0.2657567283
 40
0.332635512
 40
0.4031004323
 40
0.4756318588
 40
0.5486799112
 40
0.620694707
 40
0.6901275341
 40
0.7554963487
 40
0.7862247934
 40
0.8154205924
 40
0.8429198146
 40
0.8685864356
 40
0.8922908671
 40
0.9139035302
 40
0.9332953566
 40
0.9503598656
 40
0.9650220004
 40
0.9714294687
 40
0.9772091039
 40
0.9823518472
 40
0.9868486615
 40
0.990690663
 40
0.9938726318
 40
0.9963936663
 40
0.9974062178
 40
0.9982534649
 40
0.9989355338
 40
0.9994527882
 40
0.9998062704
 40
1.0
 40
1.0
 40
1.0
 40
1.0
 10
14.8331038216
 20
74.8313783481
 30
0.0
 10
14.8349083913
 20
74.832731911
 30
0.0
 10
14.8405346639
 20
74.8349017881
 30
0.0
 10
14.8511414425
 20
74.8376672651
 30
0.0
 10
14.8662387405
 20
74.840461037
 30
0.0
 10
14.8951308215
 20
74.8446746042
 30
0.0
 10
14.9424490965
 20
74.84963333
 30
0.0
 10
15.0125582066
 20
74.8553012234
 30
0.0
 10
15.1004379093
 20
74.861002694
 30
0.0
 10
15.2060607723
 20
74.8667463369
 30
0.0
 10
15.3294190956
 20
74.8725081811
 30
0.0
 10
15.5292497377
 20
74.8806844659
 30
0.0
 10
15.8228713986
 20
74.8906527454
 30
0.0
 10
16.2271465066
 20
74.9021191297
 30
0.0
 10
16.6997205335
 20
74.9136269073
 30
0.0
 10
17.23929269
 20
74.9251688062
 30
0.0
 10
17.8445626217
 20
74.9367313223
 30
0.0
 10
18.5142291334
 20
74.9483091314
 30
0.0
 10
19.2469443384
 20
74.9598979628
 30
0.0
 10
20.3449530391
 20
74.9759215202
 30
0.0
 10
21.8604458039
 20
74.995697584
 30
0.0
 10
24.2275333626
 20
75.0232569054
 30
0.0
 10
27.2499804227
 20
75.0544112762
 30
0.0
 10
30.9548288398
 20
75.0888139221
 30
0.0
 10
34.9594940689
 20
75.1233065228
 30
0.0
 10
39.1780376689
 20
75.1578254504
 30
0.0
 10
43.5205930486
 20
75.1923724977
 30
0.0
 10
47.894303262
 20
75.2269276452
 30
0.0
 10
52.2057269566
 20
75.2614654322
 30
0.0
 10
56.3627859577
 20
75.2959796743
 30
0.0
 10
59.6899654945
 20
75.3252766115
 30
0.0
 10
62.2083608932
 20
75.3489589369
 30
0.0
 10
63.9655677176
 20
75.3663447077
 30
0.0
 10
65.6210219662
 20
75.3837280734
 30
0.0
 10
67.166088306
 20
75.4010986576
 30
0.0
 10
68.592821569
 20
75.4184500063
 30
0.0
 10
69.8934158664
 20
75.4357742203
 30
0.0
 10
71.0605290865
 20
75.4530680208
 30
0.0
 10
72.0879134125
 20
75.4703334723
 30
0.0
 10
72.8543008973
 20
75.4852482151
 30
0.0
 10
73.3938595563
 20
75.4973793314
 30
0.0
 10
73.7420979305
 20
75.5060526736
 30
0.0
 10
74.0519178458
 20
75.514708892
 30
0.0
 10
74.3227725723
 20
75.5233433962
 30
0.0
 10
74.5541940924
 20
75.5319404741
 30
0.0
 10
74.7458654422
 20
75.5405029723
 30
0.0
 10
74.8806586821
 20
75.5479831905
 30
0.0
 10
74.9684909379
 20
75.5541978309
 30
0.0
 10
75.0194270501
 20
75.558470412
 30
0.0
 10
75.0602938281
 20
75.562757417
 30
0.0
 10
75.0913705379
 20
75.5668308815
 30
0.0
 10
75.1121164096
 20
75.5710525373
 30
0.0
 10
75.1230723789
 20
75.5740671599
 30
0.0
 10
75.1261875492
 20
75.5764038412
 30
0.0
  0
SPLINE
  5
2B8
100
AcDbEntity
  8
0
100
AcDbSpline
 62
7
  6
CONTINUOUS
 70
0
 71
3
 72
61
 73
57
 74
0
 42
0.0000001
 43
0.0000001
 44
0.0000000001
 40
0.0
 40
0.0
 40
0.0
 40
0.0
 40
0.000112309
 40
0.000294328
 40
0.0005484665
 40
0.0008754875
 40
0.0017491617
 40
0.0029161915
 40
0.0043764556
 40
0.0061295583
 40
0.0081749873
 40
0.0105121722
 40
0.0160593713
 40
0.022764269
 40
0.0306075636
 40
0.0395649925
 40
0.0496122423
 40
0.0607249776
 40
0.0728788494
 40
0.0860494997
 40
0.1153262029
 40
0.14825657
 40
0.1845155616
 40
0.2237767834
 40
0.2656728893
 40
0.3097887337
 40
0.3557064603
 40
0.403001787
 40
0.499900381
 40
0.5967959565
 40
0.644098367
 40
0.6900312216
 40
0.7341493143
 40
0.776047653
 40
0.8153322165
 40
0.8516109539
 40
0.8845411693
 40
0.9138320219
 40
0.9270225801
 40
0.9391951751
 40
0.9503165162
 40
0.9603648723
 40
0.9693215692
 40
0.9771679546
 40
0.9838854121
 40
0.9894553933
 40
0.9918043263
 40
0.9938595107
 40
0.9956191163
 40
0.9970829934
 40
0.9982515089
 40
0.9991253043
 40
0.9994521132
 40
0.9997059855
 40
0.9998877803
 40
1.0
 40
1.0
 40
1.0
 40
1.0
 10
14.8315132916
 20
64.3322062922
 30
0.0
 10
14.8333193395
 20
64.3335609207
 30
0.0
 10
14.8389540984
 20
64.3357299349
 30
0.0
 10
14.8495757567
 20
64.3384952281
 30
0.0
 10
14.8646959777
 20
64.3412885227
 30
0.0
 10
14.8936247685
 20
64.3455014176
 30
0.0
 10
14.9409859047
 20
64.3504593498
 30
0.0
 10
15.0111292046
 20
64.3561269256
 30
0.0
 10
15.099003779
 20
64.3618281598
 30
0.0
 10
15.2045592232
 20
64.3675715973
 30
0.0
 10
15.3277649002
 20
64.3733332353
 30
0.0
 10
15.5272053759
 20
64.3815085563
 30
0.0
 10
15.8203098184
 20
64.3914866193
 30
0.0
 10
16.2241021255
 20
64.4029503948
 30
0.0
 10
16.6964688352
 20
64.4144549326
 30
0.0
 10
17.2360390996
 20
64.4259944373
 30
0.0
 10
17.8413439371
 20
64.4375551867
 30
0.0
 10
18.5109132759
 20
64.4491315915
 30
0.0
 10
19.2432769663
 20
64.4607199746
 30
0.0
 10
20.340744035
 20
64.47675178
 30
0.0
 10
21.8558451652
 20
64.4965246399
 30
0.0
 10
23.83505838
 20
64.5195674927
 30
0.0
 10
26.0149903425
 20
64.5426579199
 30
0.0
 10
28.3751589329
 20
64.5657718271
 30
0.0
 10
30.8932714722
 20
64.5888986095
 30
0.0
 10
33.545196988
 20
64.6120466559
 30
0.0
 10
36.3056604952
 20
64.6352078517
 30
0.0
 10
40.1271236071
 20
64.6663413273
 30
0.0
 10
44.9733091506
 20
64.7047076909
 30
0.0
 10
49.8196370471
 20
64.7430801844
 30
0.0
 10
53.6414859941
 20
64.7742132942
 30
0.0
 10
56.4024412668
 20
64.7973677398
 30
0.0
 10
59.0547609471
 20
64.8205192246
 30
0.0
 10
61.5734327239
 20
64.8436539438
 30
0.0
 10
63.93451245
 20
64.8667602549
 30
0.0
 10
66.1153076358
 20
64.8898429226
 30
0.0
 10
68.0951990623
 20
64.9128985269
 30
0.0
 10
69.6109817185
 20
64.932677374
 30
0.0
 10
70.7095100309
 20
64.948698827
 30
0.0
 10
71.4428234725
 20
64.9602819704
 30
0.0
 10
72.1129644871
 20
64.9718591779
 30
0.0
 10
72.7184498264
 20
64.9834226142
 30
0.0
 10
73.2580896817
 20
64.9949658355
 30
0.0
 10
73.7307562345
 20
65.0064757958
 30
0.0
 10
74.1353212091
 20
65.0179455305
 30
0.0
 10
74.4293730283
 20
65.027914643
 30
0.0
 10
74.6297046795
 20
65.0360845773
 30
0.0
 10
74.753474075
 20
65.041843653
 30
0.0
 10
74.8594295925
 20
65.047586678
 30
0.0
 10
74.9475378932
 20
65.0532880092
 30
0.0
 10
75.0177864687
 20
65.058955864
 30
0.0
 10
75.0651757106
 20
65.0639149503
 30
0.0
 10
75.0940971688
 20
65.0681291927
 30
0.0
 10
75.1092027757
 20
65.0709229408
 30
0.0
 10
75.1198128164
 20
65.0736884115
 30
0.0
 10
75.1254398403
 20
65.0758585052
 30
0.0
 10
75.1272444493
 20
65.0772120609
 30
0.0
  0
SPLINE
  5
2B9
100
AcDbEntity
  8
0
100
AcDbSpline
 62
7
  6
CONTINUOUS
 70
0
 71
3
 72
17
 73
13
 74
0
 42
0.0000001
 43
0.0000001
 44
0.0000000001
 40
0.0
 40
0.0
 40
0.0
 40
0.0
 40
0.031200125
 40
0.0644308813
 40
0.1011657388
 40
0.142433225
 40
0.2405254494
 40
0.3604019148
 40
0.5004197842
 40
0.6570031706
 40
0.8255005172
 40
1.0
 40
1.0
 40
1.0
 40
1.0
 10
50.5374515758
 20
46.704491057
 30
0.0
 10
50.555066112
 20
46.704491057
 30
0.0
 10
50.5915968558
 20
46.7096375641
 30
0.0
 10
50.6447391279
 20
46.7318932889
 30
0.0
 10
50.6965122663
 20
46.7681261506
 30
0.0
 10
50.7672392918
 20
46.8385226312
 30
0.0
 10
50.8481388672
 20
46.9621015285
 30
0.0
 10
50.9291837686
 20
47.1478039292
 30
0.0
 10
50.996375168
 20
47.3736469262
 30
0.0
 10
51.0468181385
 20
47.63166563
 30
0.0
 10
51.0780667578
 20
47.9122535166
 30
0.0
 10
51.0851125145
 20
48.1059745459
 30
0.0
 10
51.0851125145
 20
48.204491057
 30
0.0
  0
SPLINE
  5
2BA
100
AcDbEntity
  8
0
100
AcDbSpline
 62
7
  6
CONTINUOUS
 70
0
 71
3
 72
34
 73
30
 74
0
 42
0.0000001
 43
0.0000001
 44
0.0000000001
 40
0.0
 40
0.0
 40
0.0
 40
0.0
 40
0.0002224196
 40
0.0005855523
 40
0.0010940001
 40
0.0017491888
 40
0.0035015588
 40
0.0058440672
 40
0.0087763052
 40
0.0122972095
 40
0.0164043108
 40
0.0210944293
 40
0.0322106841
 40
0.0456196026
 40
0.0612923013
 40
0.0791972321
 40
0.0993018583
 40
0.1215568529
 40
0.1458967626
 40
0.1722557184
 40
0.2307869849
 40
0.296656796
 40
0.3692144383
 40
0.447745196
 40
0.5315275164
 40
0.6197702189
 40
0.7116241407
 40
0.8062048913
 40
1.0
 40
1.0
 40
1.0
 40
1.0
 10
13.8312932775
 20
60.5817174931
 30
0.0
 10
13.833155181
 20
60.5830842256
 30
0.0
 10
13.838971916
 20
60.5852451454
 30
0.0
 10
13.8499358434
 20
60.5880115928
 30
0.0
 10
13.8655798872
 20
60.590801134
 30
0.0
 10
13.8955538903
 20
60.595016187
 30
0.0
 10
13.9446554156
 20
60.5999725385
 30
0.0
 10
14.0174027298
 20
60.6056400503
 30
0.0
 10
14.1085672433
 20
60.6113405567
 30
0.0
 10
14.2180782654
 20
60.6170826029
 30
0.0
 10
14.3458655137
 20
60.6228427489
 30
0.0
 10
14.5524932808
 20
60.6310122278
 30
0.0
 10
14.8557142769
 20
60.6409841977
 30
0.0
 10
15.2729866087
 20
60.6524557503
 30
0.0
 10
15.7607768068
 20
60.6639666844
 30
0.0
 10
16.3181133872
 20
60.6755109392
 30
0.0
 10
16.9438155332
 20
60.6870698968
 30
0.0
 10
17.636350743
 20
60.6986407315
 30
0.0
 10
18.393841144
 20
60.7102248145
 30
0.0
 10
19.5280125919
 20
60.7262489812
 30
0.0
 10
21.0934339661
 20
60.74604144
 30
0.0
 10
23.1385938343
 20
60.7690799251
 30
0.0
 10
25.3914469553
 20
60.7921593074
 30
0.0
 10
27.8303184705
 20
60.815274635
 30
0.0
 10
30.4320758554
 20
60.8384077249
 30
0.0
 10
33.1721907252
 20
60.8615551655
 30
0.0
 10
36.0244440665
 20
60.884711878
 30
0.0
 10
39.9727624236
 20
60.9158265875
 30
0.0
 10
42.967271246
 20
60.9388391931
 30
0.0
 10
44.9796496799
 20
60.9542130605
 30
0.0
  0
SPLINE
  5
2BB
100
AcDbEntity
  8
0
100
AcDbSpline
 62
7
  6
CONTINUOUS
 70
0
 71
3
 72
61
 73
57
 74
0
 42
0.0000001
 43
0.0000001
 44
0.0000000001
 40
0.0
 40
0.0
 40
0.0
 40
0.0
 40
0.0001126056
 40
0.000295724
 40
0.0005517856
 40
0.0008814612
 40
0.0017622578
 40
0.0029381929
 40
0.0044083874
 40
0.0061716895
 40
0.0082268322
 40
0.0105724906
 40
0.0161299004
 40
0.0228328906
 40
0.0306702764
 40
0.0396297499
 40
0.0496880973
 40
0.0608156891
 40
0.0729827996
 40
0.086159694
 40
0.1154238625
 40
0.1483575117
 40
0.184632154
 40
0.2238898831
 40
0.2657720606
 40
0.309888938
 40
0.3558069638
 40
0.403089286
 40
0.4999676293
 40
0.5968451204
 40
0.6441301058
 40
0.6900522799
 40
0.7341707217
 40
0.7760535876
 40
0.8153184616
 40
0.8515996827
 40
0.8845329367
 40
0.9138030818
 40
0.9269853463
 40
0.9391576825
 40
0.9502890565
 40
0.9603484437
 40
0.9693065885
 40
0.9771459327
 40
0.9838537204
 40
0.9894172758
 40
0.9917660466
 40
0.9938240797
 40
0.9955898641
 40
0.9970619462
 40
0.998238989
 40
0.9991199294
 40
0.9994492638
 40
0.9997048144
 40
0.9998875245
 40
1.0
 40
1.0
 40
1.0
 40
1.0
 10
14.8322009726
 20
73.3314429854
 30
0.0
 10
14.8340117571
 20
73.332801168
 30
0.0
 10
14.8396790398
 20
73.3349691073
 30
0.0
 10
14.8503683022
 20
73.3377328191
 30
0.0
 10
14.8656053824
 20
73.3405239975
 30
0.0
 10
14.8947710305
 20
73.3447356
 30
0.0
 10
14.9425093125
 20
73.3496908316
 30
0.0
 10
15.0131747969
 20
73.3553566849
 30
0.0
 10
15.101632749
 20
73.3610563591
 30
0.0
 10
15.2077871049
 20
73.3667984611
 30
0.0
 10
15.3315618382
 20
73.3725588188
 30
0.0
 10
15.5315703014
 20
73.3807271237
 30
0.0
 10
15.8250070029
 20
73.3906995739
 30
0.0
 10
16.2288399329
 20
73.402171721
 30
0.0
 10
16.7010819425
 20
73.4136824006
 30
0.0
 10
17.2407880186
 20
73.4252181429
 30
0.0
 10
17.8466449889
 20
73.4367728224
 30
0.0
 10
18.516990303
 20
73.4483443744
 30
0.0
 10
19.2500312287
 20
73.459928408
 30
0.0
 10
20.3476183382
 20
73.4759515565
 30
0.0
 10
21.8626315087
 20
73.4957392984
 30
0.0
 10
23.8419378474
 20
73.5187717541
 30
0.0
 10
26.0221411042
 20
73.5418471411
 30
0.0
 10
28.3822316109
 20
73.5649609351
 30
0.0
 10
30.8999693446
 20
73.5880913933
 30
0.0
 10
33.5515939944
 20
73.611229228
 30
0.0
 10
36.3117732299
 20
73.6343827173
 30
0.0
 10
40.1325050569
 20
73.6655163545
 30
0.0
 10
44.9775713921
 20
73.7038740366
 30
0.0
 10
49.8226912439
 20
73.7422340885
 30
0.0
 10
53.6435428727
 20
73.7733668837
 30
0.0
 10
56.4038904905
 20
73.796519197
 30
0.0
 10
59.0556438169
 20
73.8196572526
 30
0.0
 10
61.5735704407
 20
73.8427904329
 30
0.0
 10
63.9339506842
 20
73.8659022691
 30
0.0
 10
66.114421914
 20
73.888974296
 30
0.0
 10
68.0939726396
 20
73.9120126403
 30
0.0
 10
69.609205974
 20
73.9317996289
 30
0.0
 10
70.7071262754
 20
73.947820865
 30
0.0
 10
71.4404562656
 20
73.9594042513
 30
0.0
 10
72.1110035954
 20
73.9709750629
 30
0.0
 10
72.7169308199
 20
73.9825289615
 30
0.0
 10
73.2566703661
 20
73.9940692724
 30
0.0
 10
73.7290214904
 20
74.0055800833
 30
0.0
 10
74.1331138661
 20
74.0170518274
 30
0.0
 10
74.4268332933
 20
74.0270231064
 30
0.0
 10
74.6270861951
 20
74.0351905524
 30
0.0
 10
74.7510316851
 20
74.0409506824
 30
0.0
 10
74.8573322083
 20
74.0466924855
 30
0.0
 10
74.9459005463
 20
74.0523914984
 30
0.0
 10
75.0166293907
 20
74.058056568
 30
0.0
 10
75.0643862188
 20
74.0630106867
 30
0.0
 10
75.0935374481
 20
74.0672236161
 30
0.0
 10
75.1087483747
 20
74.0700158804
 30
0.0
 10
75.1194161762
 20
74.0727808146
 30
0.0
 10
75.1250707271
 20
74.0749494962
 30
0.0
 10
75.1268793953
 20
74.0763061412
 30
0.0
  0
SPLINE
  5
2BC
100
AcDbEntity
  8
0
100
AcDbSpline
 62
7
  6
CONTINUOUS
 70
0
 71
3
 72
61
 73
57
 74
0
 42
0.0000001
 43
0.0000001
 44
0.0000000001
 40
0.0
 40
0.0
 40
0.0
 40
0.0
 40
0.0001124773
 40
0.0002951892
 40
0.0005507417
 40
0.000880078
 40
0.0017610223
 40
0.0029380689
 40
0.0044101548
 40
0.0061759429
 40
0.0082339798
 40
0.0105827544
 40
0.0161463173
 40
0.0228541122
 40
0.0306934637
 40
0.0396516158
 40
0.04971101
 40
0.0608423908
 40
0.0730147337
 40
0.0861970045
 40
0.1154671619
 40
0.1484004273
 40
0.1846816586
 40
0.2239465417
 40
0.2658294155
 40
0.3099478638
 40
0.355870043
 40
0.4031550321
 40
0.5000325262
 40
0.5969108665
 40
0.644193185
 40
0.6901112057
 40
0.7342280766
 40
0.7761102461
 40
0.8153679662
 40
0.8516425983
 40
0.8845762362
 40
0.9138403923
 40
0.9270172803
 40
0.9391843842
 40
0.9503119692
 40
0.9603703096
 40
0.9693297758
 40
0.9771671544
 40
0.9838701372
 40
0.9894275396
 40
0.9917731942
 40
0.9938283331
 40
0.9955916315
 40
0.9970618221
 40
0.9982377534
 40
0.9991185462
 40
0.9994482199
 40
0.9997042797
 40
0.9998873961
 40
1.0
 40
1.0
 40
1.0
 40
1.0
 10
14.8324119755
 20
61.3314760481
 30
0.0
 10
14.8342206912
 20
61.3328326881
 30
0.0
 10
14.8398753128
 20
61.335001369
 30
0.0
 10
14.8505432321
 20
61.3377663053
 30
0.0
 10
14.8657542723
 20
61.3405585712
 30
0.0
 10
14.8949056581
 20
61.344771499
 30
0.0
 10
14.9426626785
 20
61.3497256187
 30
0.0
 10
15.0133917544
 20
61.355390689
 30
0.0
 10
15.1019603222
 20
61.3610897026
 30
0.0
 10
15.2082610741
 20
61.366831506
 30
0.0
 10
15.3322067917
 20
61.3725916362
 30
0.0
 10
15.5324599943
 20
61.3807590817
 30
0.0
 10
15.8261797945
 20
61.3907303606
 30
0.0
 10
16.2302726141
 20
61.402202105
 30
0.0
 10
16.7026241771
 20
61.4137129162
 30
0.0
 10
17.2423641554
 20
61.4252532272
 30
0.0
 10
17.8482918032
 20
61.4368071259
 30
0.0
 10
18.5188395449
 20
61.4483779376
 30
0.0
 10
19.2521699349
 20
61.4599613239
 30
0.0
 10
20.3500907453
 20
61.4759825597
 30
0.0
 10
21.8653246842
 20
61.4957695482
 30
0.0
 10
23.8448760908
 20
61.5188078925
 30
0.0
 10
26.0253479373
 20
61.5418799196
 30
0.0
 10
28.3857287267
 20
61.5649917559
 30
0.0
 10
30.9036558223
 20
61.5881249362
 30
0.0
 10
33.5554095413
 20
61.6112629919
 30
0.0
 10
36.3157574678
 20
61.6344153052
 30
0.0
 10
40.1366093342
 20
61.6655480999
 30
0.0
 10
44.9817292601
 20
61.7039081513
 30
0.0
 10
49.8267955209
 20
61.7422658339
 30
0.0
 10
53.6475271102
 20
61.7733994716
 30
0.0
 10
56.4077060371
 20
61.7965529609
 30
0.0
 10
59.0593302942
 20
61.8196907955
 30
0.0
 10
61.5770675559
 20
61.8428212537
 30
0.0
 10
63.9371575163
 20
61.8659350476
 30
0.0
 10
66.1173601567
 20
61.8890104345
 30
0.0
 10
68.0966658143
 20
61.91204289
 30
0.0
 10
69.6116783798
 20
61.9318306321
 30
0.0
 10
70.7092649798
 20
61.9478537809
 30
0.0
 10
71.4423055059
 20
61.9594378144
 30
0.0
 10
72.1126504089
 20
61.9710093664
 30
0.0
 10
72.7185069566
 20
61.9825640458
 30
0.0
 10
73.2582126004
 20
61.994099788
 30
0.0
 10
73.7304541704
 20
62.0056104674
 30
0.0
 10
74.1342866557
 20
62.017082614
 30
0.0
 10
74.427722984
 20
62.0270550643
 30
0.0
 10
74.6277311462
 20
62.0352233698
 30
0.0
 10
74.7515056523
 20
62.0409837273
 30
0.0
 10
74.8576597798
 20
62.046725829
 30
0.0
 10
74.9461175027
 20
62.0524255026
 30
0.0
 10
75.0167827563
 20
62.0580913551
 30
0.0
 10
75.0645208466
 20
62.0630465858
 30
0.0
 10
75.0936863386
 20
62.0672581898
 30
0.0
 10
75.1089233053
 20
62.0700493666
 30
0.0
 10
75.1196124496
 20
62.0728130763
 30
0.0
 10
75.1252796614
 20
62.0749810162
 30
0.0
 10
75.1270903983
 20
62.0763392039
 30
0.0
  0
SPLINE
  5
2BD
100
AcDbEntity
  8
0
100
AcDbSpline
 62
7
  6
CONTINUOUS
 70
0
 71
3
 72
35
 73
31
 74
0
 42
0.0000001
 43
0.0000001
 44
0.0000000001
 40
0.0
 40
0.0
 40
0.0
 40
0.0
 40
0.0002220048
 40
0.0005850109
 40
0.0010935577
 40
0.0017489812
 40
0.0035018505
 40
0.005844262
 40
0.0087750426
 40
0.0122924832
 40
0.0163944396
 40
0.0210785297
 40
0.0321832821
 40
0.0455866379
 40
0.0612608182
 40
0.0791689011
 40
0.0992728363
 40
0.1215225676
 40
0.145855925
 40
0.1722102948
 40
0.2307405988
 40
0.2966151125
 40
0.3691732448
 40
0.4477011132
 40
0.5314925164
 40
0.6197435394
 40
0.711599331
 40
0.8061882197
 40
0.9026465071
 40
1.0
 40
1.0
 40
1.0
 40
1.0
 10
76.1282458924
 20
77.8272966546
 30
0.0
 10
76.1263908702
 20
77.825927809
 30
0.0
 10
76.1205779593
 20
77.8237675167
 30
0.0
 10
76.1096198463
 20
77.821001244
 30
0.0
 10
76.0939728023
 20
77.8182121883
 30
0.0
 10
76.0639901377
 20
77.8139971446
 30
0.0
 10
76.0148813088
 20
77.8090412905
 30
0.0
 10
75.9421445129
 20
77.8033736815
 30
0.0
 10
75.8510314643
 20
77.7976729201
 30
0.0
 10
75.7416243089
 20
77.7919297209
 30
0.0
 10
75.6139882278
 20
77.7861684587
 30
0.0
 10
75.4075945349
 20
77.7779969301
 30
0.0
 10
75.1046111315
 20
77.7680215455
 30
0.0
 10
74.6874973196
 20
77.7565497362
 30
0.0
 10
74.1997128051
 20
77.7450402009
 30
0.0
 10
73.6423307774
 20
77.733496425
 30
0.0
 10
73.0166527206
 20
77.7219363887
 30
0.0
 10
72.324241857
 20
77.7103637898
 30
0.0
 10
71.5669157209
 20
77.698778216
 30
0.0
 10
70.4328608452
 20
77.6827516863
 30
0.0
 10
68.8674356745
 20
77.662957311
 30
0.0
 10
66.8222154173
 20
77.6399182066
 30
0.0
 10
64.5693202422
 20
77.6168385561
 30
0.0
 10
62.1303597089
 20
77.5937209517
 30
0.0
 10
59.5284308004
 20
77.5705712727
 30
0.0
 10
56.7880935198
 20
77.5474465072
 30
0.0
 10
53.9356265722
 20
77.5243311114
 30
0.0
 10
50.9979314211
 20
77.5009141311
 30
0.0
 10
48.0031388628
 20
77.4781658992
 30
0.0
 10
45.9905698763
 20
77.4629372364
 30
0.0
 10
44.9796415368
 20
77.4547681984
 30
0.0
  0
SPLINE
  5
2BE
100
AcDbEntity
  8
0
100
AcDbSpline
 62
7
  6
CONTINUOUS
 70
0
 71
3
 72
16
 73
12
 74
0
 42
0.0000001
 43
0.0000001
 44
0.0000000001
 40
0.0
 40
0.0
 40
0.0
 40
0.0
 40
0.358135196
 40
0.5203910553
 40
0.6637748464
 40
0.783951942
 40
0.8784579879
 40
0.9161761224
 40
0.9481054821
 40
0.9753949307
 40
1.0
 40
1.0
 40
1.0
 40
1.0
 10
60.5956776775
 20
48.204491057
 30
0.0
 10
60.5956776775
 20
48.0112586783
 30
0.0
 10
60.5823276191
 20
47.7300530028
 30
0.0
 10
60.5337079669
 20
47.3750593976
 30
0.0
 10
60.4863844228
 20
47.1499170881
 30
0.0
 10
60.428896971
 20
46.9652319111
 30
0.0
 10
60.370777504
 20
46.8409807485
 30
0.0
 10
60.3183482526
 20
46.7692142353
 30
0.0
 10
60.2803408534
 20
46.7327515776
 30
0.0
 10
60.2406277617
 20
46.7099131326
 30
0.0
 10
60.2124493502
 20
46.704491057
 30
0.0
 10
60.1991736484
 20
46.704491057
 30
0.0
  0
SPLINE
  5
2BF
100
AcDbEntity
  8
0
100
AcDbSpline
 62
7
  6
CONTINUOUS
 70
0
 71
3
 72
34
 73
30
 74
0
 42
0.0000001
 43
0.0000001
 44
0.0000000001
 40
0.0
 40
0.0
 40
0.0
 40
0.0
 40
0.1938452968
 40
0.2884497166
 40
0.3803196041
 40
0.4685828254
 40
0.5523840956
 40
0.6309191722
 40
0.7034815285
 40
0.7693568635
 40
0.827884499
 40
0.8542361916
 40
0.8785659227
 40
0.9008110433
 40
0.9209093647
 40
0.9388108849
 40
0.9544775445
 40
0.967872414
 40
0.9789677623
 40
0.9836468065
 40
0.9877434867
 40
0.9912554207
 40
0.9941804675
 40
0.9965169212
 40
0.9982636164
 40
0.9989158804
 40
0.9994212323
 40
0.9997810426
 40
1.0
 40
1.0
 40
1.0
 40
1.0
 10
44.9796496799
 20
60.9542130605
 30
0.0
 10
46.9925721161
 20
60.9695910839
 30
0.0
 10
49.9878818769
 20
60.9926092281
 30
0.0
 10
53.9371777799
 20
61.0237320723
 30
0.0
 10
56.7900881155
 20
61.0468968016
 30
0.0
 10
59.5308097207
 20
61.0700493286
 30
0.0
 10
62.1330513351
 20
61.0931860033
 30
0.0
 10
64.5722410432
 20
61.1163109598
 30
0.0
 10
66.825270849
 20
61.1393960832
 30
0.0
 10
68.8705225083
 20
61.1624379918
 30
0.0
 10
70.4359058114
 20
61.1822362414
 30
0.0
 10
71.5698712063
 20
61.1982659852
 30
0.0
 10
72.3270864595
 20
61.2098535717
 30
0.0
 10
73.0193557227
 20
61.2214281306
 30
0.0
 10
73.6448614546
 20
61.2329901328
 30
0.0
 10
74.2020406953
 20
61.2445358297
 30
0.0
 10
74.6895923407
 20
61.2560471946
 30
0.0
 10
75.1064435001
 20
61.2675207675
 30
0.0
 10
75.4091895497
 20
61.2774979833
 30
0.0
 10
75.6153788352
 20
61.2856714796
 30
0.0
 10
75.7428507861
 20
61.2914335661
 30
0.0
 10
75.8520864566
 20
61.2971775408
 30
0.0
 10
75.9430210215
 20
61.3028787003
 30
0.0
 10
76.0155715273
 20
61.3085467082
 30
0.0
 10
76.0645219113
 20
61.313502542
 30
0.0
 10
76.0943719033
 20
61.3177196832
 30
0.0
 10
76.1099206311
 20
61.3205077046
 30
0.0
 10
76.1207738798
 20
61.3232727399
 30
0.0
 10
76.1265244289
 20
61.3254336115
 30
0.0
 10
76.1283360858
 20
61.3268076097
 30
0.0
  0
SPLINE
  5
2C0
100
AcDbEntity
  8
0
100
AcDbSpline
 62
7
  6
CONTINUOUS
 70
0
 71
3
 72
34
 73
30
 74
0
 42
0.0000001
 43
0.0000001
 44
0.0000000001
 40
0.0
 40
0.0
 40
0.0
 40
0.0
 40
0.0002224196
 40
0.0005855523
 40
0.0010940001
 40
0.0017491888
 40
0.0035015588
 40
0.0058440672
 40
0.0087763052
 40
0.0122972095
 40
0.0164043108
 40
0.0210944293
 40
0.0322106841
 40
0.0456196026
 40
0.0612923013
 40
0.0791972321
 40
0.0993018583
 40
0.1215568529
 40
0.1458967626
 40
0.1722557184
 40
0.2307869849
 40
0.296656796
 40
0.3692144383
 40
0.447745196
 40
0.5315275164
 40
0.6197702189
 40
0.7116241407
 40
0.8062048913
 40
1.0
 40
1.0
 40
1.0
 40
1.0
 10
76.127997993
 20
74.827264621
 30
0.0
 10
76.1261360895
 20
74.8258978884
 30
0.0
 10
76.1203193545
 20
74.8237369687
 30
0.0
 10
76.1093554271
 20
74.8209705213
 30
0.0
 10
76.0937113833
 20
74.81818098
 30
0.0
 10
76.0637373802
 20
74.8139659271
 30
0.0
 10
76.014635855
 20
74.8090095755
 30
0.0
 10
75.9418885407
 20
74.8033420638
 30
0.0
 10
75.8507240273
 20
74.7976415573
 30
0.0
 10
75.7412130051
 20
74.7918995111
 30
0.0
 10
75.6134257568
 20
74.7861393651
 30
0.0
 10
75.4067979897
 20
74.7779698862
 30
0.0
 10
75.1035769937
 20
74.7679979163
 30
0.0
 10
74.6863046618
 20
74.7565263638
 30
0.0
 10
74.1985144637
 20
74.7450154296
 30
0.0
 10
73.6411778834
 20
74.7334711748
 30
0.0
 10
73.0154757373
 20
74.7219122172
 30
0.0
 10
72.3229405275
 20
74.7103413826
 30
0.0
 10
71.5654501265
 20
74.6987572995
 30
0.0
 10
70.4312786786
 20
74.6827331328
 30
0.0
 10
68.8658573045
 20
74.662940674
 30
0.0
 10
66.8206974362
 20
74.639902189
 30
0.0
 10
64.5678443153
 20
74.6168228067
 30
0.0
 10
62.1289728001
 20
74.593707479
 30
0.0
 10
59.5272154151
 20
74.5705743892
 30
0.0
 10
56.7871005453
 20
74.5474269485
 30
0.0
 10
53.934847204
 20
74.5242702361
 30
0.0
 10
49.9865288469
 20
74.4931555265
 30
0.0
 10
46.9920200245
 20
74.470142921
 30
0.0
 10
44.9796415906
 20
74.4547690536
 30
0.0
  0
SPLINE
  5
2C1
100
AcDbEntity
  8
0
100
AcDbSpline
 62
7
  6
CONTINUOUS
 70
0
 71
3
 72
34
 73
30
 74
0
 42
0.0000001
 43
0.0000001
 44
0.0000000001
 40
0.0
 40
0.0
 40
0.0
 40
0.0
 40
0.0002186288
 40
0.0005765941
 40
0.0010788103
 40
0.0017269138
 40
0.0034632906
 40
0.0057885566
 40
0.0087036922
 40
0.0122091126
 40
0.0163035765
 40
0.0209839603
 40
0.0320892511
 40
0.0454982162
 40
0.0611779498
 40
0.0790849038
 40
0.0991743403
 40
0.1214004839
 40
0.1457160428
 40
0.1720731859
 40
0.2306473781
 40
0.2965062685
 40
0.3690464174
 40
0.4476110031
 40
0.5314164208
 40
0.6196688191
 40
0.7115403566
 40
0.8061538098
 40
1.0
 40
1.0
 40
1.0
 40
1.0
 10
76.1273936825
 20
76.3273620241
 30
0.0
 10
76.1255821097
 20
76.3259936816
 30
0.0
 10
76.1198608827
 20
76.3238296132
 30
0.0
 10
76.1090621673
 20
76.3210643766
 30
0.0
 10
76.0936119526
 20
76.3182746509
 30
0.0
 10
76.0639469513
 20
76.3140568617
 30
0.0
 10
76.0152664648
 20
76.3090992001
 30
0.0
 10
75.9430451445
 20
76.303430935
 30
0.0
 10
75.8524006452
 20
76.2977293939
 30
0.0
 10
75.743362012
 20
76.291985842
 30
0.0
 10
75.6159706466
 20
76.2862245936
 30
0.0
 10
75.4096933592
 20
76.2780494477
 30
0.0
 10
75.1066926313
 20
76.2680731693
 30
0.0
 10
74.6894683502
 20
76.2566009968
 30
0.0
 10
74.2015925214
 20
76.2450928
 30
0.0
 10
73.6443299007
 20
76.2335499345
 30
0.0
 10
73.0190757993
 20
76.221986117
 30
0.0
 10
72.3272638141
 20
76.2104064437
 30
0.0
 10
71.5703588643
 20
76.1988143917
 30
0.0
 10
70.4360343721
 20
76.1827829636
 30
0.0
 10
68.8703281377
 20
76.1630076028
 30
0.0
 10
66.8250555594
 20
76.1399501083
 30
0.0
 10
64.5721879544
 20
76.1168556868
 30
0.0
 10
62.1329519543
 20
76.0937428481
 30
0.0
 10
59.5305508065
 20
76.0706059212
 30
0.0
 10
56.7899631145
 20
76.0474511427
 30
0.0
 10
53.9371393134
 20
76.0242821787
 30
0.0
 10
49.9878408602
 20
75.9931678233
 30
0.0
 10
46.992517343
 20
75.9701455888
 30
0.0
 10
44.9796456352
 20
75.954767953
 30
0.0
  0
SPLINE
  5
2C2
100
AcDbEntity
  8
0
100
AcDbSpline
 62
7
  6
CONTINUOUS
 70
0
 71
3
 72
34
 73
30
 74
0
 42
0.0000001
 43
0.0000001
 44
0.0000000001
 40
0.0
 40
0.0
 40
0.0
 40
0.0
 40
0.1937960993
 40
0.2883863404
 40
0.38023682
 40
0.4684709944
 40
0.5522616034
 40
0.6308154256
 40
0.703349378
 40
0.7692068715
 40
0.8277850266
 40
0.8541463032
 40
0.8784673556
 40
0.9007003756
 40
0.9207981069
 40
0.9387147982
 40
0.9544057451
 40
0.9678274007
 40
0.9789467976
 40
0.98363477
 40
0.9877371828
 40
0.991250905
 40
0.9941746545
 40
0.9965088359
 40
0.9982544155
 40
0.9989072146
 40
0.9994141696
 40
0.9997768659
 40
1.0
 40
1.0
 40
1.0
 40
1.0
 10
44.9796456352
 20
59.4542141611
 30
0.0
 10
46.9919865288
 20
59.4695877417
 30
0.0
 10
49.9865329904
 20
59.4926040127
 30
0.0
 10
53.9348306703
 20
59.5237100132
 30
0.0
 10
56.7869904207
 20
59.5468728502
 30
0.0
 10
59.5270019205
 20
59.5700215373
 30
0.0
 10
62.1289345125
 20
59.5931523917
 30
0.0
 10
64.5678277214
 20
59.6162591938
 30
0.0
 10
66.8204928039
 20
59.6393475841
 30
0.0
 10
68.8657168933
 20
59.6623991872
 30
0.0
 10
70.43148446
 20
59.6821691171
 30
0.0
 10
71.565944131
 20
59.6981958108
 30
0.0
 10
72.3230165029
 20
59.7097848489
 30
0.0
 10
73.0150394804
 20
59.721361544
 30
0.0
 10
73.6405490136
 20
59.7329224313
 30
0.0
 10
74.1981124868
 20
59.7444624315
 30
0.0
 10
74.6863352144
 20
59.755967895
 30
0.0
 10
75.1039522005
 20
59.7674374294
 30
0.0
 10
75.4073086378
 20
59.7774109747
 30
0.0
 10
75.6138930169
 20
59.7855831661
 30
0.0
 10
75.7415315272
 20
59.7913431917
 30
0.0
 10
75.8508282707
 20
59.7970855607
 30
0.0
 10
75.941740824
 20
59.802786499
 30
0.0
 10
76.0142408192
 20
59.808454168
 30
0.0
 10
76.063157765
 20
59.8134118262
 30
0.0
 10
76.0930200243
 20
59.8176265055
 30
0.0
 10
76.1086162747
 20
59.8204177037
 30
0.0
 10
76.1195699195
 20
59.823184772
 30
0.0
 10
76.125383959
 20
59.8253478611
 30
0.0
 10
76.1272592661
 20
59.8267087197
 30
0.0
  0
ENDSEC
  0
SECTION
  2
OBJECTS
  0
DICTIONARY
  5
C
100
AcDbDictionary
280
0
281
1
  3
ACAD_GROUP
350
D
  3
ACAD_MLINESTYLE
350
17
  3
ACAD_LAYOUT
350
1A
  3
ACAD_PLOTSETTINGS
350
19
  3
ACAD_PLOTSTYLENAME
350
E
  0
DICTIONARY
  5
D
102
{ACAD_REACTORS
330
C
102
}
100
AcDbDictionary
280
0
281
1
  0
ACDBDICTIONARYWDFLT
  5
E
102
{ACAD_REACTORS
330
C
102
}
100
AcDbDictionary
281
1
  3
Normal
350
F
100
AcDbDictionaryWithDefault
340
F
  0
DICTIONARY
  5
17
102
{ACAD_REACTORS
330
C
102
}
100
AcDbDictionary
280
0
281
1
  3
Standard
350
18
  0
DICTIONARY
  5
19
102
{ACAD_REACTORS
330
C
102
}
100
AcDbDictionary
281
1
  0
DICTIONARY
  5
1A
102
{ACAD_REACTORS
330
C
102
}
100
AcDbDictionary
281
1
  3
Model
350
2C3
  3
Layout1
350
2C4
  0
ACDBPLACEHOLDER
  5
F
102
{ACAD_REACTORS
330
E
102
}
  0
MLINESTYLE
  5
18
102
{ACAD_REACTORS
330
17
102
}
100
AcDbMlineStyle
  2
STANDARD
 70
0
  3

 62
256
 51
90.0
 52
90.0
 71
2
 49
0.5
 62
256
  6
BYLAYER
 49
-0.5
 62
256
  6
BYLAYER
  0
LAYOUT
  5
2C3
102
{ACAD_REACTORS
330
1A
102
}
100
AcDbPlotSettings
  1

  2
none_device
  4

  6

 40
0.0
 41
0.0
 42
0.0
 43
0.0
 44
210.0
 45
297.0
 46
0.0
 47
0.0
 48
0.0
 49
0.0
140
0.0
141
0.0
142
1.0
143
1.0
 70
1024
 72
1
 73
0
 74
0
  7

 75
0
147
1.0
148
0.0
149
0.0
100
AcDbLayout
  1
Model
 70
0
 71
0
 10
0.0
 20
0.0
 11
210.0
 21
297.0
 12
0.0
 22
0.0
 32
0.0
 14
0.0
 24
0.0
 34
0.0
 15
0.0
 25
0.0
 35
0.0
146
0.0
 13
0.0
 23
0.0
 33
0.0
 16
1.0
 26
0.0
 36
0.0
 17
0.0
 27
1.0
 37
0.0
 76
0
330
210
345
0
346
0
  0
LAYOUT
  5
2C4
102
{ACAD_REACTORS
330
1A
102
}
100
AcDbPlotSettings
  1

  2
none_device
  4

  6

 40
0.0
 41
0.0
 42
0.0
 43
0.0
 44
210.0
 45
297.0
 46
0.0
 47
0.0
 48
0.0
 49
0.0
140
0.0
141
0.0
142
1.0
143
1.0
 70
0
 72
1
 73
0
 74
0
  7

 75
0
147
1.0
148
0.0
149
0.0
100
AcDbLayout
  1
Layout1
 70
0
 71
1
 10
0.0
 20
0.0
 11
210.0
 21
297.0
 12
0.0
 22
0.0
 32
0.0
 14
0.0
 24
0.0
 34
0.0
 15
0.0
 25
0.0
 35
0.0
146
0.0
 13
0.0
 23
0.0
 33
0.0
 16
1.0
 26
0.0
 36
0.0
 17
0.0
 27
1.0
 37
0.0
 76
0
330
211
345
0
346
0
  0
ENDSEC
  0
EOF
