999
DXF file: C:\Users\SESA654545\Desktop\sachin babu tesys\Gen2D (4)\Gen2D\CAD\SB115119_3D-CAD\drw0001_6.dxf
999
Pro/ENGINEER 2019471 by Parametric Technology Corporation
  0
SECTION
  2
HEADER
  9
$ACADVER
  1
AC1024
  9
$DWGCODEPAGE
  3
ANSI_1252
  9
$EXTMAX
 10
160.3447696162
 20
226.7733170286
 30
0.0
  9
$EXTMIN
 10
0.0
 20
0.0
 30
0.0
  9
$LIMMIN
 10
0.0
 20
0.0
  9
$LIMMAX
 10
160.3447696162
 20
226.7733170286
  9
$VIEWCTR
 10
80.1723848081
 20
113.3866585143
  9
$VIEWSIZE
 40
226.7733170286
  9
$CLAYER
  8
0
  9
$LTSCALE
 40
14.7822606656
  9
$CELTYPE
  6
BYLAYER
  9
$DIMSCALE
 40
1.0
  9
$DIMASZ
 40
1.908866305
  9
$DIMEXO
 40
1.0
  9
$DIMDLI
 40
10.213198278
  9
$DIMEXE
 40
1.0
  9
$DIMCEN
 40
2.4189153816
  9
$DIMLFAC
 40
1.0
  9
$DIMBLK
  1
_FILLED
  9
$DIMALT
 70
0
  9
$DIMALTF
 40
0.0393700787
  9
$DIMTXT
 40
2.6724128269
  9
$DIMTOL
 70
1
  9
$DIMLIM
 70
0
  9
$DIMTFAC
 40
1.0
  9
$DIMTP
 40
0.01
  9
$DIMTM
 40
0.01
  9
$DIMGAP
 40
0.625
  9
$DIMDSEP
 70
46
  9
$AUNITS
 70
0
  9
$PDMODE
 70
3
  9
$PDSIZE
 40
0.3125
  9
$HANDSEED
  5
2A6
  9
$TILEMODE
 70
1
  9
$MEASUREMENT
 70
1
  9
$INSUNITS
 70
4
  0
ENDSEC
  0
SECTION
  2
CLASSES
  0
CLASS
  1
ACDBDICTIONARYWDFLT
  2
AcDbDictionaryWithDefault
  3
AutoCAD 2000
 90
0
 91
1
280
0
281
0
  0
CLASS
  1
ACDBPLACEHOLDER
  2
AcDbPlaceHolder
  3
AutoCAD 2000
 90
0
 91
1
280
0
281
0
  0
CLASS
  1
LAYOUT
  2
AcDbLayout
  3
AutoCAD 2000
 90
0
 91
0
280
0
281
0
  0
ENDSEC
  0
SECTION
  2
TABLES
  0
TABLE
  2
VPORT
  5
8
100
AcDbSymbolTable
 70
2
  0
VPORT
  5
1F4
100
AcDbSymbolTableRecord
100
AcDbViewportTableRecord
  2
*ACTIVE
 70
0
 10
0.0
 20
0.0
 11
1.0
 21
1.0
 12
80.1723848081
 22
113.3866585143
 13
0.0
 23
0.0
 14
1.0
 24
1.0
 15
0.0
 25
0.0
 16
0.0
 26
0.0
 36
1.0
 17
0.0
 27
0.0
 37
0.0
 40
226.7733170286
 41
0.7070707071
 42
50.0
 43
0.0
 44
0.0
 50
0.0
 51
0.0
 71
0
 72
100
 73
1
 74
1
 75
0
 76
0
 77
0
 78
0
  0
ENDTAB
  0
TABLE
  2
LTYPE
  5
5
100
AcDbSymbolTable
 70
6
  0
LTYPE
  5
14
100
AcDbSymbolTableRecord
100
AcDbLinetypeTableRecord
  2
BYBLOCK
 70
0
  3

 72
65
 73
0
 40
0.0
  0
LTYPE
  5
15
100
AcDbSymbolTableRecord
100
AcDbLinetypeTableRecord
  2
BYLAYER
 70
0
  3

 72
65
 73
0
 40
0.0
  0
LTYPE
  5
16
100
AcDbSymbolTableRecord
100
AcDbLinetypeTableRecord
  2
CONTINUOUS
 70
64
  3
Solid line
 72
65
 73
0
 40
0.0
  0
LTYPE
  5
1F5
100
AcDbSymbolTableRecord
100
AcDbLinetypeTableRecord
  2
CENTER
 70
64
  3
____ _ ____ _ ____ _ ____ _ ____ _ ____ _ ____
 72
65
 73
4
 40
0.6
 49
0.375
 74
0
 49
-0.075
 74
0
 49
0.075
 74
0
 49
-0.075
 74
0
  0
LTYPE
  5
1F6
100
AcDbSymbolTableRecord
100
AcDbLinetypeTableRecord
  2
HIDDEN
 70
64
  3
- - - - - - - - - - - - - - - - - - - -
 72
65
 73
2
 40
0.2
 49
0.1
 74
0
 49
-0.1
 74
0
  0
LTYPE
  5
1F7
100
AcDbSymbolTableRecord
100
AcDbLinetypeTableRecord
  2
PHANTOM
 70
64
  3
_____ _ _ _____ _ _ _____ _ _ _____
 72
65
 73
6
 40
0.8
 49
0.45
 74
0
 49
-0.05
 74
0
 49
0.1
 74
0
 49
-0.05
 74
0
 49
0.1
 74
0
 49
-0.05
 74
0
  0
LTYPE
  5
1F8
100
AcDbSymbolTableRecord
100
AcDbLinetypeTableRecord
  2
DOT
 70
64
  3
. . . . . . . . . . . . . . . . . . . .
 72
65
 73
2
 40
0.2
 49
0.1
 74
0
 49
-0.1
 74
0
  0
LTYPE
  5
1F9
100
AcDbSymbolTableRecord
100
AcDbLinetypeTableRecord
  2
DASHED
 70
64
  3
- - - - - - - - - - - - - - - - - - - -
 72
65
 73
2
 40
0.2
 49
0.1
 74
0
 49
-0.1
 74
0
  0
ENDTAB
  0
TABLE
  2
LAYER
  5
2
100
AcDbSymbolTable
 70
36
  0
LAYER
  5
10
100
AcDbSymbolTableRecord
100
AcDbLayerTableRecord
  2
0
 70
0
 62
7
  6
CONTINUOUS
370
-3
390
F
  0
LAYER
  5
1FA
100
AcDbSymbolTableRecord
100
AcDbLayerTableRecord
  2
DEFAULT_1
 70
0
 62
7
  6
CENTER
370
-3
390
F
  0
LAYER
  5
1FB
100
AcDbSymbolTableRecord
100
AcDbLayerTableRecord
  2
DEFAULT_2
 70
0
 62
8
  6
HIDDEN
370
-3
390
F
  0
LAYER
  5
1FC
100
AcDbSymbolTableRecord
100
AcDbLayerTableRecord
  2
DEFAULT_3
 70
0
 62
7
  6
PHANTOM
370
-3
390
F
  0
LAYER
  5
1FD
100
AcDbSymbolTableRecord
100
AcDbLayerTableRecord
  2
00_COMPONENTS
 70
0
 62
7
  6
CONTINUOUS
370
-3
390
F
  0
LAYER
  5
1FE
100
AcDbSymbolTableRecord
100
AcDbLayerTableRecord
  2
01_1_DEFAULT_DATUMS
 70
0
 62
7
  6
CONTINUOUS
370
-3
390
F
  0
LAYER
  5
1FF
100
AcDbSymbolTableRecord
100
AcDbLayerTableRecord
  2
01_PLANES
 70
0
 62
7
  6
CONTINUOUS
370
-3
390
F
  0
LAYER
  5
200
100
AcDbSymbolTableRecord
100
AcDbLayerTableRecord
  2
02_COORD_SYS
 70
0
 62
7
  6
CONTINUOUS
370
-3
390
F
  0
LAYER
  5
201
100
AcDbSymbolTableRecord
100
AcDbLayerTableRecord
  2
03_AXES
 70
0
 62
7
  6
CONTINUOUS
370
-3
390
F
  0
LAYER
  5
202
100
AcDbSymbolTableRecord
100
AcDbLayerTableRecord
  2
04_POINTS
 70
0
 62
7
  6
CONTINUOUS
370
-3
390
F
  0
LAYER
  5
203
100
AcDbSymbolTableRecord
100
AcDbLayerTableRecord
  2
05_CURVES
 70
0
 62
7
  6
CONTINUOUS
370
-3
390
F
  0
LAYER
  5
204
100
AcDbSymbolTableRecord
100
AcDbLayerTableRecord
  2
06_SURFS
 70
0
 62
7
  6
CONTINUOUS
370
-3
390
F
  0
LAYER
  5
205
100
AcDbSymbolTableRecord
100
AcDbLayerTableRecord
  2
07_COSMETICS
 70
0
 62
7
  6
CONTINUOUS
370
-3
390
F
  0
LAYER
  5
206
100
AcDbSymbolTableRecord
100
AcDbLayerTableRecord
  2
10_NOTES
 70
0
 62
7
  6
CONTINUOUS
370
-3
390
F
  0
LAYER
  5
207
100
AcDbSymbolTableRecord
100
AcDbLayerTableRecord
  2
11_NOTES_PUB
 70
0
 62
7
  6
CONTINUOUS
370
-3
390
F
  0
LAYER
  5
208
100
AcDbSymbolTableRecord
100
AcDbLayerTableRecord
  2
13_REF_GTOL
 70
0
 62
7
  6
CONTINUOUS
370
-3
390
F
  0
LAYER
  5
209
100
AcDbSymbolTableRecord
100
AcDbLayerTableRecord
  2
16_MISC
 70
0
 62
7
  6
CONTINUOUS
370
-3
390
F
  0
LAYER
  5
20A
100
AcDbSymbolTableRecord
100
AcDbLayerTableRecord
  2
17_NO_PRINT
 70
0
 62
7
  6
CONTINUOUS
370
-3
390
F
  0
LAYER
  5
20B
100
AcDbSymbolTableRecord
100
AcDbLayerTableRecord
  2
18_DATUM_CAMS_JOINTS
 70
0
 62
7
  6
CONTINUOUS
370
-3
390
F
  0
LAYER
  5
20C
100
AcDbSymbolTableRecord
100
AcDbLayerTableRecord
  2
19_DATUM_FUNCTIONAL
 70
0
 62
7
  6
CONTINUOUS
370
-3
390
F
  0
LAYER
  5
20D
100
AcDbSymbolTableRecord
100
AcDbLayerTableRecord
  2
20_DATUM_KINEMATIC_SCHEME
 70
0
 62
7
  6
CONTINUOUS
370
-3
390
F
  0
LAYER
  5
20E
100
AcDbSymbolTableRecord
100
AcDbLayerTableRecord
  2
INTFCLR_59
 70
0
 62
7
  6
CONTINUOUS
370
-3
390
F
  0
ENDTAB
  0
TABLE
  2
STYLE
  5
3
100
AcDbSymbolTable
 70
1
  0
STYLE
  5
11
100
AcDbSymbolTableRecord
100
AcDbTextStyleTableRecord
  2
STANDARD
 70
0
 40
0.0
 41
0.8
 50
0.0
 71
0
 42
0.2
  3
txt
  4

  0
STYLE
  5
20F
100
AcDbSymbolTableRecord
100
AcDbTextStyleTableRecord
  2
TEXTSTYLE_1
 70
0
 40
0.0
 41
0.8
 50
0.0
 71
0
 42
0.2
  3
gdt
  4

  0
ENDTAB
  0
TABLE
  2
VIEW
  5
6
100
AcDbSymbolTable
 70
0
  0
ENDTAB
  0
TABLE
  2
UCS
  5
7
100
AcDbSymbolTable
 70
0
  0
ENDTAB
  0
TABLE
  2
APPID
  5
9
100
AcDbSymbolTable
 70
1
  0
APPID
  5
210
100
AcDbSymbolTableRecord
100
AcDbRegAppTableRecord
  2
ACAD
 70
0
  0
ENDTAB
  0
TABLE
  2
BLOCK_RECORD
  5
1
100
AcDbSymbolTable
 70
0
  0
BLOCK_RECORD
  5
211
100
AcDbSymbolTableRecord
100
AcDbBlockTableRecord
  2
*Model_Space
  0
BLOCK_RECORD
  5
212
100
AcDbSymbolTableRecord
100
AcDbBlockTableRecord
  2
*Paper_Space
  0
BLOCK_RECORD
  5
213
100
AcDbSymbolTableRecord
100
AcDbBlockTableRecord
  2
_FILLED
  0
ENDTAB
  0
TABLE
  2
DIMSTYLE
  5
A
100
AcDbSymbolTable
 70
1
100
AcDbDimStyleTable
 71
0
  0
DIMSTYLE
105
214
100
AcDbSymbolTableRecord
100
AcDbDimStyleTableRecord
  2
STANDARD
 70
0
  3

  4

 40
1.0
 41
1.908866305
 42
1.0
 43
0.38
 44
1.0
 45
0.0
 46
0.0
 47
0.01
 48
0.01
140
2.6724128269
141
0.09
142
0.0
143
25.4
144
1.0
145
0.0
146
1.0
147
0.625
 71
1
 72
0
 73
0
 74
0
 75
0
 76
0
 77
1
 78
8
 79
2
170
0
171
1
172
0
173
0
174
0
175
0
176
0
177
0
178
0
270
2
179
2
271
2
272
2
273
2
274
2
275
0
280
0
281
0
282
0
283
1
284
8
285
0
286
0
287
3
288
0
340
11
278
46
341
213
342
213
343
213
344
213
  0
ENDTAB
  0
ENDSEC
  0
SECTION
  2
BLOCKS
  0
BLOCK
  5
20
100
AcDbEntity
  8
0
100
AcDbBlockBegin
  2
*Model_Space
 70
0
 10
0.0
 20
0.0
 30
0.0
  3
*Model_Space
  1

  0
ENDBLK
  5
21
100
AcDbEntity
  8
0
100
AcDbBlockEnd
  0
BLOCK
  5
1C
100
AcDbEntity
  8
0
100
AcDbBlockBegin
  2
*Paper_Space
 70
0
 10
0.0
 20
0.0
 30
0.0
  3
*Paper_Space
  1

  0
ENDBLK
  5
1D
100
AcDbEntity
  8
0
100
AcDbBlockEnd
  0
BLOCK
  5
215
100
AcDbEntity
  8
0
100
AcDbBlockBegin
  2
_FILLED
 70
64
 10
0.0
 20
0.0
  3
_FILLED
  1

  0
SOLID
  5
216
100
AcDbEntity
  8
0
  6
BYBLOCK
 62
0
100
AcDbTrace
 10
0.0
 20
0.0
 11
-1.0
 21
0.25
 12
-1.0
 22
-0.25
 13
-1.0
 23
-0.25
  0
ENDBLK
  5
217
100
AcDbEntity
  8
0
  6
BYBLOCK
 62
0
100
AcDbBlockEnd
  0
ENDSEC
  0
SECTION
  2
ENTITIES
  0
LINE
  5
218
100
AcDbEntity
  8
0
100
AcDbLine
 62
7
  6
CONTINUOUS
 10
140.9345874105
 20
34.0866585143
 11
142.1345874105
 21
34.0866585143
  0
LINE
  5
219
100
AcDbEntity
  8
0
100
AcDbLine
 62
7
  6
CONTINUOUS
 10
140.9345874105
 20
35.02922723
 11
142.1345874105
 21
35.02922723
  0
LINE
  5
21A
100
AcDbEntity
  8
0
100
AcDbLine
 62
7
  6
CONTINUOUS
 10
144.6345874105
 20
35.8866585143
 11
97.7345874105
 21
35.8866585143
  0
LINE
  5
21B
100
AcDbEntity
  8
0
100
AcDbLine
 62
7
  6
CONTINUOUS
 10
63.0935317893
 20
45.2866585143
 11
63.2176052887
 21
45.2866585143
  0
LINE
  5
21C
100
AcDbEntity
  8
0
100
AcDbLine
 62
7
  6
CONTINUOUS
 10
63.2370686595
 20
45.2866585143
 11
78.5845874105
 21
45.2866585143
  0
LINE
  5
21D
100
AcDbEntity
  8
0
100
AcDbLine
 62
7
  6
CONTINUOUS
 10
63.093262173
 20
46.0866585143
 11
57.6345874105
 21
46.0866585143
  0
LINE
  5
21E
100
AcDbEntity
  8
0
100
AcDbLine
 62
7
  6
CONTINUOUS
 10
63.1080672802
 20
46.0866585143
 11
63.2231394789
 21
46.0866585143
  0
LINE
  5
21F
100
AcDbEntity
  8
0
100
AcDbLine
 62
7
  6
CONTINUOUS
 10
63.2476159486
 20
46.0866585143
 11
79.0124036847
 21
46.0866585143
  0
LINE
  5
220
100
AcDbEntity
  8
0
100
AcDbLine
 62
7
  6
CONTINUOUS
 10
18.1358654006
 20
166.6176864573
 11
18.1358654006
 21
163.7155028844
  0
LINE
  5
221
100
AcDbEntity
  8
0
100
AcDbLine
 62
7
  6
CONTINUOUS
 10
18.5358654006
 20
162.4433511099
 11
18.5358654006
 21
162.1020643151
  0
LINE
  5
222
100
AcDbEntity
  8
0
100
AcDbLine
 62
7
  6
CONTINUOUS
 10
18.5358654006
 20
162.5211693016
 11
18.5358654006
 21
163.7155028844
  0
LINE
  5
223
100
AcDbEntity
  8
0
100
AcDbLine
 62
7
  6
CONTINUOUS
 10
18.5358654006
 20
166.6176864573
 11
18.5358654006
 21
169.5447275588
  0
LINE
  5
224
100
AcDbEntity
  8
0
100
AcDbLine
 62
7
  6
CONTINUOUS
 10
97.7345874105
 20
47.9866585143
 11
79.1668915984
 21
47.9866585143
  0
LINE
  5
225
100
AcDbEntity
  8
0
100
AcDbLine
 62
7
  6
CONTINUOUS
 10
37.7345874105
 20
54.023812281
 11
36.0345874105
 21
54.023812281
  0
LINE
  5
226
100
AcDbEntity
  8
0
100
AcDbLine
 62
7
  6
CONTINUOUS
 10
37.7345874105
 20
54.1077740339
 11
36.0345874105
 21
54.1077740339
  0
LINE
  5
227
100
AcDbEntity
  8
0
100
AcDbLine
 62
7
  6
CONTINUOUS
 10
37.7345874105
 20
54.6866585143
 11
57.6345874105
 21
54.6866585143
  0
LINE
  5
228
100
AcDbEntity
  8
0
100
AcDbLine
 62
7
  6
CONTINUOUS
 10
63.6932653158
 20
55.8866585143
 11
57.6345874105
 21
55.8866585143
  0
LINE
  5
229
100
AcDbEntity
  8
0
100
AcDbLine
 62
7
  6
CONTINUOUS
 10
36.115153659
 20
57.5366585143
 11
57.6345874105
 21
57.5366585143
  0
LINE
  5
22A
100
AcDbEntity
  8
0
100
AcDbLine
 62
7
  6
CONTINUOUS
 10
32.6358654006
 20
157.3394897917
 11
32.6358654006
 21
173.9629960852
  0
LINE
  5
22B
100
AcDbEntity
  8
0
100
AcDbLine
 62
7
  6
CONTINUOUS
 10
33.3345874105
 20
172.0116585143
 11
33.3345874105
 21
179.9616585143
  0
LINE
  5
22C
100
AcDbEntity
  8
0
100
AcDbLine
 62
7
  6
CONTINUOUS
 10
33.4344779278
 20
154.5866585143
 11
33.4344779278
 21
172.0116585143
  0
LINE
  5
22D
100
AcDbEntity
  8
0
100
AcDbLine
 62
7
  6
CONTINUOUS
 10
33.8826667303
 20
167.8965333758
 11
33.8826667303
 21
163.4767836528
  0
LINE
  5
22E
100
AcDbEntity
  8
0
100
AcDbLine
 62
7
  6
CONTINUOUS
 10
34.3345874105
 20
179.9616585143
 11
34.3345874105
 21
172.0116585143
  0
LINE
  5
22F
100
AcDbEntity
  8
0
100
AcDbLine
 62
7
  6
CONTINUOUS
 10
34.6170089485
 20
163.6620407938
 11
34.6170089485
 21
167.7112762349
  0
LINE
  5
230
100
AcDbEntity
  8
0
100
AcDbLine
 62
7
  6
CONTINUOUS
 10
36.2729100894
 20
62.0544620835
 11
36.0345874105
 21
62.0544620835
  0
LINE
  5
231
100
AcDbEntity
  8
0
100
AcDbLine
 62
7
  6
CONTINUOUS
 10
35.2358654006
 20
177.1699918477
 11
35.2358654006
 21
154.5866585143
  0
LINE
  5
232
100
AcDbEntity
  8
0
100
AcDbLine
 62
7
  6
CONTINUOUS
 10
35.4617933639
 20
71.3090320903
 11
35.4617933639
 21
90.184572626
  0
LINE
  5
233
100
AcDbEntity
  8
0
100
AcDbLine
 62
7
  6
CONTINUOUS
 10
36.0345874105
 20
62.0544978218
 11
36.0345874105
 21
54.0239433818
  0
LINE
  5
234
100
AcDbEntity
  8
0
100
AcDbLine
 62
7
  6
CONTINUOUS
 10
37.3345874105
 20
177.7281147164
 11
37.3345874105
 21
177.178325181
  0
LINE
  5
235
100
AcDbEntity
  8
0
100
AcDbLine
 62
7
  6
CONTINUOUS
 10
37.3619999554
 20
90.184572626
 11
37.3619999554
 21
71.2426754139
  0
LINE
  5
236
100
AcDbEntity
  8
0
100
AcDbLine
 62
7
  6
CONTINUOUS
 10
37.7345874105
 20
54.0239425269
 11
37.7345874105
 21
57.5366585143
  0
LINE
  5
237
100
AcDbEntity
  8
0
100
AcDbLine
 62
7
  6
CONTINUOUS
 10
39.2617933637
 20
115.684572626
 11
39.2617933637
 21
114.084572626
  0
LINE
  5
238
100
AcDbEntity
  8
0
100
AcDbLine
 62
7
  6
CONTINUOUS
 10
36.5947052544
 20
71.2694699354
 11
36.1151449123
 21
57.5366585143
  0
LINE
  5
239
100
AcDbEntity
  8
0
100
AcDbLine
 62
7
  6
CONTINUOUS
 10
38.0486077041
 20
57.5366585143
 11
38.5258131371
 21
71.2020341621
  0
LINE
  5
23A
100
AcDbEntity
  8
0
100
AcDbLine
 62
7
  6
CONTINUOUS
 10
38.5258131371
 20
71.2020341621
 11
35.4617933639
 21
71.3090320903
  0
LINE
  5
23B
100
AcDbEntity
  8
0
100
AcDbLine
 62
7
  6
CONTINUOUS
 10
144.6345874105
 20
80.0866585143
 11
144.9845874105
 21
80.0866585143
  0
LINE
  5
23C
100
AcDbEntity
  8
0
100
AcDbLine
 62
7
  6
CONTINUOUS
 10
53.2617933637
 20
93.184572626
 11
53.2617933637
 21
115.684572626
  0
LINE
  5
23D
100
AcDbEntity
  8
0
100
AcDbLine
 62
7
  6
CONTINUOUS
 10
54.6345874105
 20
115.514572626
 11
54.6345874105
 21
154.5866585143
  0
LINE
  5
23E
100
AcDbEntity
  8
0
100
AcDbLine
 62
7
  6
CONTINUOUS
 10
57.0345874105
 20
154.5866585143
 11
57.0345874105
 21
147.5866585143
  0
LINE
  5
23F
100
AcDbEntity
  8
0
100
AcDbLine
 62
7
  6
CONTINUOUS
 10
57.4345874105
 20
154.5866585143
 11
57.4345874105
 21
127.6866585143
  0
LINE
  5
240
100
AcDbEntity
  8
0
100
AcDbLine
 62
7
  6
CONTINUOUS
 10
57.4617933632
 20
57.5366585143
 11
57.4617933637
 21
93.184572626
  0
LINE
  5
241
100
AcDbEntity
  8
0
100
AcDbLine
 62
7
  6
CONTINUOUS
 10
57.6345874105
 20
46.0866585143
 11
57.6345874105
 21
57.5366585143
  0
LINE
  5
242
100
AcDbEntity
  8
0
100
AcDbLine
 62
7
  6
CONTINUOUS
 10
35.4617933639
 20
90.184572626
 11
57.4617933637
 21
90.184572626
  0
LINE
  5
243
100
AcDbEntity
  8
0
100
AcDbLine
 62
7
  6
CONTINUOUS
 10
57.4617933637
 20
93.184572626
 11
53.2617933637
 21
93.184572626
  0
LINE
  5
244
100
AcDbEntity
  8
0
100
AcDbLine
 62
7
  6
CONTINUOUS
 10
63.1071609513
 20
55.8866585143
 11
63.1071609513
 21
55.3866585143
  0
LINE
  5
245
100
AcDbEntity
  8
0
100
AcDbLine
 62
7
  6
CONTINUOUS
 10
63.1071609513
 20
50.0866585143
 11
63.1071609513
 21
46.0866585143
  0
LINE
  5
246
100
AcDbEntity
  8
0
100
AcDbLine
 62
7
  6
CONTINUOUS
 10
63.6932653158
 20
55.8866585143
 11
63.6932653158
 21
46.0866585143
  0
LINE
  5
247
100
AcDbEntity
  8
0
100
AcDbLine
 62
7
  6
CONTINUOUS
 10
63.2370686595
 20
45.2866585143
 11
63.2423411185
 21
46.0866585143
  0
LINE
  5
248
100
AcDbEntity
  8
0
100
AcDbLine
 62
7
  6
CONTINUOUS
 10
63.0935317893
 20
45.2866585143
 11
63.1007994875
 21
46.0866585143
  0
LINE
  5
249
100
AcDbEntity
  8
0
100
AcDbLine
 62
7
  6
CONTINUOUS
 10
142.1345874105
 20
99.5866585143
 11
140.6345874105
 21
99.5866585143
  0
LINE
  5
24A
100
AcDbEntity
  8
0
100
AcDbLine
 62
7
  6
CONTINUOUS
 10
72.3345874105
 20
45.2866585143
 11
72.3345874105
 21
46.0866585143
  0
LINE
  5
24B
100
AcDbEntity
  8
0
100
AcDbLine
 62
7
  6
CONTINUOUS
 10
142.2345874105
 20
102.4866585143
 11
142.1345874105
 21
102.4866585143
  0
LINE
  5
24C
100
AcDbEntity
  8
0
100
AcDbLine
 62
7
  6
CONTINUOUS
 10
78.5845874105
 20
45.2866585143
 11
78.5845874105
 21
46.0866585143
  0
LINE
  5
24D
100
AcDbEntity
  8
0
100
AcDbLine
 62
7
  6
CONTINUOUS
 10
39.2617933637
 20
114.084572626
 11
53.2617933637
 21
114.084572626
  0
LINE
  5
24E
100
AcDbEntity
  8
0
100
AcDbLine
 62
7
  6
CONTINUOUS
 10
53.2617933637
 20
115.514572626
 11
54.6345874105
 21
115.514572626
  0
LINE
  5
24F
100
AcDbEntity
  8
0
100
AcDbLine
 62
7
  6
CONTINUOUS
 10
53.2617933637
 20
115.684572626
 11
39.2617933637
 21
115.684572626
  0
LINE
  5
250
100
AcDbEntity
  8
0
100
AcDbLine
 62
7
  6
CONTINUOUS
 10
54.6345874105
 20
127.6866585143
 11
57.4345874105
 21
127.6866585143
  0
LINE
  5
251
100
AcDbEntity
  8
0
100
AcDbLine
 62
7
  6
CONTINUOUS
 10
97.7341335011
 20
177.1866585143
 11
97.7341335011
 21
178.9379407764
  0
LINE
  5
252
100
AcDbEntity
  8
0
100
AcDbLine
 62
7
  6
CONTINUOUS
 10
97.7341335011
 20
186.7353762522
 11
97.7341335011
 21
189.8866585143
  0
LINE
  5
253
100
AcDbEntity
  8
0
100
AcDbLine
 62
7
  6
CONTINUOUS
 10
97.7345874105
 20
35.8866585143
 11
97.7345874105
 21
47.9866585143
  0
LINE
  5
254
100
AcDbEntity
  8
0
100
AcDbLine
 62
7
  6
CONTINUOUS
 10
99.5881401635
 20
189.8866585143
 11
99.5881401635
 21
177.1866585143
  0
LINE
  5
255
100
AcDbEntity
  8
0
100
AcDbLine
 62
7
  6
CONTINUOUS
 10
140.7345874109
 20
129.8010178682
 11
139.9345874109
 21
129.8010178682
  0
LINE
  5
256
100
AcDbEntity
  8
0
100
AcDbLine
 62
7
  6
CONTINUOUS
 10
144.6345874105
 20
132.8866585143
 11
142.7070950243
 21
132.8866585143
  0
LINE
  5
257
100
AcDbEntity
  8
0
100
AcDbLine
 62
7
  6
CONTINUOUS
 10
140.7345874109
 20
133.1866585143
 11
139.9345874109
 21
133.1866585143
  0
LINE
  5
258
100
AcDbEntity
  8
0
100
AcDbLine
 62
7
  6
CONTINUOUS
 10
142.0365111996
 20
99.5866585143
 11
144.6345874105
 21
98.0866585143
  0
LINE
  5
259
100
AcDbEntity
  8
0
100
AcDbLine
 62
7
  6
CONTINUOUS
 10
144.3345874105
 20
98.3164879219
 11
144.6345874105
 21
98.1432828411
  0
LINE
  5
25A
100
AcDbEntity
  8
0
100
AcDbLine
 62
7
  6
CONTINUOUS
 10
139.9345874109
 20
135.1866585143
 11
141.6345874105
 21
135.1866585143
  0
LINE
  5
25B
100
AcDbEntity
  8
0
100
AcDbLine
 62
7
  6
CONTINUOUS
 10
144.1345874105
 20
109.9866585143
 11
140.6345874105
 21
107.9659325721
  0
LINE
  5
25C
100
AcDbEntity
  8
0
100
AcDbLine
 62
7
  6
CONTINUOUS
 10
57.4345874105
 20
143.6866585143
 11
54.6345874105
 21
143.6866585143
  0
LINE
  5
25D
100
AcDbEntity
  8
0
100
AcDbLine
 62
7
  6
CONTINUOUS
 10
57.0345874105
 20
147.5866585143
 11
57.4345874105
 21
147.5866585143
  0
LINE
  5
25E
100
AcDbEntity
  8
0
100
AcDbLine
 62
7
  6
CONTINUOUS
 10
144.6345874105
 20
82.5876958978
 11
144.9845874105
 21
82.0878440954
  0
LINE
  5
25F
100
AcDbEntity
  8
0
100
AcDbLine
 62
7
  6
CONTINUOUS
 10
57.0345874105
 20
153.7866585143
 11
54.6345874105
 21
153.7866585143
  0
LINE
  5
260
100
AcDbEntity
  8
0
100
AcDbLine
 62
7
  6
CONTINUOUS
 10
33.4344779278
 20
154.5866585143
 11
57.4345874105
 21
154.5866585143
  0
LINE
  5
261
100
AcDbEntity
  8
0
100
AcDbLine
 62
7
  6
CONTINUOUS
 10
34.6170089486
 20
167.7112772477
 11
33.8826667303
 21
167.8965337315
  0
LINE
  5
262
100
AcDbEntity
  8
0
100
AcDbLine
 62
7
  6
CONTINUOUS
 10
142.2345874105
 20
102.4866585143
 11
144.3345874105
 21
99.9866585143
  0
LINE
  5
263
100
AcDbEntity
  8
0
100
AcDbLine
 62
7
  6
CONTINUOUS
 10
33.4344779278
 20
157.3393971001
 11
32.6358654006
 21
157.3393971001
  0
LINE
  5
264
100
AcDbEntity
  8
0
100
AcDbLine
 62
7
  6
CONTINUOUS
 10
20.4410862408
 20
161.4223519083
 11
32.6358654006
 21
161.4223519083
  0
LINE
  5
265
100
AcDbEntity
  8
0
100
AcDbLine
 62
7
  6
CONTINUOUS
 10
139.9345874109
 20
127.8115296451
 11
144.1345874105
 21
125.3866585143
  0
LINE
  5
266
100
AcDbEntity
  8
0
100
AcDbLine
 62
7
  6
CONTINUOUS
 10
18.5358654006
 20
162.1020580822
 11
19.3132438406
 21
162.1020580822
  0
LINE
  5
267
100
AcDbEntity
  8
0
100
AcDbLine
 62
7
  6
CONTINUOUS
 10
32.6358654006
 20
162.2660522863
 11
33.4560188364
 21
162.2660522863
  0
LINE
  5
268
100
AcDbEntity
  8
0
100
AcDbLine
 62
7
  6
CONTINUOUS
 10
32.6358654006
 20
163.4162103997
 11
20.5325421554
 21
163.4162103997
  0
LINE
  5
269
100
AcDbEntity
  8
0
100
AcDbLine
 62
7
  6
CONTINUOUS
 10
18.1358654006
 20
163.7155028844
 11
32.6358654006
 21
163.7155028844
  0
LINE
  5
26A
100
AcDbEntity
  8
0
100
AcDbLine
 62
7
  6
CONTINUOUS
 10
32.6358654006
 20
166.6176864573
 11
18.1358654006
 21
166.6176864573
  0
LINE
  5
26B
100
AcDbEntity
  8
0
100
AcDbLine
 62
7
  6
CONTINUOUS
 10
20.556080503
 20
166.9176464462
 11
32.6358654006
 21
166.9176464462
  0
LINE
  5
26C
100
AcDbEntity
  8
0
100
AcDbLine
 62
7
  6
CONTINUOUS
 10
32.6358654006
 20
166.9719667541
 11
33.4464679434
 21
166.9719667541
  0
LINE
  5
26D
100
AcDbEntity
  8
0
100
AcDbLine
 62
7
  6
CONTINUOUS
 10
18.697675033
 20
168.4179276508
 11
18.5358654006
 21
168.4324106212
  0
LINE
  5
26E
100
AcDbEntity
  8
0
100
AcDbLine
 62
7
  6
CONTINUOUS
 10
139.9345874109
 20
135.1866585143
 11
139.9345874109
 21
127.8115296451
  0
LINE
  5
26F
100
AcDbEntity
  8
0
100
AcDbLine
 62
7
  6
CONTINUOUS
 10
140.6345874105
 20
107.9659325721
 11
140.6345874105
 21
99.5866585143
  0
LINE
  5
270
100
AcDbEntity
  8
0
100
AcDbLine
 62
7
  6
CONTINUOUS
 10
140.7345874109
 20
129.8010178682
 11
140.7345874109
 21
133.1866585143
  0
LINE
  5
271
100
AcDbEntity
  8
0
100
AcDbLine
 62
7
  6
CONTINUOUS
 10
140.9345874105
 20
34.0866667399
 11
140.9345874105
 21
35.8866585143
  0
LINE
  5
272
100
AcDbEntity
  8
0
100
AcDbLine
 62
7
  6
CONTINUOUS
 10
142.1345874105
 20
102.4866585143
 11
142.1345874105
 21
99.5300341875
  0
LINE
  5
273
100
AcDbEntity
  8
0
100
AcDbLine
 62
7
  6
CONTINUOUS
 10
142.1345874105
 20
34.0866667399
 11
142.1345874105
 21
35.8866585143
  0
LINE
  5
274
100
AcDbEntity
  8
0
100
AcDbLine
 62
7
  6
CONTINUOUS
 10
142.8345874105
 20
174.6866585143
 11
142.8345874105
 21
189.8866585143
  0
LINE
  5
275
100
AcDbEntity
  8
0
100
AcDbLine
 62
7
  6
CONTINUOUS
 10
143.0345874105
 20
189.8866585143
 11
143.0345874105
 21
192.6866429772
  0
LINE
  5
276
100
AcDbEntity
  8
0
100
AcDbLine
 62
7
  6
CONTINUOUS
 10
33.8826667303
 20
163.4767846603
 11
34.6170089486
 21
163.6620411425
  0
LINE
  5
277
100
AcDbEntity
  8
0
100
AcDbLine
 62
7
  6
CONTINUOUS
 10
32.6358654006
 20
168.9276703862
 11
20.4906181292
 21
168.9276703862
  0
LINE
  5
278
100
AcDbEntity
  8
0
100
AcDbLine
 62
7
  6
CONTINUOUS
 10
32.6358654006
 20
169.5447298377
 11
18.5358654006
 21
169.5447298394
  0
LINE
  5
279
100
AcDbEntity
  8
0
100
AcDbLine
 62
7
  6
CONTINUOUS
 10
34.3345874105
 20
172.0116585143
 11
33.3345874105
 21
172.0116585143
  0
LINE
  5
27A
100
AcDbEntity
  8
0
100
AcDbLine
 62
7
  6
CONTINUOUS
 10
33.3345874105
 20
173.9634608
 11
32.6358654006
 21
173.9634608
  0
LINE
  5
27B
100
AcDbEntity
  8
0
100
AcDbLine
 62
7
  6
CONTINUOUS
 10
144.6345874105
 20
174.6866585143
 11
142.8345874105
 21
174.6866585143
  0
LINE
  5
27C
100
AcDbEntity
  8
0
100
AcDbLine
 62
7
  6
CONTINUOUS
 10
34.3345874105
 20
178.0366585143
 11
37.3345874105
 21
177.7281147164
  0
LINE
  5
27D
100
AcDbEntity
  8
0
100
AcDbLine
 62
7
  6
CONTINUOUS
 10
144.1345874105
 20
125.3866585143
 11
144.1345874105
 21
109.9866585143
  0
LINE
  5
27E
100
AcDbEntity
  8
0
100
AcDbLine
 62
7
  6
CONTINUOUS
 10
144.3345874105
 20
98.2598635951
 11
144.3345874105
 21
99.9866585143
  0
LINE
  5
27F
100
AcDbEntity
  8
0
100
AcDbLine
 62
7
  6
CONTINUOUS
 10
144.5345874105
 20
175.7866585143
 11
144.5345874105
 21
192.6866429772
  0
LINE
  5
280
100
AcDbEntity
  8
0
100
AcDbLine
 62
7
  6
CONTINUOUS
 10
144.6345874105
 20
98.1432828411
 11
144.6345874105
 21
35.8866585143
  0
LINE
  5
281
100
AcDbEntity
  8
0
100
AcDbLine
 62
7
  6
CONTINUOUS
 10
144.6345874105
 20
132.8866585143
 11
144.6345874105
 21
189.5866585143
  0
LINE
  5
282
100
AcDbEntity
  8
0
100
AcDbLine
 62
7
  6
CONTINUOUS
 10
144.9845874105
 20
82.0878440954
 11
144.9845874105
 21
80.0866585143
  0
LINE
  5
283
100
AcDbEntity
  8
0
100
AcDbLine
 62
7
  6
CONTINUOUS
 10
35.2358654006
 20
177.1699918477
 11
99.5881401635
 21
177.1866585143
  0
LINE
  5
284
100
AcDbEntity
  8
0
100
AcDbLine
 62
7
  6
CONTINUOUS
 10
144.5345874105
 20
175.7866585143
 11
144.6345874105
 21
175.7866585143
  0
LINE
  5
285
100
AcDbEntity
  8
0
100
AcDbLine
 62
7
  6
CONTINUOUS
 10
142.8345874105
 20
176.1866585143
 11
144.5345874105
 21
176.1866585143
  0
LINE
  5
286
100
AcDbEntity
  8
0
100
AcDbLine
 62
7
  6
CONTINUOUS
 10
35.2358654006
 20
177.1866585143
 11
34.8954370543
 21
177.1866585143
  0
LINE
  5
287
100
AcDbEntity
  8
0
100
AcDbLine
 62
7
  6
CONTINUOUS
 10
33.3345874105
 20
179.9616585143
 11
34.3345874105
 21
179.9616585143
  0
LINE
  5
288
100
AcDbEntity
  8
0
100
AcDbLine
 62
7
  6
CONTINUOUS
 10
34.8954370426
 20
177.1804085143
 11
34.3345874105
 21
177.1824918476
  0
LINE
  5
289
100
AcDbEntity
  8
0
100
AcDbLine
 62
7
  6
CONTINUOUS
 10
142.7070950243
 20
132.8866585143
 11
141.6345874105
 21
135.1866585143
  0
LINE
  5
28A
100
AcDbEntity
  8
0
100
AcDbLine
 62
7
  6
CONTINUOUS
 10
97.7341335011
 20
189.8866585143
 11
143.0345874105
 21
189.8866585143
  0
LINE
  5
28B
100
AcDbEntity
  8
0
100
AcDbLine
 62
7
  6
CONTINUOUS
 10
143.0345874105
 20
190.5696585143
 11
144.5345874105
 21
190.5696585143
  0
LINE
  5
28C
100
AcDbEntity
  8
0
100
AcDbLine
 62
7
  6
CONTINUOUS
 10
144.5345874105
 20
191.688010919
 11
143.0345874105
 21
191.688010919
  0
LINE
  5
28D
100
AcDbEntity
  8
0
100
AcDbLine
 62
7
  6
CONTINUOUS
 10
143.0345874105
 20
192.6866585143
 11
144.5345874105
 21
192.6866585143
  0
ARC
  5
28E
100
AcDbEntity
  8
0
100
AcDbCircle
 62
7
  6
CONTINUOUS
 10
-319.5934962119
 20
79.4533569971
 40
400.0
100
AcDbArc
 50
355.215012249
 51
355.4880656166
  0
ARC
  5
28F
100
AcDbEntity
  8
0
100
AcDbCircle
 62
7
  6
CONTINUOUS
 10
144.3345874105
 20
189.5866585143
 40
0.3
100
AcDbArc
 50
0.0
 51
46.3946202653
  0
SPLINE
  5
290
100
AcDbEntity
  8
0
100
AcDbSpline
 62
7
  6
CONTINUOUS
 70
0
 71
3
 72
18
 73
14
 74
0
 42
0.0000001
 43
0.0000001
 44
0.0000000001
 40
0.0
 40
0.0
 40
0.0
 40
0.0
 40
0.0066915743
 40
0.0217723748
 40
0.0459309523
 40
0.0791497245
 40
0.1211419383
 40
0.1715078536
 40
0.2955407391
 40
0.4464825149
 40
0.618683549
 40
0.8057916114
 40
1.0
 40
1.0
 40
1.0
 40
1.0
 10
63.3994564766
 20
55.3866583841
 30
0.0
 10
63.4053934349
 20
55.3866619334
 30
0.0
 10
63.4169821998
 20
55.3651362452
 30
0.0
 10
63.4264024582
 20
55.3293390343
 30
0.0
 10
63.4390683352
 20
55.2642329549
 30
0.0
 10
63.4505988432
 20
55.1776605593
 30
0.0
 10
63.4625560251
 20
55.0665595178
 30
0.0
 10
63.4789505836
 20
54.8754079869
 30
0.0
 10
63.4970055333
 20
54.5871984397
 30
0.0
 10
63.5144626724
 20
54.1908592625
 30
0.0
 10
63.5277671411
 20
53.7383182007
 30
0.0
 10
63.5360722224
 20
53.2472849716
 30
0.0
 10
63.5379689577
 20
52.9089658477
 30
0.0
 10
63.5379689577
 20
52.7366585143
 30
0.0
  0
SPLINE
  5
291
100
AcDbEntity
  8
0
100
AcDbSpline
 62
7
  6
CONTINUOUS
 70
0
 71
3
 72
22
 73
18
 74
0
 42
0.0000001
 43
0.0000001
 44
0.0000000001
 40
0.0
 40
0.0
 40
0.0
 40
0.0
 40
0.001447464
 40
0.0051587346
 40
0.0112279747
 40
0.0196544352
 40
0.0304251425
 40
0.0435237129
 40
0.0766122771
 40
0.1185819115
 40
0.1690059158
 40
0.2274472897
 40
0.2933349409
 40
0.4447314617
 40
0.6174794191
 40
0.8051814459
 40
1.0
 40
1.0
 40
1.0
 40
1.0
 10
63.1405757289
 20
55.3866583672
 30
0.0
 10
63.1418552269
 20
55.3866607754
 30
0.0
 10
63.1434278016
 20
55.380622411
 30
0.0
 10
63.1453234487
 20
55.3723855943
 30
0.0
 10
63.1474089164
 20
55.3555878178
 30
0.0
 10
63.1495981258
 20
55.3337232757
 30
0.0
 10
63.1518541385
 20
55.3051233243
 30
0.0
 10
63.155188901
 20
55.2549506294
 30
0.0
 10
63.1592475647
 20
55.177083374
 30
0.0
 10
63.1639090689
 20
55.0662777657
 30
0.0
 10
63.168544755
 20
54.9330187133
 30
0.0
 10
63.1730697222
 20
54.7786119212
 30
0.0
 10
63.1791255532
 20
54.5349552704
 30
0.0
 10
63.1856896198
 20
54.1902425362
 30
0.0
 10
63.1916029089
 20
53.7378269011
 30
0.0
 10
63.1953445324
 20
53.2470038335
 30
0.0
 10
63.1962089783
 20
52.9088703248
 30
0.0
 10
63.1962089783
 20
52.7366585143
 30
0.0
  0
SPLINE
  5
292
100
AcDbEntity
  8
0
100
AcDbSpline
 62
7
  6
CONTINUOUS
 70
0
 71
3
 72
18
 73
14
 74
0
 42
0.0000001
 43
0.0000001
 44
0.0000000001
 40
0.0
 40
0.0
 40
0.0
 40
0.0
 40
0.0106322392
 40
0.0277807281
 40
0.0531560251
 40
0.0869946197
 40
0.12919324
 40
0.179453941
 40
0.3025744306
 40
0.452166184
 40
0.6226552681
 40
0.8077550149
 40
1.0
 40
1.0
 40
1.0
 40
1.0
 10
98.3888582838
 20
178.9366583817
 30
0.0
 10
98.4029168911
 20
178.9365726265
 30
0.0
 10
98.4371603757
 20
178.9590595687
 30
0.0
 10
98.4717526245
 20
179.0200398897
 30
0.0
 10
98.5099017945
 20
179.1140011318
 30
0.0
 10
98.547042307
 20
179.2429185439
 30
0.0
 10
98.5844584421
 20
179.4057493467
 30
0.0
 10
98.6364948834
 20
179.6860750195
 30
0.0
 10
98.6942716788
 20
180.1094251362
 30
0.0
 10
98.7506067153
 20
180.6928414078
 30
0.0
 10
98.7937680316
 20
181.359543116
 30
0.0
 10
98.8209458366
 20
182.0835005757
 30
0.0
 10
98.827157783
 20
182.5824819613
 30
0.0
 10
98.827157783
 20
182.8366849546
 30
0.0
  0
SPLINE
  5
293
100
AcDbEntity
  8
0
100
AcDbSpline
 62
7
  6
CONTINUOUS
 70
0
 71
3
 72
13
 73
9
 74
0
 42
0.0000001
 43
0.0000001
 44
0.0000000001
 40
0.0
 40
0.0
 40
0.0
 40
0.0
 40
0.023521915
 40
0.0834091579
 40
0.1773997087
 40
0.3019104782
 40
0.6232470427
 40
1.0
 40
1.0
 40
1.0
 40
1.0
 10
97.7341335011
 20
178.9379539297
 30
0.0
 10
97.7341335011
 20
178.9685260281
 30
0.0
 10
97.737974914
 20
179.0768934508
 30
0.0
 10
97.7426784252
 20
179.3074016987
 30
0.0
 10
97.7516923618
 20
179.6691279299
 30
0.0
 10
97.7659651813
 20
180.3706225883
 30
0.0
 10
97.7819945878
 20
181.4396741482
 30
0.0
 10
97.786669578
 20
182.3470086256
 30
0.0
 10
97.786669578
 20
182.8366851025
 30
0.0
  0
SPLINE
  5
294
100
AcDbEntity
  8
0
100
AcDbSpline
 62
7
  6
CONTINUOUS
 70
0
 71
3
 72
13
 73
9
 74
0
 42
0.0000001
 43
0.0000001
 44
0.0000000001
 40
0.0
 40
0.0
 40
0.0
 40
0.0
 40
0.3767953085
 40
0.6979354345
 40
0.8227133236
 40
0.916389092
 40
0.9761233842
 40
1.0
 40
1.0
 40
1.0
 40
1.0
 10
97.786669578
 20
182.8366851025
 30
0.0
 10
97.786669578
 20
183.3265072637
 30
0.0
 10
97.7820241726
 20
184.2338098979
 30
0.0
 10
97.7658982054
 20
185.3032045584
 30
0.0
 10
97.7517126396
 20
186.0045135003
 30
0.0
 10
97.7427116757
 20
186.3660461123
 30
0.0
 10
97.7378977143
 20
186.5964476088
 30
0.0
 10
97.7341335011
 20
186.7050992266
 30
0.0
 10
97.7341335011
 20
186.7361380832
 30
0.0
  0
SPLINE
  5
295
100
AcDbEntity
  8
0
100
AcDbSpline
 62
7
  6
CONTINUOUS
 70
0
 71
3
 72
18
 73
14
 74
0
 42
0.0000001
 43
0.0000001
 44
0.0000000001
 40
0.0
 40
0.0
 40
0.0
 40
0.0
 40
0.1922826179
 40
0.3773519987
 40
0.54776594
 40
0.6973617529
 40
0.8205943871
 40
0.8709180422
 40
0.9131138307
 40
0.9468970426
 40
0.9722132064
 40
0.9893423306
 40
1.0
 40
1.0
 40
1.0
 40
1.0
 10
98.827157783
 20
182.8366849546
 30
0.0
 10
98.827157783
 20
183.0909203274
 30
0.0
 10
98.8209843933
 20
183.5898774301
 30
0.0
 10
98.7938103111
 20
184.3136968272
 30
0.0
 10
98.7505620342
 20
184.9802127177
 30
0.0
 10
98.694220563
 20
185.5636413408
 30
0.0
 10
98.6364860692
 20
185.9872059037
 30
0.0
 10
98.5845168728
 20
186.267754221
 30
0.0
 10
98.5471223986
 20
186.4305896742
 30
0.0
 10
98.509939438
 20
186.5593171693
 30
0.0
 10
98.4717825067
 20
186.653096359
 30
0.0
 10
98.4370508761
 20
186.7138855443
 30
0.0
 10
98.402948861
 20
186.7364771072
 30
0.0
 10
98.3888573528
 20
186.7365026384
 30
0.0
  0
SPLINE
  5
296
100
AcDbEntity
  8
0
100
AcDbSpline
 62
7
  6
CONTINUOUS
 70
0
 71
3
 72
18
 73
14
 74
0
 42
0.0000001
 43
0.0000001
 44
0.0000000001
 40
0.0
 40
0.0
 40
0.0
 40
0.0
 40
0.1941929918
 40
0.3812832344
 40
0.5534922215
 40
0.7044482387
 40
0.8284942228
 40
0.8788612818
 40
0.9208527128
 40
0.9540729639
 40
0.9782304921
 40
0.993308412
 40
1.0
 40
1.0
 40
1.0
 40
1.0
 10
63.5379689577
 20
52.7366585143
 30
0.0
 10
63.5379689577
 20
52.5643648717
 30
0.0
 10
63.536074891
 20
52.2260752645
 30
0.0
 10
63.5277698069
 20
51.7350645339
 30
0.0
 10
63.5144673607
 20
51.2825196197
 30
0.0
 10
63.4970064057
 20
50.8861492712
 30
0.0
 10
63.4789493021
 20
50.5979147278
 30
0.0
 10
63.4625533138
 20
50.4067511425
 30
0.0
 10
63.4505951992
 20
50.2956490759
 30
0.0
 10
63.4390648054
 20
50.2090757152
 30
0.0
 10
63.4264015837
 20
50.1439746274
 30
0.0
 10
63.4169777294
 20
50.1081750117
 30
0.0
 10
63.4053924723
 20
50.0866594895
 30
0.0
 10
63.3994555018
 20
50.0866585211
 30
0.0
  0
SPLINE
  5
297
100
AcDbEntity
  8
0
100
AcDbSpline
 62
7
  6
CONTINUOUS
 70
0
 71
3
 72
22
 73
18
 74
0
 42
0.0000001
 43
0.0000001
 44
0.0000000001
 40
0.0
 40
0.0
 40
0.0
 40
0.0
 40
0.1948026052
 40
0.3824869435
 40
0.555243223
 40
0.7066541518
 40
0.7725488899
 40
0.8309965838
 40
0.8814216196
 40
0.9233902398
 40
0.9564804588
 40
0.9695790787
 40
0.9803485691
 40
0.9887732834
 40
0.9948409844
 40
0.9985516538
 40
1.0
 40
1.0
 40
1.0
 40
1.0
 10
63.1962089783
 20
52.7366585143
 30
0.0
 10
63.1962089783
 20
52.5644608243
 30
0.0
 10
63.1953457785
 20
52.22635709
 30
0.0
 10
63.1916038896
 20
51.7355564662
 30
0.0
 10
63.1856916973
 20
51.2831364189
 30
0.0
 10
63.1791262964
 20
50.9383973873
 30
0.0
 10
63.1730690926
 20
50.6947162107
 30
0.0
 10
63.168543778
 20
50.5402966742
 30
0.0
 10
63.1639079927
 20
50.4070320581
 30
0.0
 10
63.1592462551
 20
50.2962249328
 30
0.0
 10
63.1551877744
 20
50.2183572114
 30
0.0
 10
63.1518530014
 20
50.1681838672
 30
0.0
 10
63.1495973672
 20
50.1395869726
 30
0.0
 10
63.1474076929
 20
50.1177251164
 30
0.0
 10
63.1453238267
 20
50.1009337997
 30
0.0
 10
63.1434254038
 20
50.0926928952
 30
0.0
 10
63.1418557138
 20
50.086659476
 30
0.0
 10
63.1405754342
 20
50.0866585347
 30
0.0
  0
SPLINE
  5
298
100
AcDbEntity
  8
0
100
AcDbSpline
 62
7
  6
CONTINUOUS
 70
0
 71
3
 72
11
 73
7
 74
0
 42
0.0000001
 43
0.0000001
 44
0.0000000001
 40
0.0
 40
0.0
 40
0.0
 40
0.0
 40
0.1537736522
 40
0.3721335348
 40
0.6546584802
 40
1.0
 40
1.0
 40
1.0
 40
1.0
 10
18.5358654006
 20
162.5212417787
 30
0.0
 10
18.6392797347
 20
162.4761553922
 30
0.0
 10
18.8826222612
 20
162.3516292532
 30
0.0
 10
19.300702497
 20
162.1153238479
 30
0.0
 10
19.8339137738
 20
161.7971893851
 30
0.0
 10
20.2263992881
 20
161.5560792472
 30
0.0
 10
20.4415908838
 20
161.4223519084
 30
0.0
  0
SPLINE
  5
299
100
AcDbEntity
  8
0
100
AcDbSpline
 62
7
  6
CONTINUOUS
 70
0
 71
3
 72
11
 73
7
 74
0
 42
0.0000001
 43
0.0000001
 44
0.0000000001
 40
0.0
 40
0.0
 40
0.0
 40
0.0
 40
0.3307530261
 40
0.6071405753
 40
0.8295766217
 40
1.0
 40
1.0
 40
1.0
 40
1.0
 10
20.4903673202
 20
168.9276703862
 30
0.0
 10
20.2990411194
 20
168.8503315896
 30
0.0
 10
19.945604829
 20
168.7137955729
 30
0.0
 10
19.4538935523
 20
168.5508352477
 30
0.0
 10
19.0486609784
 20
168.4491517197
 30
0.0
 10
18.803974677
 20
168.4179377539
 30
0.0
 10
18.6976426995
 20
168.4179350389
 30
0.0
  0
SPLINE
  5
29A
100
AcDbEntity
  8
0
100
AcDbSpline
 62
7
  6
CONTINUOUS
 70
0
 71
3
 72
22
 73
18
 74
0
 42
0.0000001
 43
0.0000001
 44
0.0000000001
 40
0.0
 40
0.0
 40
0.0
 40
0.0
 40
0.1948360696
 40
0.3825461481
 40
0.5553210128
 40
0.7067547914
 40
0.77265917
 40
0.83110978
 40
0.88153007
 40
0.9234871793
 40
0.9565600043
 40
0.9696475366
 40
0.9804044174
 40
0.9888153637
 40
0.9948685285
 40
0.99856441
 40
1.0
 40
1.0
 40
1.0
 40
1.0
 10
63.1116745741
 20
52.7366585143
 30
0.0
 10
63.1116745741
 20
52.908842924
 30
0.0
 10
63.1118613545
 20
53.246914265
 30
0.0
 10
63.112758216
 20
53.7376729217
 30
0.0
 10
63.114384348
 20
54.1900734386
 30
0.0
 10
63.116559306
 20
54.5348254101
 30
0.0
 10
63.1189769911
 20
54.7785401789
 30
0.0
 10
63.1210049731
 20
54.9329808433
 30
0.0
 10
63.1233393313
 20
55.0662605171
 30
0.0
 10
63.1259796419
 20
55.1770762355
 30
0.0
 10
63.1285581146
 20
55.2549528823
 30
0.0
 10
63.1309195526
 20
55.3051311794
 30
0.0
 10
63.1326167308
 20
55.3337291121
 30
0.0
 10
63.134365998
 20
55.3555816019
 30
0.0
 10
63.1361275517
 20
55.3723832055
 30
0.0
 10
63.1378298928
 20
55.3805981799
 30
0.0
 10
63.139307043
 20
55.3866559794
 30
0.0
 10
63.1405757289
 20
55.3866583672
 30
0.0
  0
SPLINE
  5
29B
100
AcDbEntity
  8
0
100
AcDbSpline
 62
7
  6
CONTINUOUS
 70
0
 71
3
 72
19
 73
15
 74
0
 42
0.0000001
 43
0.0000001
 44
0.0000000001
 40
0.0
 40
0.0
 40
0.0
 40
0.0
 40
0.1927700771
 40
0.3783751058
 40
0.5492700171
 40
0.6990517526
 40
0.8222185199
 40
0.8723984103
 40
0.9143457863
 40
0.9477939693
 40
0.9727235401
 40
0.9820871801
 40
0.9895334887
 40
1.0
 40
1.0
 40
1.0
 40
1.0
 10
98.0628142002
 20
182.8366585143
 30
0.0
 10
98.0628142002
 20
182.5827467228
 30
0.0
 10
98.0661742848
 20
182.0843530428
 30
0.0
 10
98.0812468282
 20
181.3610025094
 30
0.0
 10
98.1063259531
 20
180.6945631408
 30
0.0
 10
98.1414512234
 20
180.11096085
 30
0.0
 10
98.1804024175
 20
179.6869632891
 30
0.0
 10
98.2186483782
 20
179.4059325124
 30
0.0
 10
98.2473686005
 20
179.242962938
 30
0.0
 10
98.2781476603
 20
179.1143677852
 30
0.0
 10
98.3065473423
 20
179.0295317065
 30
0.0
 10
98.3322357989
 20
178.9805152167
 30
0.0
 10
98.3528100102
 20
178.9515851101
 30
0.0
 10
98.3750723206
 20
178.9367424738
 30
0.0
 10
98.3888582838
 20
178.9366583817
 30
0.0
  0
SPLINE
  5
29C
100
AcDbEntity
  8
0
100
AcDbSpline
 62
7
  6
CONTINUOUS
 70
0
 71
3
 72
19
 73
15
 74
0
 42
0.0000001
 43
0.0000001
 44
0.0000000001
 40
0.0
 40
0.0
 40
0.0
 40
0.0
 40
0.0104330278
 40
0.0178636478
 40
0.0272247116
 40
0.0521709884
 40
0.0856443469
 40
0.1275941933
 40
0.177736023
 40
0.3008895437
 40
0.4507406351
 40
0.6216008907
 40
0.8072010449
 40
1.0
 40
1.0
 40
1.0
 40
1.0
 10
98.3888573528
 20
186.7365026384
 30
0.0
 10
98.3751152574
 20
186.7365275366
 30
0.0
 10
98.3527829471
 20
186.7218629839
 30
0.0
 10
98.3322328574
 20
186.6929882765
 30
0.0
 10
98.3065515168
 20
186.6439727347
 30
0.0
 10
98.2781650158
 20
186.5590750509
 30
0.0
 10
98.2473903022
 20
186.4304207126
 30
0.0
 10
98.2186720305
 20
186.2674646879
 30
0.0
 10
98.1803783264
 20
185.9865055513
 30
0.0
 10
98.1414581627
 20
185.5624790168
 30
0.0
 10
98.1063831977
 20
184.9788466724
 30
0.0
 10
98.0812366334
 20
184.3123706362
 30
0.0
 10
98.0661491208
 20
183.5890338468
 30
0.0
 10
98.0628142002
 20
183.0906083767
 30
0.0
 10
98.0628142002
 20
182.8366585143
 30
0.0
  0
SPLINE
  5
29D
100
AcDbEntity
  8
0
100
AcDbSpline
 62
7
  6
CONTINUOUS
 70
0
 71
3
 72
18
 73
14
 74
0
 42
0.0000001
 43
0.0000001
 44
0.0000000001
 40
0.0
 40
0.0
 40
0.0
 40
0.0
 40
0.0066270864
 40
0.0216280593
 40
0.0457166236
 40
0.0788815139
 40
0.1208362079
 40
0.1711813023
 40
0.2952227349
 40
0.4462241251
 40
0.6185100102
 40
0.8057013851
 40
1.0
 40
1.0
 40
1.0
 40
1.0
 10
63.3994555018
 20
50.0866585211
 30
0.0
 10
63.3935799402
 20
50.0866575627
 30
0.0
 10
63.382273109
 20
50.1082569943
 30
0.0
 10
63.3737073731
 20
50.1439988286
 30
0.0
 10
63.3622452413
 20
50.2091226016
 30
0.0
 10
63.3523978881
 20
50.295684404
 30
0.0
 10
63.3424610589
 20
50.4068082056
 30
0.0
 10
63.3293785677
 20
50.5980308667
 30
0.0
 10
63.3158063704
 20
50.8863179325
 30
0.0
 10
63.3034159563
 20
51.282695187
 30
0.0
 10
63.2944158522
 20
51.7352159493
 30
0.0
 10
63.2889689085
 20
52.2261631245
 30
0.0
 10
63.287754441
 20
52.5643937452
 30
0.0
 10
63.287754441
 20
52.7366585143
 30
0.0
  0
SPLINE
  5
29E
100
AcDbEntity
  8
0
100
AcDbSpline
 62
7
  6
CONTINUOUS
 70
0
 71
3
 72
22
 73
18
 74
0
 42
0.0000001
 43
0.0000001
 44
0.0000000001
 40
0.0
 40
0.0
 40
0.0
 40
0.0
 40
0.0014346666
 40
0.0051309246
 40
0.0111853274
 40
0.0195977486
 40
0.0303557095
 40
0.0434432947
 40
0.0765155983
 40
0.1184749349
 40
0.1688943285
 40
0.227336761
 40
0.2932315737
 40
0.4446536123
 40
0.6174321529
 40
0.8051550528
 40
1.0
 40
1.0
 40
1.0
 40
1.0
 10
63.1405754342
 20
50.0866585347
 30
0.0
 10
63.1393075622
 20
50.0866576026
 30
0.0
 10
63.1378276833
 20
50.0927201091
 30
0.0
 10
63.136128483
 20
50.1009305726
 30
0.0
 10
63.1343658192
 20
50.1177379747
 30
0.0
 10
63.1326175123
 20
50.139592546
 30
0.0
 10
63.1309202878
 20
50.1681932904
 30
0.0
 10
63.1285588209
 20
50.2183719055
 30
0.0
 10
63.1259796069
 20
50.2962502427
 30
0.0
 10
63.1233394945
 20
50.4070666378
 30
0.0
 10
63.1210049653
 20
50.5403402985
 30
0.0
 10
63.1189766349
 20
50.6947645027
 30
0.0
 10
63.116559228
 20
50.9384532598
 30
0.0
 10
63.1143847975
 20
51.2831897072
 30
0.0
 10
63.1127582618
 20
51.7355944997
 30
0.0
 10
63.1118611594
 20
52.2263756599
 30
0.0
 10
63.1116745741
 20
52.5644662315
 30
0.0
 10
63.1116745741
 20
52.7366585143
 30
0.0
  0
SPLINE
  5
29F
100
AcDbEntity
  8
0
100
AcDbSpline
 62
7
  6
CONTINUOUS
 70
0
 71
3
 72
18
 73
14
 74
0
 42
0.0000001
 43
0.0000001
 44
0.0000000001
 40
0.0
 40
0.0
 40
0.0
 40
0.0
 40
0.1942902307
 40
0.3814688183
 40
0.5537509046
 40
0.7047639194
 40
0.8288226505
 40
0.8791685859
 40
0.9211210821
 40
0.9542862244
 40
0.9783737155
 40
0.9933723915
 40
1.0
 40
1.0
 40
1.0
 40
1.0
 10
63.287754441
 20
52.7366585143
 30
0.0
 10
63.287754441
 20
52.9089158759
 30
0.0
 10
63.2889689994
 20
53.2471277764
 30
0.0
 10
63.2944159771
 20
53.738052886
 30
0.0
 10
63.3034152123
 20
54.1905693214
 30
0.0
 10
63.3158074107
 20
54.5869689127
 30
0.0
 10
63.3293778344
 20
54.8752823733
 30
0.0
 10
63.3424604238
 20
55.0665194775
 30
0.0
 10
63.3523978261
 20
55.1776417051
 30
0.0
 10
63.3622446904
 20
55.2642023256
 30
0.0
 10
63.3737048222
 20
55.3293201157
 30
0.0
 10
63.3822756018
 20
55.3650654264
 30
0.0
 10
63.3935804521
 20
55.3866548711
 30
0.0
 10
63.3994564766
 20
55.3866583841
 30
0.0
  0
SPLINE
  5
2A0
100
AcDbEntity
  8
0
100
AcDbSpline
 62
7
  6
CONTINUOUS
 70
0
 71
3
 72
9
 73
5
 74
0
 42
0.0000001
 43
0.0000001
 44
0.0000000001
 40
0.0
 40
0.0
 40
0.0
 40
0.0
 40
0.5406608199
 40
1.0
 40
1.0
 40
1.0
 40
1.0
 10
20.0784637117
 20
166.6381411742
 30
0.0
 10
20.1438704084
 20
166.7162780382
 30
0.0
 10
20.28328711
 20
166.8493485071
 30
0.0
 10
20.4696817634
 20
166.91216875
 30
0.0
 10
20.556080503
 20
166.9176464462
 30
0.0
  0
SPLINE
  5
2A1
100
AcDbEntity
  8
0
100
AcDbSpline
 62
7
  6
CONTINUOUS
 70
0
 71
3
 72
9
 73
5
 74
0
 42
0.0000001
 43
0.0000001
 44
0.0000000001
 40
0.0
 40
0.0
 40
0.0
 40
0.0
 40
0.4616319647
 40
1.0
 40
1.0
 40
1.0
 40
1.0
 10
20.5325421554
 20
163.4162103997
 30
0.0
 10
20.4600077483
 20
163.435686898
 30
0.0
 10
20.3112520195
 20
163.5110593938
 30
0.0
 10
20.1949423952
 20
163.6275938998
 30
0.0
 10
20.1391980967
 20
163.6951531076
 30
0.0
  0
SPLINE
  5
2A2
100
AcDbEntity
  8
0
100
AcDbSpline
 62
7
  6
CONTINUOUS
 70
0
 71
3
 72
8
 73
4
 74
0
 42
0.0000001
 43
0.0000001
 44
0.0000000001
 40
0.0
 40
0.0
 40
0.0
 40
0.0
 40
1.0
 40
1.0
 40
1.0
 40
1.0
 10
20.5325421554
 20
163.4162103997
 30
0.0
 10
20.5017026448
 20
162.7516072442
 30
0.0
 10
20.4712634791
 20
162.0869854646
 30
0.0
 10
20.4410862408
 20
161.4223519083
 30
0.0
  0
SPLINE
  5
2A3
100
AcDbEntity
  8
0
100
AcDbSpline
 62
7
  6
CONTINUOUS
 70
0
 71
3
 72
8
 73
4
 74
0
 42
0.0000001
 43
0.0000001
 44
0.0000000001
 40
0.0
 40
0.0
 40
0.0
 40
0.0
 40
1.0
 40
1.0
 40
1.0
 40
1.0
 10
20.4906181292
 20
168.9276703862
 30
0.0
 10
20.512288941
 20
168.2576575385
 30
0.0
 10
20.5340752866
 20
167.5876483945
 30
0.0
 10
20.556080503
 20
166.9176464462
 30
0.0
  0
ENDSEC
  0
SECTION
  2
OBJECTS
  0
DICTIONARY
  5
C
100
AcDbDictionary
280
0
281
1
  3
ACAD_GROUP
350
D
  3
ACAD_MLINESTYLE
350
17
  3
ACAD_LAYOUT
350
1A
  3
ACAD_PLOTSETTINGS
350
19
  3
ACAD_PLOTSTYLENAME
350
E
  0
DICTIONARY
  5
D
102
{ACAD_REACTORS
330
C
102
}
100
AcDbDictionary
280
0
281
1
  0
ACDBDICTIONARYWDFLT
  5
E
102
{ACAD_REACTORS
330
C
102
}
100
AcDbDictionary
281
1
  3
Normal
350
F
100
AcDbDictionaryWithDefault
340
F
  0
DICTIONARY
  5
17
102
{ACAD_REACTORS
330
C
102
}
100
AcDbDictionary
280
0
281
1
  3
Standard
350
18
  0
DICTIONARY
  5
19
102
{ACAD_REACTORS
330
C
102
}
100
AcDbDictionary
281
1
  0
DICTIONARY
  5
1A
102
{ACAD_REACTORS
330
C
102
}
100
AcDbDictionary
281
1
  3
Model
350
2A4
  3
Layout1
350
2A5
  0
ACDBPLACEHOLDER
  5
F
102
{ACAD_REACTORS
330
E
102
}
  0
MLINESTYLE
  5
18
102
{ACAD_REACTORS
330
17
102
}
100
AcDbMlineStyle
  2
STANDARD
 70
0
  3

 62
256
 51
90.0
 52
90.0
 71
2
 49
0.5
 62
256
  6
BYLAYER
 49
-0.5
 62
256
  6
BYLAYER
  0
LAYOUT
  5
2A4
102
{ACAD_REACTORS
330
1A
102
}
100
AcDbPlotSettings
  1

  2
none_device
  4

  6

 40
0.0
 41
0.0
 42
0.0
 43
0.0
 44
210.0
 45
297.0
 46
0.0
 47
0.0
 48
0.0
 49
0.0
140
0.0
141
0.0
142
1.0
143
1.0
 70
1024
 72
1
 73
0
 74
0
  7

 75
0
147
1.0
148
0.0
149
0.0
100
AcDbLayout
  1
Model
 70
0
 71
0
 10
0.0
 20
0.0
 11
210.0
 21
297.0
 12
0.0
 22
0.0
 32
0.0
 14
0.0
 24
0.0
 34
0.0
 15
0.0
 25
0.0
 35
0.0
146
0.0
 13
0.0
 23
0.0
 33
0.0
 16
1.0
 26
0.0
 36
0.0
 17
0.0
 27
1.0
 37
0.0
 76
0
330
211
345
0
346
0
  0
LAYOUT
  5
2A5
102
{ACAD_REACTORS
330
1A
102
}
100
AcDbPlotSettings
  1

  2
none_device
  4

  6

 40
0.0
 41
0.0
 42
0.0
 43
0.0
 44
210.0
 45
297.0
 46
0.0
 47
0.0
 48
0.0
 49
0.0
140
0.0
141
0.0
142
1.0
143
1.0
 70
0
 72
1
 73
0
 74
0
  7

 75
0
147
1.0
148
0.0
149
0.0
100
AcDbLayout
  1
Layout1
 70
0
 71
1
 10
0.0
 20
0.0
 11
210.0
 21
297.0
 12
0.0
 22
0.0
 32
0.0
 14
0.0
 24
0.0
 34
0.0
 15
0.0
 25
0.0
 35
0.0
146
0.0
 13
0.0
 23
0.0
 33
0.0
 16
1.0
 26
0.0
 36
0.0
 17
0.0
 27
1.0
 37
0.0
 76
0
330
212
345
0
346
0
  0
ENDSEC
  0
EOF
