999
DXF file: C:\Users\sesa63760\Dev\_Creo\CAD\MCADID0004033_3D-CAD\drw0001_6.dxf
999
Pro/ENGINEER 2019471 by Parametric Technology Corporation
  0
SECTION
  2
HEADER
  9
$ACADVER
  1
AC1024
  9
$DWGCODEPAGE
  3
ANSI_1252
  9
$EXTMAX
 10
92.782220454
 20
131.2205689278
 30
0.0
  9
$EXTMIN
 10
0.0
 20
0.0
 30
0.0
  9
$LIMMIN
 10
0.0
 20
0.0
  9
$LIMMAX
 10
92.782220454
 20
131.2205689278
  9
$VIEWCTR
 10
46.391110227
 20
65.6102844639
  9
$VIEWSIZE
 40
131.2205689278
  9
$CLAYER
  8
0
  9
$LTSCALE
 40
8.5536370857
  9
$CELTYPE
  6
BYLAYER
  9
$DIMSCALE
 40
1.0
  9
$DIMASZ
 40
1.1045502435
  9
$DIMEXO
 40
1.0
  9
$DIMDLI
 40
5.9097856228
  9
$DIMEXE
 40
1.0
  9
$DIMCEN
 40
1.3996860686
  9
$DIMLFAC
 40
1.0
  9
$DIMBLK
  1
_FILLED
  9
$DIMALT
 70
0
  9
$DIMALTF
 40
0.0393700787
  9
$DIMTXT
 40
1.5463703409
  9
$DIMTOL
 70
1
  9
$DIMLIM
 70
0
  9
$DIMTFAC
 40
1.0
  9
$DIMTP
 40
0.01
  9
$DIMTM
 40
0.01
  9
$DIMGAP
 40
0.625
  9
$DIMDSEP
 70
46
  9
$AUNITS
 70
0
  9
$PDMODE
 70
3
  9
$PDSIZE
 40
0.3125
  9
$HANDSEED
  5
33E
  9
$TILEMODE
 70
1
  9
$MEASUREMENT
 70
1
  9
$INSUNITS
 70
4
  0
ENDSEC
  0
SECTION
  2
CLASSES
  0
CLASS
  1
ACDBDICTIONARYWDFLT
  2
AcDbDictionaryWithDefault
  3
AutoCAD 2000
 90
0
 91
1
280
0
281
0
  0
CLASS
  1
ACDBPLACEHOLDER
  2
AcDbPlaceHolder
  3
AutoCAD 2000
 90
0
 91
1
280
0
281
0
  0
CLASS
  1
LAYOUT
  2
AcDbLayout
  3
AutoCAD 2000
 90
0
 91
0
280
0
281
0
  0
ENDSEC
  0
SECTION
  2
TABLES
  0
TABLE
  2
VPORT
  5
8
100
AcDbSymbolTable
 70
2
  0
VPORT
  5
1F4
100
AcDbSymbolTableRecord
100
AcDbViewportTableRecord
  2
*ACTIVE
 70
0
 10
0.0
 20
0.0
 11
1.0
 21
1.0
 12
46.391110227
 22
65.6102844639
 13
0.0
 23
0.0
 14
1.0
 24
1.0
 15
0.0
 25
0.0
 16
0.0
 26
0.0
 36
1.0
 17
0.0
 27
0.0
 37
0.0
 40
131.2205689278
 41
0.7070707071
 42
50.0
 43
0.0
 44
0.0
 50
0.0
 51
0.0
 71
0
 72
100
 73
1
 74
1
 75
0
 76
0
 77
0
 78
0
  0
ENDTAB
  0
TABLE
  2
LTYPE
  5
5
100
AcDbSymbolTable
 70
6
  0
LTYPE
  5
14
100
AcDbSymbolTableRecord
100
AcDbLinetypeTableRecord
  2
BYBLOCK
 70
0
  3

 72
65
 73
0
 40
0.0
  0
LTYPE
  5
15
100
AcDbSymbolTableRecord
100
AcDbLinetypeTableRecord
  2
BYLAYER
 70
0
  3

 72
65
 73
0
 40
0.0
  0
LTYPE
  5
16
100
AcDbSymbolTableRecord
100
AcDbLinetypeTableRecord
  2
CONTINUOUS
 70
64
  3
Solid line
 72
65
 73
0
 40
0.0
  0
LTYPE
  5
1F5
100
AcDbSymbolTableRecord
100
AcDbLinetypeTableRecord
  2
CENTER
 70
64
  3
____ _ ____ _ ____ _ ____ _ ____ _ ____ _ ____
 72
65
 73
4
 40
0.6
 49
0.375
 74
0
 49
-0.075
 74
0
 49
0.075
 74
0
 49
-0.075
 74
0
  0
LTYPE
  5
1F6
100
AcDbSymbolTableRecord
100
AcDbLinetypeTableRecord
  2
HIDDEN
 70
64
  3
- - - - - - - - - - - - - - - - - - - -
 72
65
 73
2
 40
0.2
 49
0.1
 74
0
 49
-0.1
 74
0
  0
LTYPE
  5
1F7
100
AcDbSymbolTableRecord
100
AcDbLinetypeTableRecord
  2
PHANTOM
 70
64
  3
_____ _ _ _____ _ _ _____ _ _ _____
 72
65
 73
6
 40
0.8
 49
0.45
 74
0
 49
-0.05
 74
0
 49
0.1
 74
0
 49
-0.05
 74
0
 49
0.1
 74
0
 49
-0.05
 74
0
  0
LTYPE
  5
1F8
100
AcDbSymbolTableRecord
100
AcDbLinetypeTableRecord
  2
DOT
 70
64
  3
. . . . . . . . . . . . . . . . . . . .
 72
65
 73
2
 40
0.2
 49
0.1
 74
0
 49
-0.1
 74
0
  0
LTYPE
  5
1F9
100
AcDbSymbolTableRecord
100
AcDbLinetypeTableRecord
  2
DASHED
 70
64
  3
- - - - - - - - - - - - - - - - - - - -
 72
65
 73
2
 40
0.2
 49
0.1
 74
0
 49
-0.1
 74
0
  0
ENDTAB
  0
TABLE
  2
LAYER
  5
2
100
AcDbSymbolTable
 70
36
  0
LAYER
  5
10
100
AcDbSymbolTableRecord
100
AcDbLayerTableRecord
  2
0
 70
0
 62
7
  6
CONTINUOUS
370
-3
390
F
  0
LAYER
  5
1FA
100
AcDbSymbolTableRecord
100
AcDbLayerTableRecord
  2
DEFAULT_1
 70
0
 62
7
  6
CENTER
370
-3
390
F
  0
LAYER
  5
1FB
100
AcDbSymbolTableRecord
100
AcDbLayerTableRecord
  2
DEFAULT_2
 70
0
 62
7
  6
HIDDEN
370
-3
390
F
  0
LAYER
  5
1FC
100
AcDbSymbolTableRecord
100
AcDbLayerTableRecord
  2
DEFAULT_3
 70
0
 62
7
  6
PHANTOM
370
-3
390
F
  0
LAYER
  5
1FD
100
AcDbSymbolTableRecord
100
AcDbLayerTableRecord
  2
00_COMPONENTS
 70
0
 62
7
  6
CONTINUOUS
370
-3
390
F
  0
LAYER
  5
1FE
100
AcDbSymbolTableRecord
100
AcDbLayerTableRecord
  2
01_1_DEFAULT_DATUMS
 70
0
 62
7
  6
CONTINUOUS
370
-3
390
F
  0
LAYER
  5
1FF
100
AcDbSymbolTableRecord
100
AcDbLayerTableRecord
  2
01_PLANES
 70
0
 62
7
  6
CONTINUOUS
370
-3
390
F
  0
LAYER
  5
200
100
AcDbSymbolTableRecord
100
AcDbLayerTableRecord
  2
02_COORD_SYS
 70
0
 62
7
  6
CONTINUOUS
370
-3
390
F
  0
LAYER
  5
201
100
AcDbSymbolTableRecord
100
AcDbLayerTableRecord
  2
03_AXES
 70
0
 62
7
  6
CONTINUOUS
370
-3
390
F
  0
LAYER
  5
202
100
AcDbSymbolTableRecord
100
AcDbLayerTableRecord
  2
04_POINTS
 70
0
 62
7
  6
CONTINUOUS
370
-3
390
F
  0
LAYER
  5
203
100
AcDbSymbolTableRecord
100
AcDbLayerTableRecord
  2
05_CURVES
 70
0
 62
7
  6
CONTINUOUS
370
-3
390
F
  0
LAYER
  5
204
100
AcDbSymbolTableRecord
100
AcDbLayerTableRecord
  2
06_SURFS
 70
0
 62
7
  6
CONTINUOUS
370
-3
390
F
  0
LAYER
  5
205
100
AcDbSymbolTableRecord
100
AcDbLayerTableRecord
  2
07_COSMETICS
 70
0
 62
7
  6
CONTINUOUS
370
-3
390
F
  0
LAYER
  5
206
100
AcDbSymbolTableRecord
100
AcDbLayerTableRecord
  2
10_NOTES
 70
0
 62
7
  6
CONTINUOUS
370
-3
390
F
  0
LAYER
  5
207
100
AcDbSymbolTableRecord
100
AcDbLayerTableRecord
  2
11_NOTES_PUB
 70
0
 62
7
  6
CONTINUOUS
370
-3
390
F
  0
LAYER
  5
208
100
AcDbSymbolTableRecord
100
AcDbLayerTableRecord
  2
13_REF_GTOL
 70
0
 62
7
  6
CONTINUOUS
370
-3
390
F
  0
LAYER
  5
209
100
AcDbSymbolTableRecord
100
AcDbLayerTableRecord
  2
16_MISC
 70
0
 62
7
  6
CONTINUOUS
370
-3
390
F
  0
LAYER
  5
20A
100
AcDbSymbolTableRecord
100
AcDbLayerTableRecord
  2
17_NO_PRINT
 70
0
 62
7
  6
CONTINUOUS
370
-3
390
F
  0
LAYER
  5
20B
100
AcDbSymbolTableRecord
100
AcDbLayerTableRecord
  2
18_DATUM_CAMS_JOINTS
 70
0
 62
7
  6
CONTINUOUS
370
-3
390
F
  0
LAYER
  5
20C
100
AcDbSymbolTableRecord
100
AcDbLayerTableRecord
  2
19_DATUM_FUNCTIONAL
 70
0
 62
7
  6
CONTINUOUS
370
-3
390
F
  0
LAYER
  5
20D
100
AcDbSymbolTableRecord
100
AcDbLayerTableRecord
  2
20_DATUM_KINEMATIC_SCHEME
 70
0
 62
7
  6
CONTINUOUS
370
-3
390
F
  0
ENDTAB
  0
TABLE
  2
STYLE
  5
3
100
AcDbSymbolTable
 70
1
  0
STYLE
  5
11
100
AcDbSymbolTableRecord
100
AcDbTextStyleTableRecord
  2
STANDARD
 70
0
 40
0.0
 41
1.0
 50
0.0
 71
0
 42
0.2
  3
ARIAL.TTF
  4

  0
STYLE
  5
20E
100
AcDbSymbolTableRecord
100
AcDbTextStyleTableRecord
  2
TEXTSTYLE_1
 70
0
 40
0.0
 41
0.8
 50
0.0
 71
0
 42
0.2
  3
gdt
  4

  0
ENDTAB
  0
TABLE
  2
VIEW
  5
6
100
AcDbSymbolTable
 70
0
  0
ENDTAB
  0
TABLE
  2
UCS
  5
7
100
AcDbSymbolTable
 70
0
  0
ENDTAB
  0
TABLE
  2
APPID
  5
9
100
AcDbSymbolTable
 70
1
  0
APPID
  5
20F
100
AcDbSymbolTableRecord
100
AcDbRegAppTableRecord
  2
ACAD
 70
0
  0
ENDTAB
  0
TABLE
  2
BLOCK_RECORD
  5
1
100
AcDbSymbolTable
 70
0
  0
BLOCK_RECORD
  5
210
100
AcDbSymbolTableRecord
100
AcDbBlockTableRecord
  2
*Model_Space
  0
BLOCK_RECORD
  5
211
100
AcDbSymbolTableRecord
100
AcDbBlockTableRecord
  2
*Paper_Space
  0
BLOCK_RECORD
  5
212
100
AcDbSymbolTableRecord
100
AcDbBlockTableRecord
  2
_FILLED
  0
ENDTAB
  0
TABLE
  2
DIMSTYLE
  5
A
100
AcDbSymbolTable
 70
1
100
AcDbDimStyleTable
 71
0
  0
DIMSTYLE
105
213
100
AcDbSymbolTableRecord
100
AcDbDimStyleTableRecord
  2
STANDARD
 70
0
  3

  4

 40
1.0
 41
1.1045502435
 42
1.0
 43
0.38
 44
1.0
 45
0.0
 46
0.0
 47
0.01
 48
0.01
140
1.5463703409
141
0.09
142
0.0
143
25.4
144
1.0
145
0.0
146
1.0
147
0.625
 71
1
 72
0
 73
0
 74
0
 75
0
 76
0
 77
1
 78
8
 79
2
170
0
171
1
172
0
173
0
174
0
175
0
176
0
177
0
178
0
270
2
179
2
271
2
272
2
273
2
274
2
275
0
280
0
281
0
282
0
283
1
284
8
285
0
286
0
287
3
288
0
340
11
278
46
341
212
342
212
343
212
344
212
  0
ENDTAB
  0
ENDSEC
  0
SECTION
  2
BLOCKS
  0
BLOCK
  5
20
100
AcDbEntity
  8
0
100
AcDbBlockBegin
  2
*Model_Space
 70
0
 10
0.0
 20
0.0
 30
0.0
  3
*Model_Space
  1

  0
ENDBLK
  5
21
100
AcDbEntity
  8
0
100
AcDbBlockEnd
  0
BLOCK
  5
1C
100
AcDbEntity
  8
0
100
AcDbBlockBegin
  2
*Paper_Space
 70
0
 10
0.0
 20
0.0
 30
0.0
  3
*Paper_Space
  1

  0
ENDBLK
  5
1D
100
AcDbEntity
  8
0
100
AcDbBlockEnd
  0
BLOCK
  5
214
100
AcDbEntity
  8
0
100
AcDbBlockBegin
  2
_FILLED
 70
64
 10
0.0
 20
0.0
  3
_FILLED
  1

  0
SOLID
  5
215
100
AcDbEntity
  8
0
  6
BYBLOCK
 62
0
100
AcDbTrace
 10
0.0
 20
0.0
 11
-1.0
 21
0.25
 12
-1.0
 22
-0.25
 13
-1.0
 23
-0.25
  0
ENDBLK
  5
216
100
AcDbEntity
  8
0
  6
BYBLOCK
 62
0
100
AcDbBlockEnd
  0
ENDSEC
  0
SECTION
  2
ENTITIES
  0
LINE
  5
217
100
AcDbEntity
  8
0
100
AcDbLine
 62
7
  6
BYLAYER
 10
10.4941736843
 20
67.5801448959
 11
10.4941736843
 21
69.5801209939
  0
LINE
  5
218
100
AcDbEntity
  8
0
100
AcDbLine
 62
7
  6
BYLAYER
 10
20.4941736843
 20
67.3748903434
 11
20.4941736843
 21
69.7846446452
  0
LINE
  5
219
100
AcDbEntity
  8
0
100
AcDbLine
 62
7
  6
BYLAYER
 10
20.6837064931
 20
67.1750155098
 11
20.6837064931
 21
69.9852503799
  0
LINE
  5
21A
100
AcDbEntity
  8
0
100
AcDbLine
 62
7
  6
BYLAYER
 10
22.3046408755
 20
70.0701999513
 11
22.3046408755
 21
67.0900659385
  0
LINE
  5
21B
100
AcDbEntity
  8
0
100
AcDbLine
 62
7
  6
BYLAYER
 10
22.4941736843
 20
59.5044533651
 11
22.4941736843
 21
71.7162281361
  0
LINE
  5
21C
100
AcDbEntity
  8
0
100
AcDbLine
 62
7
  6
BYLAYER
 10
22.6594440488
 20
59.3072256875
 11
22.6594440488
 21
71.9133432404
  0
LINE
  5
21D
100
AcDbEntity
  8
0
100
AcDbLine
 62
7
  6
BYLAYER
 10
25.1941736843
 20
58.8602844639
 11
25.1941736843
 21
72.3602844639
  0
LINE
  5
21E
100
AcDbEntity
  8
0
100
AcDbLine
 62
7
  6
BYLAYER
 10
25.6941736843
 20
57.8105482204
 11
25.6941736843
 21
73.4100207074
  0
LINE
  5
21F
100
AcDbEntity
  8
0
100
AcDbLine
 62
7
  6
BYLAYER
 10
25.8941736843
 20
57.6102844639
 11
25.8941736843
 21
73.6102844639
  0
LINE
  5
220
100
AcDbEntity
  8
0
100
AcDbLine
 62
7
  6
BYLAYER
 10
29.4941736843
 20
73.6102510961
 11
29.4941736843
 21
57.6105921742
  0
LINE
  5
221
100
AcDbEntity
  8
0
100
AcDbLine
 62
7
  6
BYLAYER
 10
29.5941736843
 20
57.6105502401
 11
29.5941736843
 21
73.6100186877
  0
LINE
  5
222
100
AcDbEntity
  8
0
100
AcDbLine
 62
7
  6
BYLAYER
 10
32.4941736843
 20
73.6102844639
 11
33.4941736843
 21
74.6102844639
  0
LINE
  5
223
100
AcDbEntity
  8
0
100
AcDbLine
 62
7
  6
BYLAYER
 10
72.0941736843
 20
54.8588743024
 11
71.8941736843
 21
54.8052844639
  0
LINE
  5
224
100
AcDbEntity
  8
0
100
AcDbLine
 62
7
  6
BYLAYER
 10
32.4941736843
 20
57.6102844639
 11
33.4941736843
 21
56.6102844639
  0
LINE
  5
225
100
AcDbEntity
  8
0
100
AcDbLine
 62
7
  6
BYLAYER
 10
32.4941736843
 20
73.6102844639
 11
32.4941736843
 21
57.6102844639
  0
LINE
  5
226
100
AcDbEntity
  8
0
100
AcDbLine
 62
7
  6
BYLAYER
 10
33.4941736843
 20
56.6102844639
 11
33.4941736843
 21
74.6102844639
  0
LINE
  5
227
100
AcDbEntity
  8
0
100
AcDbLine
 62
7
  6
BYLAYER
 10
71.4362837495
 20
51.9038780033
 11
69.3520636132
 21
51.9038780033
  0
LINE
  5
228
100
AcDbEntity
  8
0
100
AcDbLine
 62
7
  6
BYLAYER
 10
76.3520636191
 20
51.9038780033
 11
78.4362837495
 21
51.9038780033
  0
LINE
  5
229
100
AcDbEntity
  8
0
100
AcDbLine
 62
7
  6
BYLAYER
 10
22.6594440488
 20
59.3072256875
 11
25.1941736843
 21
58.8602844639
  0
LINE
  5
22A
100
AcDbEntity
  8
0
100
AcDbLine
 62
7
  6
BYLAYER
 10
83.2941736843
 20
56.6102844639
 11
78.8941736843
 21
56.6102844639
  0
LINE
  5
22B
100
AcDbEntity
  8
0
100
AcDbLine
 62
7
  6
BYLAYER
 10
75.2793092915
 20
56.6102844639
 11
72.509033447
 21
56.6102844639
  0
LINE
  5
22C
100
AcDbEntity
  8
0
100
AcDbLine
 62
7
  6
BYLAYER
 10
68.8941736843
 20
56.6102844639
 11
33.4941736843
 21
56.6102844639
  0
LINE
  5
22D
100
AcDbEntity
  8
0
100
AcDbLine
 62
7
  6
BYLAYER
 10
83.4941736843
 20
57.4102844639
 11
83.8264582111
 21
57.4102844639
  0
LINE
  5
22E
100
AcDbEntity
  8
0
100
AcDbLine
 62
7
  6
BYLAYER
 10
32.4941736843
 20
57.6102844639
 11
29.5941736843
 21
57.6102844639
  0
LINE
  5
22F
100
AcDbEntity
  8
0
100
AcDbLine
 62
7
  6
BYLAYER
 10
29.4941736843
 20
57.6102844639
 11
25.8941736843
 21
57.6102844639
  0
LINE
  5
230
100
AcDbEntity
  8
0
100
AcDbLine
 62
7
  6
BYLAYER
 10
29.5941736843
 20
57.6602844639
 11
29.4941736843
 21
57.6602844639
  0
LINE
  5
231
100
AcDbEntity
  8
0
100
AcDbLine
 62
7
  6
BYLAYER
 10
71.4362837497
 20
58.5320812336
 11
69.3520636189
 21
58.5320812336
  0
LINE
  5
232
100
AcDbEntity
  8
0
100
AcDbLine
 62
7
  6
BYLAYER
 10
76.3520636189
 20
58.5320812336
 11
78.4362837556
 21
58.5320812336
  0
LINE
  5
233
100
AcDbEntity
  8
0
100
AcDbLine
 62
7
  6
BYLAYER
 10
25.6941736843
 20
58.8602844639
 11
25.1941736843
 21
58.8602844639
  0
LINE
  5
234
100
AcDbEntity
  8
0
100
AcDbLine
 62
7
  6
BYLAYER
 10
71.4618923387
 20
59.1820812336
 11
69.326455061
 21
59.1820812336
  0
LINE
  5
235
100
AcDbEntity
  8
0
100
AcDbLine
 62
7
  6
BYLAYER
 10
76.3264550299
 20
59.1820812336
 11
78.46189228
 21
59.1820812336
  0
LINE
  5
236
100
AcDbEntity
  8
0
100
AcDbLine
 62
7
  6
BYLAYER
 10
75.6941736843
 20
54.8588743024
 11
75.8941736843
 21
54.8052844639
  0
LINE
  5
237
100
AcDbEntity
  8
0
100
AcDbLine
 62
7
  6
BYLAYER
 10
20.6837064931
 20
67.1750155098
 11
22.3046408755
 21
67.0900659385
  0
LINE
  5
238
100
AcDbEntity
  8
0
100
AcDbLine
 62
7
  6
BYLAYER
 10
10.4941736843
 20
67.5801329449
 11
20.4941736843
 21
67.5801329449
  0
LINE
  5
239
100
AcDbEntity
  8
0
100
AcDbLine
 62
7
  6
BYLAYER
 10
75.6941736843
 20
76.3616946254
 11
75.8941736843
 21
76.4152844639
  0
LINE
  5
23A
100
AcDbEntity
  8
0
100
AcDbLine
 62
7
  6
BYLAYER
 10
10.4941736843
 20
69.5801329449
 11
20.4941736843
 21
69.5801329449
  0
LINE
  5
23B
100
AcDbEntity
  8
0
100
AcDbLine
 62
7
  6
BYLAYER
 10
20.6837064931
 20
69.9852503799
 11
22.3046408755
 21
70.0701999513
  0
LINE
  5
23C
100
AcDbEntity
  8
0
100
AcDbLine
 62
7
  6
BYLAYER
 10
71.4618926636
 20
72.0384876942
 11
69.3264547272
 21
72.0384876942
  0
LINE
  5
23D
100
AcDbEntity
  8
0
100
AcDbLine
 62
7
  6
BYLAYER
 10
76.326454705
 20
72.0384876942
 11
78.4618926586
 21
72.0384876942
  0
LINE
  5
23E
100
AcDbEntity
  8
0
100
AcDbLine
 62
7
  6
BYLAYER
 10
25.6941736843
 20
72.3602844639
 11
25.1941736843
 21
72.3602844639
  0
LINE
  5
23F
100
AcDbEntity
  8
0
100
AcDbLine
 62
7
  6
BYLAYER
 10
71.4362837495
 20
72.6884876942
 11
69.3520636132
 21
72.6884876942
  0
LINE
  5
240
100
AcDbEntity
  8
0
100
AcDbLine
 62
7
  6
BYLAYER
 10
76.3520636191
 20
72.6884876942
 11
78.4362837283
 21
72.6884876942
  0
LINE
  5
241
100
AcDbEntity
  8
0
100
AcDbLine
 62
7
  6
BYLAYER
 10
29.5941736843
 20
73.5602844639
 11
29.4941736843
 21
73.5602844639
  0
LINE
  5
242
100
AcDbEntity
  8
0
100
AcDbLine
 62
7
  6
BYLAYER
 10
32.4941736843
 20
73.6102844639
 11
29.5941736843
 21
73.6102844639
  0
LINE
  5
243
100
AcDbEntity
  8
0
100
AcDbLine
 62
7
  6
BYLAYER
 10
29.4941736843
 20
73.6102844639
 11
25.8941736843
 21
73.6102844639
  0
LINE
  5
244
100
AcDbEntity
  8
0
100
AcDbLine
 62
7
  6
BYLAYER
 10
22.6594440488
 20
71.9133432404
 11
25.1941736843
 21
72.3602844639
  0
LINE
  5
245
100
AcDbEntity
  8
0
100
AcDbLine
 62
7
  6
BYLAYER
 10
83.4941736843
 20
73.8102844639
 11
83.8264582111
 21
73.8102844639
  0
LINE
  5
246
100
AcDbEntity
  8
0
100
AcDbLine
 62
7
  6
BYLAYER
 10
83.2941736843
 20
74.6102844639
 11
78.8941736843
 21
74.6102844639
  0
LINE
  5
247
100
AcDbEntity
  8
0
100
AcDbLine
 62
7
  6
BYLAYER
 10
75.2793139216
 20
74.6102844639
 11
72.5090380771
 21
74.6102844639
  0
LINE
  5
248
100
AcDbEntity
  8
0
100
AcDbLine
 62
7
  6
BYLAYER
 10
68.8941736843
 20
74.6102844639
 11
33.4941736843
 21
74.6102844639
  0
LINE
  5
249
100
AcDbEntity
  8
0
100
AcDbLine
 62
7
  6
BYLAYER
 10
71.4362837497
 20
79.3166909245
 11
69.3520636402
 21
79.3166909245
  0
LINE
  5
24A
100
AcDbEntity
  8
0
100
AcDbLine
 62
7
  6
BYLAYER
 10
76.3520636189
 20
79.3166909245
 11
78.4362837556
 21
79.3166909245
  0
LINE
  5
24B
100
AcDbEntity
  8
0
100
AcDbLine
 62
7
  6
BYLAYER
 10
68.8941736843
 20
77.6102844639
 11
69.3413558227
 21
79.2791909245
  0
LINE
  5
24C
100
AcDbEntity
  8
0
100
AcDbLine
 62
7
  6
BYLAYER
 10
72.5941736843
 20
66.1102844639
 11
72.0941736843
 21
65.6102844639
  0
LINE
  5
24D
100
AcDbEntity
  8
0
100
AcDbLine
 62
7
  6
BYLAYER
 10
72.0941736843
 20
76.3616946254
 11
71.8941736843
 21
76.4152844639
  0
LINE
  5
24E
100
AcDbEntity
  8
0
100
AcDbLine
 62
7
  6
BYLAYER
 10
72.5941736843
 20
65.1102844639
 11
72.0941736843
 21
65.6102844639
  0
LINE
  5
24F
100
AcDbEntity
  8
0
100
AcDbLine
 62
7
  6
BYLAYER
 10
68.8941736843
 20
53.6102844639
 11
69.3413558227
 21
51.9413780033
  0
LINE
  5
250
100
AcDbEntity
  8
0
100
AcDbLine
 62
7
  6
BYLAYER
 10
75.1941736843
 20
65.1102844639
 11
75.6941736843
 21
65.6102844639
  0
LINE
  5
251
100
AcDbEntity
  8
0
100
AcDbLine
 62
7
  6
BYLAYER
 10
75.1941736843
 20
66.1102844639
 11
75.6941736843
 21
65.6102844639
  0
LINE
  5
252
100
AcDbEntity
  8
0
100
AcDbLine
 62
7
  6
BYLAYER
 10
68.8941736843
 20
53.6102885122
 11
68.8941736843
 21
77.6102804156
  0
LINE
  5
253
100
AcDbEntity
  8
0
100
AcDbLine
 62
7
  6
BYLAYER
 10
71.8941736843
 20
77.6102804156
 11
71.8941736843
 21
53.6102885122
  0
LINE
  5
254
100
AcDbEntity
  8
0
100
AcDbLine
 62
7
  6
BYLAYER
 10
72.5941736843
 20
76.215940407
 11
72.5941736843
 21
75.8218445583
  0
LINE
  5
255
100
AcDbEntity
  8
0
100
AcDbLine
 62
7
  6
BYLAYER
 10
72.5941736843
 20
75.7251519215
 11
72.5941736843
 21
75.4449055123
  0
LINE
  5
256
100
AcDbEntity
  8
0
100
AcDbLine
 62
7
  6
BYLAYER
 10
72.5941736843
 20
75.2172912024
 11
72.5941736843
 21
74.8996933734
  0
LINE
  5
257
100
AcDbEntity
  8
0
100
AcDbLine
 62
7
  6
BYLAYER
 10
72.5941736843
 20
74.5450519344
 11
72.5941736843
 21
74.1955368725
  0
LINE
  5
258
100
AcDbEntity
  8
0
100
AcDbLine
 62
7
  6
BYLAYER
 10
72.5941736843
 20
73.7199363178
 11
72.5941736843
 21
73.3444843227
  0
LINE
  5
259
100
AcDbEntity
  8
0
100
AcDbLine
 62
7
  6
BYLAYER
 10
72.5941736843
 20
72.7560623096
 11
72.5941736843
 21
72.3610974689
  0
LINE
  5
25A
100
AcDbEntity
  8
0
100
AcDbLine
 62
7
  6
BYLAYER
 10
72.5941736843
 20
71.6699220613
 11
72.5941736843
 21
71.262202333
  0
LINE
  5
25B
100
AcDbEntity
  8
0
100
AcDbLine
 62
7
  6
BYLAYER
 10
72.5941736843
 20
70.4800997336
 11
72.5941736843
 21
70.0666013153
  0
LINE
  5
25C
100
AcDbEntity
  8
0
100
AcDbLine
 62
7
  6
BYLAYER
 10
72.5941736843
 20
69.2069535164
 11
72.5941736843
 21
68.7947514807
  0
LINE
  5
25D
100
AcDbEntity
  8
0
100
AcDbLine
 62
7
  6
BYLAYER
 10
72.5941736843
 20
67.8722672946
 11
72.5941736843
 21
67.4684145327
  0
LINE
  5
25E
100
AcDbEntity
  8
0
100
AcDbLine
 62
7
  6
BYLAYER
 10
72.5941736843
 20
66.4988779195
 11
72.5941736843
 21
66.1102844639
  0
LINE
  5
25F
100
AcDbEntity
  8
0
100
AcDbLine
 62
7
  6
BYLAYER
 10
72.5941736843
 20
65.1102844639
 11
72.5941736843
 21
64.7216910083
  0
LINE
  5
260
100
AcDbEntity
  8
0
100
AcDbLine
 62
7
  6
BYLAYER
 10
72.5941736843
 20
63.7521543952
 11
72.5941736843
 21
63.3483016332
  0
LINE
  5
261
100
AcDbEntity
  8
0
100
AcDbLine
 62
7
  6
BYLAYER
 10
72.5941736843
 20
62.4258174471
 11
72.5941736843
 21
62.0136154114
  0
LINE
  5
262
100
AcDbEntity
  8
0
100
AcDbLine
 62
7
  6
BYLAYER
 10
72.5941736843
 20
61.1539676125
 11
72.5941736843
 21
60.7404691943
  0
LINE
  5
263
100
AcDbEntity
  8
0
100
AcDbLine
 62
7
  6
BYLAYER
 10
72.5941736843
 20
59.9583665948
 11
72.5941736843
 21
59.5506468666
  0
LINE
  5
264
100
AcDbEntity
  8
0
100
AcDbLine
 62
7
  6
BYLAYER
 10
72.5941736843
 20
58.8594714589
 11
72.5941736843
 21
58.4645066182
  0
LINE
  5
265
100
AcDbEntity
  8
0
100
AcDbLine
 62
7
  6
BYLAYER
 10
72.5941736843
 20
57.8760846051
 11
72.5941736843
 21
57.50063261
  0
LINE
  5
266
100
AcDbEntity
  8
0
100
AcDbLine
 62
7
  6
BYLAYER
 10
72.5941736843
 20
57.0250320553
 11
72.5941736843
 21
56.6755169934
  0
LINE
  5
267
100
AcDbEntity
  8
0
100
AcDbLine
 62
7
  6
BYLAYER
 10
72.5941736843
 20
56.3208755545
 11
72.5941736843
 21
56.0032777254
  0
LINE
  5
268
100
AcDbEntity
  8
0
100
AcDbLine
 62
7
  6
BYLAYER
 10
72.5941736843
 20
55.7756634156
 11
72.5941736843
 21
55.4954170063
  0
LINE
  5
269
100
AcDbEntity
  8
0
100
AcDbLine
 62
7
  6
BYLAYER
 10
72.5941736843
 20
55.3987243695
 11
72.5941736843
 21
55.0046285208
  0
LINE
  5
26A
100
AcDbEntity
  8
0
100
AcDbLine
 62
7
  6
BYLAYER
 10
75.8941736843
 20
77.6102844639
 11
76.3413558227
 21
79.2791909245
  0
LINE
  5
26B
100
AcDbEntity
  8
0
100
AcDbLine
 62
7
  6
BYLAYER
 10
75.8941736843
 20
53.6102844639
 11
76.3413558227
 21
51.9413780033
  0
LINE
  5
26C
100
AcDbEntity
  8
0
100
AcDbLine
 62
7
  6
BYLAYER
 10
75.1941736843
 20
55.0046285208
 11
75.1941736843
 21
55.3987243695
  0
LINE
  5
26D
100
AcDbEntity
  8
0
100
AcDbLine
 62
7
  6
BYLAYER
 10
75.1941736843
 20
55.4954170063
 11
75.1941736843
 21
55.7756634156
  0
LINE
  5
26E
100
AcDbEntity
  8
0
100
AcDbLine
 62
7
  6
BYLAYER
 10
75.1941736843
 20
56.0032777254
 11
75.1941736843
 21
56.3208755545
  0
LINE
  5
26F
100
AcDbEntity
  8
0
100
AcDbLine
 62
7
  6
BYLAYER
 10
75.1941736843
 20
56.6755169934
 11
75.1941736843
 21
57.0250320553
  0
LINE
  5
270
100
AcDbEntity
  8
0
100
AcDbLine
 62
7
  6
BYLAYER
 10
75.1941736843
 20
57.50063261
 11
75.1941736843
 21
57.8760846051
  0
LINE
  5
271
100
AcDbEntity
  8
0
100
AcDbLine
 62
7
  6
BYLAYER
 10
75.1941736843
 20
58.4645066182
 11
75.1941736843
 21
58.8594714589
  0
LINE
  5
272
100
AcDbEntity
  8
0
100
AcDbLine
 62
7
  6
BYLAYER
 10
75.1941736843
 20
59.5506468666
 11
75.1941736843
 21
59.9583665948
  0
LINE
  5
273
100
AcDbEntity
  8
0
100
AcDbLine
 62
7
  6
BYLAYER
 10
75.1941736843
 20
60.7404691943
 11
75.1941736843
 21
61.1539676125
  0
LINE
  5
274
100
AcDbEntity
  8
0
100
AcDbLine
 62
7
  6
BYLAYER
 10
75.1941736843
 20
62.0136154114
 11
75.1941736843
 21
62.4258174471
  0
LINE
  5
275
100
AcDbEntity
  8
0
100
AcDbLine
 62
7
  6
BYLAYER
 10
75.1941736843
 20
63.3483016332
 11
75.1941736843
 21
63.7521543952
  0
LINE
  5
276
100
AcDbEntity
  8
0
100
AcDbLine
 62
7
  6
BYLAYER
 10
75.1941736843
 20
64.7216910083
 11
75.1941736843
 21
65.1102844639
  0
LINE
  5
277
100
AcDbEntity
  8
0
100
AcDbLine
 62
7
  6
BYLAYER
 10
75.1941736843
 20
66.1102844639
 11
75.1941736843
 21
66.4988779195
  0
LINE
  5
278
100
AcDbEntity
  8
0
100
AcDbLine
 62
7
  6
BYLAYER
 10
75.1941736843
 20
67.4684145327
 11
75.1941736843
 21
67.8722672946
  0
LINE
  5
279
100
AcDbEntity
  8
0
100
AcDbLine
 62
7
  6
BYLAYER
 10
75.1941736843
 20
68.7947514807
 11
75.1941736843
 21
69.2069535164
  0
LINE
  5
27A
100
AcDbEntity
  8
0
100
AcDbLine
 62
7
  6
BYLAYER
 10
75.1941736843
 20
70.0666013153
 11
75.1941736843
 21
70.4800997336
  0
LINE
  5
27B
100
AcDbEntity
  8
0
100
AcDbLine
 62
7
  6
BYLAYER
 10
75.1941736843
 20
71.262202333
 11
75.1941736843
 21
71.6699220613
  0
LINE
  5
27C
100
AcDbEntity
  8
0
100
AcDbLine
 62
7
  6
BYLAYER
 10
75.1941736843
 20
72.3610974689
 11
75.1941736843
 21
72.7560623096
  0
LINE
  5
27D
100
AcDbEntity
  8
0
100
AcDbLine
 62
7
  6
BYLAYER
 10
75.1941736843
 20
73.3444843227
 11
75.1941736843
 21
73.7199363178
  0
LINE
  5
27E
100
AcDbEntity
  8
0
100
AcDbLine
 62
7
  6
BYLAYER
 10
75.1941736843
 20
74.1955368725
 11
75.1941736843
 21
74.5450519344
  0
LINE
  5
27F
100
AcDbEntity
  8
0
100
AcDbLine
 62
7
  6
BYLAYER
 10
75.1941736843
 20
74.8996933734
 11
75.1941736843
 21
75.2172912024
  0
LINE
  5
280
100
AcDbEntity
  8
0
100
AcDbLine
 62
7
  6
BYLAYER
 10
75.1941736843
 20
75.4449055123
 11
75.1941736843
 21
75.7251519215
  0
LINE
  5
281
100
AcDbEntity
  8
0
100
AcDbLine
 62
7
  6
BYLAYER
 10
75.1941736843
 20
75.8218445583
 11
75.1941736843
 21
76.215940407
  0
LINE
  5
282
100
AcDbEntity
  8
0
100
AcDbLine
 62
7
  6
BYLAYER
 10
75.8941736843
 20
53.6102885122
 11
75.8941736843
 21
77.6102804156
  0
LINE
  5
283
100
AcDbEntity
  8
0
100
AcDbLine
 62
7
  6
BYLAYER
 10
71.8941736843
 20
53.6102844639
 11
71.446991546
 21
51.9413780033
  0
LINE
  5
284
100
AcDbEntity
  8
0
100
AcDbLine
 62
7
  6
BYLAYER
 10
71.8941736843
 20
77.6102844639
 11
71.446991546
 21
79.2791909245
  0
LINE
  5
285
100
AcDbEntity
  8
0
100
AcDbLine
 62
7
  6
BYLAYER
 10
78.8941736843
 20
77.6102804156
 11
78.8941736843
 21
53.6102885122
  0
LINE
  5
286
100
AcDbEntity
  8
0
100
AcDbLine
 62
7
  6
BYLAYER
 10
78.8941736843
 20
53.6102844639
 11
78.446991546
 21
51.9413780033
  0
LINE
  5
287
100
AcDbEntity
  8
0
100
AcDbLine
 62
7
  6
BYLAYER
 10
83.4941736843
 20
56.8102844639
 11
83.2941736843
 21
56.6102844639
  0
LINE
  5
288
100
AcDbEntity
  8
0
100
AcDbLine
 62
7
  6
BYLAYER
 10
83.4941736843
 20
74.4102844639
 11
83.2941736843
 21
74.6102844639
  0
LINE
  5
289
100
AcDbEntity
  8
0
100
AcDbLine
 62
7
  6
BYLAYER
 10
78.8941736843
 20
77.6102844639
 11
78.446991546
 21
79.2791909245
  0
LINE
  5
28A
100
AcDbEntity
  8
0
100
AcDbLine
 62
7
  6
BYLAYER
 10
83.2941736843
 20
74.6102844639
 11
83.2941736843
 21
56.6102844639
  0
LINE
  5
28B
100
AcDbEntity
  8
0
100
AcDbLine
 62
7
  6
BYLAYER
 10
83.4941736843
 20
74.4102337883
 11
83.4941736843
 21
56.8104537705
  0
LINE
  5
28C
100
AcDbEntity
  8
0
100
AcDbLine
 62
7
  6
BYLAYER
 10
83.6941736843
 20
73.8102844639
 11
83.6941736843
 21
57.4102844639
  0
LINE
  5
28D
100
AcDbEntity
  8
0
100
AcDbLine
 62
7
  6
BYLAYER
 10
83.8941736843
 20
73.6603072897
 11
83.8941736843
 21
57.5602909498
  0
ARC
  5
28E
100
AcDbEntity
  8
0
100
AcDbCircle
 62
7
  6
BYLAYER
 10
121.2043620552
 20
70.5958775897
 40
44.9010878715
100
AcDbArc
 50
177.3287691101
 51
178.1588486792
  0
ARC
  5
28F
100
AcDbEntity
  8
0
100
AcDbCircle
 62
7
  6
BYLAYER
 10
26.5839853136
 20
70.5958775925
 40
44.9010878713
100
AcDbArc
 50
1.8411513173
 51
2.6712308864
  0
ARC
  5
290
100
AcDbEntity
  8
0
100
AcDbCircle
 62
7
  6
BYLAYER
 10
121.2043622175
 20
60.6246688952
 40
44.9010869879
100
AcDbArc
 50
181.8411227041
 51
182.6712022733
  0
ARC
  5
291
100
AcDbEntity
  8
0
100
AcDbCircle
 62
7
  6
BYLAYER
 10
26.5839851518
 20
60.6246688958
 40
44.9010869873
100
AcDbArc
 50
357.3287977259
 51
358.158877295
  0
ARC
  5
292
100
AcDbEntity
  8
0
100
AcDbCircle
 62
7
  6
BYLAYER
 10
114.2043416257
 20
70.5958791532
 40
44.9010673973
100
AcDbArc
 50
177.3287698883
 51
178.1588498354
  0
ARC
  5
293
100
AcDbEntity
  8
0
100
AcDbCircle
 62
7
  6
BYLAYER
 10
33.5840057479
 20
70.5958791506
 40
44.9010673925
100
AcDbArc
 50
1.841150168
 51
2.6712301152
  0
ARC
  5
294
100
AcDbEntity
  8
0
100
AcDbCircle
 62
7
  6
BYLAYER
 10
33.5840739484
 20
60.6246628399
 40
44.9009980108
100
AcDbArc
 50
357.3288001648
 51
358.158881377
  0
ARC
  5
295
100
AcDbEntity
  8
0
100
AcDbCircle
 62
7
  6
BYLAYER
 10
114.2042730026
 20
60.6246628242
 40
44.900997593
100
AcDbArc
 50
181.8411186201
 51
182.67119984
  0
ARC
  5
296
100
AcDbEntity
  8
0
100
AcDbCircle
 62
7
  6
BYLAYER
 10
83.6941736843
 20
57.5602844639
 40
0.2
100
AcDbArc
 50
311.4096221093
 51
360.0
  0
ARC
  5
297
100
AcDbEntity
  8
0
100
AcDbCircle
 62
7
  6
BYLAYER
 10
83.6941736843
 20
73.6602844639
 40
0.2
100
AcDbArc
 50
0.0
 51
48.5903778907
  0
ARC
  5
298
100
AcDbEntity
  8
0
100
AcDbCircle
 62
7
  6
BYLAYER
 10
20.6941736843
 20
67.3747414168
 40
0.2
100
AcDbArc
 50
180.0
 51
267.0
  0
ARC
  5
299
100
AcDbEntity
  8
0
100
AcDbCircle
 62
7
  6
BYLAYER
 10
20.6941736843
 20
69.785524473
 40
0.2
100
AcDbArc
 50
93.0
 51
180.0
  0
ARC
  5
29A
100
AcDbEntity
  8
0
100
AcDbCircle
 62
7
  6
BYLAYER
 10
22.2941736843
 20
70.2699258582
 40
0.2
100
AcDbArc
 50
273.0
 51
360.0
  0
ARC
  5
29B
100
AcDbEntity
  8
0
100
AcDbCircle
 62
7
  6
BYLAYER
 10
22.2941736843
 20
66.8903400316
 40
0.2
100
AcDbArc
 50
0.0
 51
87.0
  0
ARC
  5
29C
100
AcDbEntity
  8
0
100
AcDbCircle
 62
7
  6
BYLAYER
 10
25.8941736843
 20
73.4102844639
 40
0.2
100
AcDbArc
 50
90.0
 51
180.0
  0
ARC
  5
29D
100
AcDbEntity
  8
0
100
AcDbCircle
 62
7
  6
BYLAYER
 10
25.8941736843
 20
57.8102844639
 40
0.2
100
AcDbArc
 50
180.0
 51
270.0
  0
ARC
  5
29E
100
AcDbEntity
  8
0
100
AcDbCircle
 62
7
  6
BYLAYER
 10
22.6941736843
 20
59.5041872381
 40
0.2
100
AcDbArc
 50
180.0
 51
260.0
  0
ARC
  5
29F
100
AcDbEntity
  8
0
100
AcDbCircle
 62
7
  6
BYLAYER
 10
22.6941736843
 20
71.7163816898
 40
0.2
100
AcDbArc
 50
100.0
 51
180.0
  0
SPLINE
  5
2A0
100
AcDbEntity
  8
0
100
AcDbSpline
 62
7
  6
BYLAYER
 70
0
 71
3
 72
10
 73
6
 74
0
 42
0.0000001
 43
0.0000001
 44
0.0000000001
 40
0.0
 40
0.0
 40
0.0
 40
0.0
 40
0.5031597981
 40
0.7520634304
 40
1.0
 40
1.0
 40
1.0
 40
1.0
 10
69.3520636191
 20
51.9038780033
 30
0.0
 10
69.2109865545
 20
52.4483552975
 30
0.0
 10
69.0371741085
 20
53.2733245355
 30
0.0
 10
68.9149513171
 20
54.3851998344
 30
0.0
 10
68.8941746462
 20
54.940823635
 30
0.0
 10
68.8941747403
 20
55.2179796093
 30
0.0
  0
SPLINE
  5
2A1
100
AcDbEntity
  8
0
100
AcDbSpline
 62
7
  6
BYLAYER
 70
0
 71
3
 72
10
 73
6
 74
0
 42
0.0000001
 43
0.0000001
 44
0.0000000001
 40
0.0
 40
0.0
 40
0.0
 40
0.0
 40
0.5031597981
 40
0.7520634304
 40
1.0
 40
1.0
 40
1.0
 40
1.0
 10
71.4362837497
 20
79.3166909245
 30
0.0
 10
71.577360818
 20
78.7722136281
 30
0.0
 10
71.751173261
 20
77.9472443846
 30
0.0
 10
71.8733960529
 20
76.8353690797
 30
0.0
 10
71.8941727229
 20
76.2797452759
 30
0.0
 10
71.8941726283
 20
76.0025893001
 30
0.0
  0
SPLINE
  5
2A2
100
AcDbEntity
  8
0
100
AcDbSpline
 62
7
  6
BYLAYER
 70
0
 71
3
 72
11
 73
7
 74
0
 42
0.0000001
 43
0.0000001
 44
0.0000000001
 40
0.0
 40
0.0
 40
0.0
 40
0.0
 40
0.2478893835
 40
0.4967444875
 40
0.7473102907
 40
1.0
 40
1.0
 40
1.0
 40
1.0
 10
71.8941726283
 20
76.0025893001
 30
0.0
 10
71.8941726877
 20
75.7254318695
 30
0.0
 10
71.8733934082
 20
75.1698272038
 30
0.0
 10
71.7820174799
 20
74.3386560385
 30
0.0
 10
71.6357667609
 20
73.5100426948
 30
0.0
 10
71.5071473131
 20
72.9619807712
 30
0.0
 10
71.4362837495
 20
72.6884876942
 30
0.0
  0
SPLINE
  5
2A3
100
AcDbEntity
  8
0
100
AcDbSpline
 62
7
  6
BYLAYER
 70
0
 71
3
 72
10
 73
6
 74
0
 42
0.0000001
 43
0.0000001
 44
0.0000000001
 40
0.0
 40
0.0
 40
0.0
 40
0.0
 40
0.499975148
 40
0.7499877105
 40
1.0
 40
1.0
 40
1.0
 40
1.0
 10
71.4618926636
 20
72.0384876942
 30
0.0
 10
71.5967515305
 20
70.9726263638
 30
0.0
 10
71.7604653572
 20
69.3681997978
 30
0.0
 10
71.8747391026
 20
67.2220909199
 30
0.0
 10
71.8941736859
 20
66.1475169908
 30
0.0
 10
71.8941736859
 20
65.6102843747
 30
0.0
  0
SPLINE
  5
2A4
100
AcDbEntity
  8
0
100
AcDbSpline
 62
7
  6
BYLAYER
 70
0
 71
3
 72
11
 73
7
 74
0
 42
0.0000001
 43
0.0000001
 44
0.0000000001
 40
0.0
 40
0.0
 40
0.0
 40
0.0
 40
0.247889401
 40
0.4967445174
 40
0.747310414
 40
1.0
 40
1.0
 40
1.0
 40
1.0
 10
68.8941747393
 20
76.0025892658
 30
0.0
 10
68.8941738488
 20
76.2797467022
 30
0.0
 10
68.9149551102
 20
76.8353513096
 30
0.0
 10
69.0063295706
 20
77.66652277
 30
0.0
 10
69.15258516
 20
78.495135137
 30
0.0
 10
69.2812001161
 20
79.0431979942
 30
0.0
 10
69.3520636402
 20
79.3166909245
 30
0.0
  0
SPLINE
  5
2A5
100
AcDbEntity
  8
0
100
AcDbSpline
 62
7
  6
BYLAYER
 70
0
 71
3
 72
11
 73
7
 74
0
 42
0.0000001
 43
0.0000001
 44
0.0000000001
 40
0.0
 40
0.0
 40
0.0
 40
0.0
 40
0.2478893835
 40
0.4967444875
 40
0.7473102907
 40
1.0
 40
1.0
 40
1.0
 40
1.0
 10
71.8941726283
 20
55.2179796093
 30
0.0
 10
71.8941726877
 20
54.9408221786
 30
0.0
 10
71.8733934082
 20
54.3852175129
 30
0.0
 10
71.7820174799
 20
53.5540463477
 30
0.0
 10
71.6357667609
 20
52.7254330039
 30
0.0
 10
71.5071473131
 20
52.1773710803
 30
0.0
 10
71.4362837495
 20
51.9038780033
 30
0.0
  0
SPLINE
  5
2A6
100
AcDbEntity
  8
0
100
AcDbSpline
 62
7
  6
BYLAYER
 70
0
 71
3
 72
10
 73
6
 74
0
 42
0.0000001
 43
0.0000001
 44
0.0000000001
 40
0.0
 40
0.0
 40
0.0
 40
0.0
 40
0.5031597986
 40
0.7520634306
 40
1.0
 40
1.0
 40
1.0
 40
1.0
 10
69.352063641
 20
72.6884876942
 30
0.0
 10
69.2109865774
 20
73.2329649839
 30
0.0
 10
69.0371737427
 20
74.0579342095
 30
0.0
 10
68.9149519189
 20
75.1698094994
 30
0.0
 10
68.8941733336
 20
75.7254332943
 30
0.0
 10
68.8941747393
 20
76.0025892658
 30
0.0
  0
SPLINE
  5
2A7
100
AcDbEntity
  8
0
100
AcDbSpline
 62
7
  6
BYLAYER
 70
0
 71
3
 72
10
 73
6
 74
0
 42
0.0000001
 43
0.0000001
 44
0.0000000001
 40
0.0
 40
0.0
 40
0.0
 40
0.0
 40
0.2500122893
 40
0.5000248477
 40
1.0
 40
1.0
 40
1.0
 40
1.0
 10
68.8941736827
 20
65.6102843747
 30
0.0
 10
68.8941736827
 20
66.1475169837
 30
0.0
 10
68.9136104167
 20
67.2220908469
 30
0.0
 10
69.0278820009
 20
69.3681997701
 30
0.0
 10
69.1915958637
 20
70.9726263672
 30
0.0
 10
69.3264547272
 20
72.0384876942
 30
0.0
  0
SPLINE
  5
2A8
100
AcDbEntity
  8
0
100
AcDbSpline
 62
7
  6
BYLAYER
 70
0
 71
3
 72
10
 73
6
 74
0
 42
0.0000001
 43
0.0000001
 44
0.0000000001
 40
0.0
 40
0.0
 40
0.0
 40
0.0
 40
0.4999751553
 40
0.7499877106
 40
1.0
 40
1.0
 40
1.0
 40
1.0
 10
69.3264550886
 20
59.1820812336
 30
0.0
 10
69.1915962455
 20
60.2479425519
 30
0.0
 10
69.027882055
 20
61.8523690602
 30
0.0
 10
68.9136093723
 20
63.9984779148
 30
0.0
 10
68.8941736849
 20
65.0730517743
 30
0.0
 10
68.8941736827
 20
65.6102843747
 30
0.0
  0
SPLINE
  5
2A9
100
AcDbEntity
  8
0
100
AcDbSpline
 62
7
  6
BYLAYER
 70
0
 71
3
 72
11
 73
7
 74
0
 42
0.0000001
 43
0.0000001
 44
0.0000000001
 40
0.0
 40
0.0
 40
0.0
 40
0.0
 40
0.2478893836
 40
0.4967444874
 40
0.7473102906
 40
1.0
 40
1.0
 40
1.0
 40
1.0
 10
68.8941747403
 20
55.2179796093
 30
0.0
 10
68.8941746805
 20
55.4951370414
 30
0.0
 10
68.9149539603
 20
56.0507417102
 30
0.0
 10
69.0063298875
 20
56.88191288
 30
0.0
 10
69.1525806033
 20
57.7105262291
 30
0.0
 10
69.2812000565
 20
58.2585881547
 30
0.0
 10
69.3520636189
 20
58.5320812336
 30
0.0
  0
SPLINE
  5
2AA
100
AcDbEntity
  8
0
100
AcDbSpline
 62
7
  6
BYLAYER
 70
0
 71
3
 72
10
 73
6
 74
0
 42
0.0000001
 43
0.0000001
 44
0.0000000001
 40
0.0
 40
0.0
 40
0.0
 40
0.0
 40
0.2500122727
 40
0.500024834
 40
1.0
 40
1.0
 40
1.0
 40
1.0
 10
71.8941736859
 20
65.6102843747
 30
0.0
 10
71.8941736838
 20
65.0730518051
 30
0.0
 10
71.8747326629
 20
63.998478133
 30
0.0
 10
71.760474137
 20
61.8523685287
 30
0.0
 10
71.5967512079
 20
60.2479425821
 30
0.0
 10
71.4618923387
 20
59.1820812336
 30
0.0
  0
SPLINE
  5
2AB
100
AcDbEntity
  8
0
100
AcDbSpline
 62
7
  6
BYLAYER
 70
0
 71
3
 72
10
 73
6
 74
0
 42
0.0000001
 43
0.0000001
 44
0.0000000001
 40
0.0
 40
0.0
 40
0.0
 40
0.0
 40
0.5031597981
 40
0.7520634304
 40
1.0
 40
1.0
 40
1.0
 40
1.0
 10
71.4362837497
 20
58.5320812336
 30
0.0
 10
71.577360818
 20
57.9876039372
 30
0.0
 10
71.751173261
 20
57.1626346937
 30
0.0
 10
71.8733960528
 20
56.0507593888
 30
0.0
 10
71.8941727229
 20
55.495135585
 30
0.0
 10
71.8941726283
 20
55.2179796093
 30
0.0
  0
SPLINE
  5
2AC
100
AcDbEntity
  8
0
100
AcDbSpline
 62
7
  6
BYLAYER
 70
0
 71
3
 72
10
 73
6
 74
0
 42
0.0000001
 43
0.0000001
 44
0.0000000001
 40
0.0
 40
0.0
 40
0.0
 40
0.0
 40
0.499975169
 40
0.7499877294
 40
1.0
 40
1.0
 40
1.0
 40
1.0
 10
76.3264550299
 20
59.1820812336
 30
0.0
 10
76.19159616
 20
60.2479425885
 30
0.0
 10
76.0278732334
 20
61.8523685397
 30
0.0
 10
75.9136147041
 20
63.9984781438
 30
0.0
 10
75.8941736849
 20
65.0730518096
 30
0.0
 10
75.8941736827
 20
65.6102843747
 30
0.0
  0
SPLINE
  5
2AD
100
AcDbEntity
  8
0
100
AcDbSpline
 62
7
  6
BYLAYER
 70
0
 71
3
 72
11
 73
7
 74
0
 42
0.0000001
 43
0.0000001
 44
0.0000000001
 40
0.0
 40
0.0
 40
0.0
 40
0.0
 40
0.2478893836
 40
0.4967444874
 40
0.7473102906
 40
1.0
 40
1.0
 40
1.0
 40
1.0
 10
75.8941747403
 20
55.2179796093
 30
0.0
 10
75.8941746804
 20
55.4951370414
 30
0.0
 10
75.9149539605
 20
56.0507417102
 30
0.0
 10
76.0063298872
 20
56.88191288
 30
0.0
 10
76.1525806043
 20
57.7105262289
 30
0.0
 10
76.281200055
 20
58.2585881551
 30
0.0
 10
76.3520636189
 20
58.5320812336
 30
0.0
  0
SPLINE
  5
2AE
100
AcDbEntity
  8
0
100
AcDbSpline
 62
7
  6
BYLAYER
 70
0
 71
3
 72
10
 73
6
 74
0
 42
0.0000001
 43
0.0000001
 44
0.0000000001
 40
0.0
 40
0.0
 40
0.0
 40
0.0
 40
0.2500122912
 40
0.5000248473
 40
1.0
 40
1.0
 40
1.0
 40
1.0
 10
78.8941736859
 20
65.6102843747
 30
0.0
 10
78.8941736838
 20
65.0730517704
 30
0.0
 10
78.8747379979
 20
63.9984779051
 30
0.0
 10
78.760465315
 20
61.8523690504
 30
0.0
 10
78.5967511224
 20
60.2479425463
 30
0.0
 10
78.46189228
 20
59.1820812336
 30
0.0
  0
SPLINE
  5
2AF
100
AcDbEntity
  8
0
100
AcDbSpline
 62
7
  6
BYLAYER
 70
0
 71
3
 72
10
 73
6
 74
0
 42
0.0000001
 43
0.0000001
 44
0.0000000001
 40
0.0
 40
0.0
 40
0.0
 40
0.0
 40
0.5031597981
 40
0.7520634304
 40
1.0
 40
1.0
 40
1.0
 40
1.0
 10
78.4362837497
 20
58.5320812336
 30
0.0
 10
78.5773608151
 20
57.9876039365
 30
0.0
 10
78.7511732616
 20
57.1626346939
 30
0.0
 10
78.8733960527
 20
56.0507593888
 30
0.0
 10
78.8941727229
 20
55.495135585
 30
0.0
 10
78.8941726284
 20
55.2179796093
 30
0.0
  0
SPLINE
  5
2B0
100
AcDbEntity
  8
0
100
AcDbSpline
 62
7
  6
BYLAYER
 70
0
 71
3
 72
11
 73
7
 74
0
 42
0.0000001
 43
0.0000001
 44
0.0000000001
 40
0.0
 40
0.0
 40
0.0
 40
0.0
 40
0.2478893836
 40
0.4967444874
 40
0.7473102906
 40
1.0
 40
1.0
 40
1.0
 40
1.0
 10
75.8941747403
 20
76.0025893001
 30
0.0
 10
75.8941746804
 20
76.2797467323
 30
0.0
 10
75.9149539605
 20
76.835351401
 30
0.0
 10
76.0063298872
 20
77.6665225709
 30
0.0
 10
76.1525806043
 20
78.4951359198
 30
0.0
 10
76.281200055
 20
79.0431978459
 30
0.0
 10
76.3520636189
 20
79.3166909245
 30
0.0
  0
SPLINE
  5
2B1
100
AcDbEntity
  8
0
100
AcDbSpline
 62
7
  6
BYLAYER
 70
0
 71
3
 72
10
 73
6
 74
0
 42
0.0000001
 43
0.0000001
 44
0.0000000001
 40
0.0
 40
0.0
 40
0.0
 40
0.0
 40
0.5031597986
 40
0.7520634306
 40
1.0
 40
1.0
 40
1.0
 40
1.0
 10
78.4362837278
 20
79.3166909245
 30
0.0
 10
78.5773607959
 20
78.7722136174
 30
0.0
 10
78.7511736347
 20
77.9472443652
 30
0.0
 10
78.8733954564
 20
76.8353690391
 30
0.0
 10
78.8941740378
 20
76.2797452263
 30
0.0
 10
78.8941726294
 20
76.002589246
 30
0.0
  0
SPLINE
  5
2B2
100
AcDbEntity
  8
0
100
AcDbSpline
 62
7
  6
BYLAYER
 70
0
 71
3
 72
11
 73
7
 74
0
 42
0.0000001
 43
0.0000001
 44
0.0000000001
 40
0.0
 40
0.0
 40
0.0
 40
0.0
 40
0.2478894009
 40
0.4967445175
 40
0.7473104142
 40
1.0
 40
1.0
 40
1.0
 40
1.0
 10
78.8941726294
 20
76.002589246
 30
0.0
 10
78.8941735172
 20
75.7254318185
 30
0.0
 10
78.8733922632
 20
75.1698272282
 30
0.0
 10
78.7820177872
 20
74.3386557957
 30
0.0
 10
78.6357621978
 20
73.5100434562
 30
0.0
 10
78.5071472501
 20
72.9619806155
 30
0.0
 10
78.4362837283
 20
72.6884876942
 30
0.0
  0
SPLINE
  5
2B3
100
AcDbEntity
  8
0
100
AcDbSpline
 62
7
  6
BYLAYER
 70
0
 71
3
 72
10
 73
6
 74
0
 42
0.0000001
 43
0.0000001
 44
0.0000000001
 40
0.0
 40
0.0
 40
0.0
 40
0.0
 40
0.5031597981
 40
0.7520634304
 40
1.0
 40
1.0
 40
1.0
 40
1.0
 10
76.3520636191
 20
51.9038780033
 30
0.0
 10
76.2109865517
 20
52.4483552967
 30
0.0
 10
76.0371741091
 20
53.2733245356
 30
0.0
 10
75.914951317
 20
54.3851998343
 30
0.0
 10
75.8941746462
 20
54.940823635
 30
0.0
 10
75.8941747403
 20
55.2179796093
 30
0.0
  0
SPLINE
  5
2B4
100
AcDbEntity
  8
0
100
AcDbSpline
 62
7
  6
BYLAYER
 70
0
 71
3
 72
10
 73
6
 74
0
 42
0.0000001
 43
0.0000001
 44
0.0000000001
 40
0.0
 40
0.0
 40
0.0
 40
0.0
 40
0.4999751549
 40
0.7499877125
 40
1.0
 40
1.0
 40
1.0
 40
1.0
 10
78.4618926415
 20
72.0384876942
 30
0.0
 10
78.5967515057
 20
70.9726263616
 30
0.0
 10
78.7604653668
 20
69.3681997604
 30
0.0
 10
78.8747369502
 20
67.2220908372
 30
0.0
 10
78.8941736859
 20
66.1475169798
 30
0.0
 10
78.8941736859
 20
65.6102843747
 30
0.0
  0
SPLINE
  5
2B5
100
AcDbEntity
  8
0
100
AcDbSpline
 62
7
  6
BYLAYER
 70
0
 71
3
 72
10
 73
6
 74
0
 42
0.0000001
 43
0.0000001
 44
0.0000000001
 40
0.0
 40
0.0
 40
0.0
 40
0.0
 40
0.5031597981
 40
0.7520634304
 40
1.0
 40
1.0
 40
1.0
 40
1.0
 10
76.3520636191
 20
72.6884876942
 30
0.0
 10
76.2109865517
 20
73.2329649876
 30
0.0
 10
76.0371741091
 20
74.0579342265
 30
0.0
 10
75.914951317
 20
75.1698095252
 30
0.0
 10
75.8941746462
 20
75.7254333259
 30
0.0
 10
75.8941747403
 20
76.0025893001
 30
0.0
  0
SPLINE
  5
2B6
100
AcDbEntity
  8
0
100
AcDbSpline
 62
7
  6
BYLAYER
 70
0
 71
3
 72
10
 73
6
 74
0
 42
0.0000001
 43
0.0000001
 44
0.0000000001
 40
0.0
 40
0.0
 40
0.0
 40
0.0
 40
0.2500122913
 40
0.5000248546
 40
1.0
 40
1.0
 40
1.0
 40
1.0
 10
75.8941736827
 20
65.6102843747
 30
0.0
 10
75.8941736827
 20
66.1475169947
 30
0.0
 10
75.9136082646
 20
67.2220909294
 30
0.0
 10
76.0278820099
 20
69.3681998074
 30
0.0
 10
76.1915958388
 20
70.9726263693
 30
0.0
 10
76.326454705
 20
72.0384876942
 30
0.0
  0
SPLINE
  5
2B7
100
AcDbEntity
  8
0
100
AcDbSpline
 62
7
  6
BYLAYER
 70
0
 71
3
 72
11
 73
7
 74
0
 42
0.0000001
 43
0.0000001
 44
0.0000000001
 40
0.0
 40
0.0
 40
0.0
 40
0.0
 40
0.2478893835
 40
0.4967444875
 40
0.7473102907
 40
1.0
 40
1.0
 40
1.0
 40
1.0
 10
78.8941726284
 20
55.2179796093
 30
0.0
 10
78.8941726878
 20
54.9408221786
 30
0.0
 10
78.8733934083
 20
54.3852175129
 30
0.0
 10
78.7820174796
 20
53.5540463477
 30
0.0
 10
78.6357667619
 20
52.7254330037
 30
0.0
 10
78.5071473116
 20
52.1773710807
 30
0.0
 10
78.4362837495
 20
51.9038780033
 30
0.0
  0
ELLIPSE
  5
2B8
100
AcDbEntity
  8
0
100
AcDbEllipse
 62
7
  6
BYLAYER
 10
76.4020247832
 20
64.4953305561
 30
0.0
 11
10.195190748
 21
-8.0474192635
 31
0.0
 40
0.7470541823
 41
4.9099662904
 42
4.9176315918
  0
ELLIPSE
  5
2B9
100
AcDbEntity
  8
0
100
AcDbEllipse
 62
7
  6
BYLAYER
 10
76.4020247832
 20
63.9617412193
 30
0.0
 11
10.3341729894
 21
-8.919591999
 31
0.0
 40
0.6468548444
 41
-1.404243728
 42
-1.3891458436
  0
ELLIPSE
  5
2BA
100
AcDbEntity
  8
0
100
AcDbEllipse
 62
7
  6
BYLAYER
 10
76.4020247832
 20
63.4563589145
 30
0.0
 11
10.5743403885
 21
-9.5757833526
 31
0.0
 40
0.5552272381
 41
-1.4530004987
 42
-1.4324654912
  0
ELLIPSE
  5
2BB
100
AcDbEntity
  8
0
100
AcDbEllipse
 62
7
  6
BYLAYER
 10
76.4020247832
 20
62.987830873
 30
0.0
 11
10.8336078883
 21
-10.1170563979
 31
0.0
 40
0.4711119558
 41
-1.5086873256
 42
-1.4838808103
  0
ELLIPSE
  5
2BC
100
AcDbEntity
  8
0
100
AcDbEllipse
 62
7
  6
BYLAYER
 10
76.4020247832
 20
62.5641737396
 30
0.0
 11
11.0811640271
 21
-10.57430594
 31
0.0
 40
0.3932536107
 41
-1.5677038183
 42
-1.5393435277
  0
ELLIPSE
  5
2BD
100
AcDbEntity
  8
0
100
AcDbEllipse
 62
7
  6
BYLAYER
 10
76.4020247832
 20
62.1926364052
 30
0.0
 11
11.3026503924
 21
-10.9583479679
 31
0.0
 40
0.32049021
 41
-1.6285433084
 42
-1.5970782097
  0
ELLIPSE
  5
2BE
100
AcDbEntity
  8
0
100
AcDbEllipse
 62
7
  6
BYLAYER
 10
76.4020247832
 20
61.8795759766
 30
0.0
 11
11.4903624333
 21
-11.272755276
 31
0.0
 40
0.2517837063
 41
-1.690470904
 42
-1.6561797436
  0
ELLIPSE
  5
2BF
100
AcDbEntity
  8
0
100
AcDbEllipse
 62
7
  6
BYLAYER
 10
76.4020247832
 20
61.6303490046
 30
0.0
 11
11.6397811956
 21
-11.5182116851
 31
0.0
 40
0.1862029912
 41
-1.7527475135
 42
-1.7161329273
  0
ELLIPSE
  5
2C0
100
AcDbEntity
  8
0
100
AcDbEllipse
 62
7
  6
BYLAYER
 10
76.4020247832
 20
61.4492198317
 30
0.0
 11
11.7481381864
 21
-11.6942962282
 31
0.0
 40
0.1228992729
 41
-1.8159349801
 42
-1.776616227
  0
ELLIPSE
  5
2C1
100
AcDbEntity
  8
0
100
AcDbEllipse
 62
7
  6
BYLAYER
 10
76.4020247832
 20
61.3392876284
 30
0.0
 11
11.8137551981
 21
-11.8003161272
 31
0.0
 40
0.0610824685
 41
-1.8795294874
 42
-1.8374099321
  0
ELLIPSE
  5
2C2
100
AcDbEntity
  8
0
100
AcDbEllipse
 62
7
  6
BYLAYER
 10
68.9905089089
 20
65.2051749188
 30
0.0
 11
9.6458827394
 21
7.3844602403
 31
0.0
 40
0.8684143762
 41
-1.8862553139
 42
-1.8411522221
  0
ELLIPSE
  5
2C3
100
AcDbEntity
  8
0
100
AcDbEllipse
 62
7
  6
BYLAYER
 10
68.9905089089
 20
65.6102844639
 30
0.0
 11
11.5830346317
 21
0.0
 31
0.0
 40
0.963433044
 41
-1.2995325731
 42
-1.2544294813
  0
ELLIPSE
  5
2C4
100
AcDbEntity
  8
0
100
AcDbEllipse
 62
7
  6
BYLAYER
 10
68.9905089089
 20
64.8069969104
 30
0.0
 11
9.6390686169
 21
8.472058128
 31
0.0
 40
0.7581403628
 41
-1.8873170525
 42
-1.8422139607
  0
ELLIPSE
  5
2C5
100
AcDbEntity
  8
0
100
AcDbEllipse
 62
7
  6
BYLAYER
 10
68.9905089089
 20
64.4225633747
 30
0.0
 11
9.9008743148
 21
9.1398053983
 31
0.0
 40
0.657738698
 41
-1.8452140898
 42
-1.800110998
  0
ELLIPSE
  5
2C6
100
AcDbEntity
  8
0
100
AcDbEllipse
 62
7
  6
BYLAYER
 10
68.9905089089
 20
64.0584520762
 30
0.0
 11
10.207034137
 21
9.672197328
 31
0.0
 40
0.5661264515
 41
-1.7919226086
 42
-1.7468195168
  0
ELLIPSE
  5
2C7
100
AcDbEntity
  8
0
100
AcDbEllipse
 62
7
  6
BYLAYER
 10
68.9905089089
 20
63.72089306
 30
0.0
 11
10.5062434209
 21
10.1235279518
 31
0.0
 40
0.4817532195
 41
-1.7341357163
 42
-1.6890326245
  0
ELLIPSE
  5
2C8
100
AcDbEntity
  8
0
100
AcDbEllipse
 62
7
  6
BYLAYER
 10
68.9905089089
 20
63.4156620547
 30
0.0
 11
10.7798633581
 21
10.5096998268
 31
0.0
 40
0.4032531911
 41
-1.674117191
 42
-1.6290140991
  0
ELLIPSE
  5
2C9
100
AcDbEntity
  8
0
100
AcDbEllipse
 62
7
  6
BYLAYER
 10
68.9905089089
 20
63.1479816472
 30
0.0
 11
11.0191384116
 21
10.8359096051
 31
0.0
 40
0.3294650235
 41
-1.6128476156
 42
-1.5677445238
  0
ELLIPSE
  5
2CA
100
AcDbEntity
  8
0
100
AcDbEllipse
 62
7
  6
BYLAYER
 10
68.9905089089
 20
62.9224319235
 30
0.0
 11
11.2192358625
 21
11.103573653
 31
0.0
 40
0.2593921815
 41
-1.5508240306
 42
-1.5057209388
  0
ELLIPSE
  5
2CB
100
AcDbEntity
  8
0
100
AcDbEllipse
 62
7
  6
BYLAYER
 10
68.9905089089
 20
62.7428721021
 30
0.0
 11
11.377213794
 21
11.3126576757
 31
0.0
 40
0.1921623568
 41
-1.4883289622
 42
-1.4432258704
  0
ELLIPSE
  5
2CC
100
AcDbEntity
  8
0
100
AcDbEllipse
 62
7
  6
BYLAYER
 10
68.9905089089
 20
62.6123745012
 30
0.0
 11
11.4912004934
 21
11.4626280056
 31
0.0
 40
0.1269935126
 41
-1.425539161
 42
-1.3804360692
  0
ELLIPSE
  5
2CD
100
AcDbEntity
  8
0
100
AcDbEllipse
 62
7
  6
BYLAYER
 10
68.9905089089
 20
62.5331719709
 30
0.0
 11
11.5600239517
 21
11.5528949874
 31
0.0
 40
0.0631661312
 41
-1.3625760954
 42
-1.3174730036
  0
ELLIPSE
  5
2CE
100
AcDbEntity
  8
0
100
AcDbEllipse
 62
7
  6
BYLAYER
 10
76.4020247832
 20
69.8812812994
 30
0.0
 11
11.8137551981
 21
11.8003161272
 31
0.0
 40
0.0610824685
 41
1.8374099321
 42
1.8795295158
  0
ELLIPSE
  5
2CF
100
AcDbEntity
  8
0
100
AcDbEllipse
 62
7
  6
BYLAYER
 10
76.4020247832
 20
69.7713490961
 30
0.0
 11
11.7481381864
 21
11.6942962282
 31
0.0
 40
0.1228992729
 41
1.776616227
 42
1.8159350327
  0
ELLIPSE
  5
2D0
100
AcDbEntity
  8
0
100
AcDbEllipse
 62
7
  6
BYLAYER
 10
76.4020247832
 20
69.5902199233
 30
0.0
 11
11.6397811956
 21
11.5182116851
 31
0.0
 40
0.1862029912
 41
1.7161329273
 42
1.7527475869
  0
ELLIPSE
  5
2D1
100
AcDbEntity
  8
0
100
AcDbEllipse
 62
7
  6
BYLAYER
 10
76.4020247832
 20
69.3409929512
 30
0.0
 11
11.4903624333
 21
11.272755276
 31
0.0
 40
0.2517837063
 41
1.6561797436
 42
1.6904709773
  0
ELLIPSE
  5
2D2
100
AcDbEntity
  8
0
100
AcDbEllipse
 62
7
  6
BYLAYER
 10
76.4020247832
 20
69.0279325227
 30
0.0
 11
11.3026503924
 21
10.9583479679
 31
0.0
 40
0.32049021
 41
1.5970782097
 42
1.6285433888
  0
ELLIPSE
  5
2D3
100
AcDbEntity
  8
0
100
AcDbEllipse
 62
7
  6
BYLAYER
 10
76.4020247832
 20
68.6563951883
 30
0.0
 11
11.0811640271
 21
10.57430594
 31
0.0
 40
0.3932536107
 41
1.5393435277
 42
1.5677038056
  0
ELLIPSE
  5
2D4
100
AcDbEntity
  8
0
100
AcDbEllipse
 62
7
  6
BYLAYER
 10
76.4020247832
 20
68.2327380548
 30
0.0
 11
10.8336078883
 21
10.1170563979
 31
0.0
 40
0.4711119558
 41
1.4838808103
 42
1.5086873211
  0
ELLIPSE
  5
2D5
100
AcDbEntity
  8
0
100
AcDbEllipse
 62
7
  6
BYLAYER
 10
76.4020247832
 20
67.7642100133
 30
0.0
 11
10.5743403885
 21
9.5757833526
 31
0.0
 40
0.5552272381
 41
1.4324654912
 42
1.4530004966
  0
ELLIPSE
  5
2D6
100
AcDbEntity
  8
0
100
AcDbEllipse
 62
7
  6
BYLAYER
 10
76.4020247832
 20
67.2588277085
 30
0.0
 11
10.3341729894
 21
8.919591999
 31
0.0
 40
0.6468548444
 41
1.3891458436
 42
1.4042437168
  0
ELLIPSE
  5
2D7
100
AcDbEntity
  8
0
100
AcDbEllipse
 62
7
  6
BYLAYER
 10
68.9905089089
 20
66.015394009
 30
0.0
 11
9.6458827394
 21
-7.3844602403
 31
0.0
 40
0.8684143762
 41
1.8411522221
 42
1.8862553139
  0
ELLIPSE
  5
2D8
100
AcDbEntity
  8
0
100
AcDbEllipse
 62
7
  6
BYLAYER
 10
68.9905089089
 20
66.4135720174
 30
0.0
 11
9.6390686169
 21
-8.472058128
 31
0.0
 40
0.7581403628
 41
1.8422139607
 42
1.8873170525
  0
ELLIPSE
  5
2D9
100
AcDbEntity
  8
0
100
AcDbEllipse
 62
7
  6
BYLAYER
 10
68.9905089089
 20
66.7980055531
 30
0.0
 11
9.9008743148
 21
-9.1398053983
 31
0.0
 40
0.657738698
 41
1.800110998
 42
1.8452140898
  0
ELLIPSE
  5
2DA
100
AcDbEntity
  8
0
100
AcDbEllipse
 62
7
  6
BYLAYER
 10
68.9905089089
 20
67.1621168516
 30
0.0
 11
10.207034137
 21
-9.672197328
 31
0.0
 40
0.5661264515
 41
1.7468195168
 42
1.7919226086
  0
ELLIPSE
  5
2DB
100
AcDbEntity
  8
0
100
AcDbEllipse
 62
7
  6
BYLAYER
 10
68.9905089089
 20
67.4996758678
 30
0.0
 11
10.5062434209
 21
-10.1235279518
 31
0.0
 40
0.4817532195
 41
1.6890326245
 42
1.7341357163
  0
ELLIPSE
  5
2DC
100
AcDbEntity
  8
0
100
AcDbEllipse
 62
7
  6
BYLAYER
 10
68.9905089089
 20
67.8049068732
 30
0.0
 11
10.7798633581
 21
-10.5096998268
 31
0.0
 40
0.4032531911
 41
1.6290140991
 42
1.674117191
  0
ELLIPSE
  5
2DD
100
AcDbEntity
  8
0
100
AcDbEllipse
 62
7
  6
BYLAYER
 10
68.9905089089
 20
68.0725872807
 30
0.0
 11
11.0191384116
 21
-10.8359096051
 31
0.0
 40
0.3294650235
 41
1.5677445238
 42
1.6128476156
  0
ELLIPSE
  5
2DE
100
AcDbEntity
  8
0
100
AcDbEllipse
 62
7
  6
BYLAYER
 10
68.9905089089
 20
68.2981370043
 30
0.0
 11
11.2192358625
 21
-11.103573653
 31
0.0
 40
0.2593921815
 41
1.5057209388
 42
1.5508240306
  0
ELLIPSE
  5
2DF
100
AcDbEntity
  8
0
100
AcDbEllipse
 62
7
  6
BYLAYER
 10
68.9905089089
 20
68.4776968257
 30
0.0
 11
11.377213794
 21
-11.3126576757
 31
0.0
 40
0.1921623568
 41
1.4432258704
 42
1.4883289622
  0
ELLIPSE
  5
2E0
100
AcDbEntity
  8
0
100
AcDbEllipse
 62
7
  6
BYLAYER
 10
68.9905089089
 20
68.6081944267
 30
0.0
 11
11.4912004934
 21
-11.4626280056
 31
0.0
 40
0.1269935126
 41
1.3804360692
 42
1.425539161
  0
ELLIPSE
  5
2E1
100
AcDbEntity
  8
0
100
AcDbEllipse
 62
7
  6
BYLAYER
 10
68.9905089089
 20
68.687396957
 30
0.0
 11
11.5600239517
 21
-11.5528949874
 31
0.0
 40
0.0631661312
 41
1.3174730036
 42
1.3625760954
  0
ELLIPSE
  5
2E2
100
AcDbEntity
  8
0
100
AcDbEllipse
 62
7
  6
BYLAYER
 10
76.4020247832
 20
66.7252383718
 30
0.0
 11
10.195190748
 21
8.0474192635
 31
0.0
 40
0.7470541823
 41
1.3655537154
 42
1.3732190188
  0
ELLIPSE
  5
2E3
100
AcDbEntity
  8
0
100
AcDbEllipse
 62
7
  6
BYLAYER
 10
68.9905089089
 20
65.6102844639
 30
0.0
 11
11.5830346317
 21
-0.0
 31
0.0
 40
0.963433044
 41
7.5376147884
 42
7.5827178802
  0
ELLIPSE
  5
2E4
100
AcDbEntity
  8
0
100
AcDbEllipse
 62
7
  6
BYLAYER
 10
68.9905089089
 20
67.1621168516
 30
0.0
 11
10.207034137
 21
-9.672197328
 31
0.0
 40
0.5661264515
 41
-0.8071425375
 42
-0.7620394457
  0
ELLIPSE
  5
2E5
100
AcDbEntity
  8
0
100
AcDbEllipse
 62
7
  6
BYLAYER
 10
68.9905089089
 20
66.7980055531
 30
0.0
 11
9.9008743148
 21
-9.1398053983
 31
0.0
 40
0.657738698
 41
-0.7538510564
 42
-0.7087479645
  0
ELLIPSE
  5
2E6
100
AcDbEntity
  8
0
100
AcDbEllipse
 62
7
  6
BYLAYER
 10
68.9905089089
 20
66.4135720174
 30
0.0
 11
9.6390686169
 21
-8.472058128
 31
0.0
 40
0.7581403628
 41
-0.7117480936
 42
-0.6666450018
  0
ELLIPSE
  5
2E7
100
AcDbEntity
  8
0
100
AcDbEllipse
 62
7
  6
BYLAYER
 10
68.9905089089
 20
66.015394009
 30
0.0
 11
9.6458827394
 21
-7.3844602403
 31
0.0
 40
0.8684143762
 41
-0.7128098322
 42
-0.6677067404
  0
ELLIPSE
  5
2E8
100
AcDbEntity
  8
0
100
AcDbEllipse
 62
7
  6
BYLAYER
 10
68.9905089089
 20
62.7428721021
 30
0.0
 11
11.377213794
 21
11.3126576757
 31
0.0
 40
0.1921623568
 41
1.0656330921
 42
1.1107361839
  0
ELLIPSE
  5
2E9
100
AcDbEntity
  8
0
100
AcDbEllipse
 62
7
  6
BYLAYER
 10
68.9905089089
 20
62.9224319235
 30
0.0
 11
11.2192358625
 21
11.103573653
 31
0.0
 40
0.2593921815
 41
1.0031380237
 42
1.0482411156
  0
ELLIPSE
  5
2EA
100
AcDbEntity
  8
0
100
AcDbEllipse
 62
7
  6
BYLAYER
 10
68.9905089089
 20
63.1479816472
 30
0.0
 11
11.0191384116
 21
10.8359096051
 31
0.0
 40
0.3294650235
 41
0.9411144387
 42
0.9862175305
  0
ELLIPSE
  5
2EB
100
AcDbEntity
  8
0
100
AcDbEllipse
 62
7
  6
BYLAYER
 10
68.9905089089
 20
63.4156620547
 30
0.0
 11
10.7798633581
 21
10.5096998268
 31
0.0
 40
0.4032531911
 41
0.8798448634
 42
0.9249479552
  0
ELLIPSE
  5
2EC
100
AcDbEntity
  8
0
100
AcDbEllipse
 62
7
  6
BYLAYER
 10
68.9905089089
 20
63.72089306
 30
0.0
 11
10.5062434209
 21
10.1235279518
 31
0.0
 40
0.4817532195
 41
0.819826338
 42
0.8649294298
  0
ELLIPSE
  5
2ED
100
AcDbEntity
  8
0
100
AcDbEllipse
 62
7
  6
BYLAYER
 10
68.9905089089
 20
64.0584520762
 30
0.0
 11
10.207034137
 21
9.672197328
 31
0.0
 40
0.5661264515
 41
0.7620394457
 42
0.8071425375
  0
ELLIPSE
  5
2EE
100
AcDbEntity
  8
0
100
AcDbEllipse
 62
7
  6
BYLAYER
 10
68.9905089089
 20
64.4225633747
 30
0.0
 11
9.9008743148
 21
9.1398053983
 31
0.0
 40
0.657738698
 41
0.7087479645
 42
0.7538510564
  0
ELLIPSE
  5
2EF
100
AcDbEntity
  8
0
100
AcDbEllipse
 62
7
  6
BYLAYER
 10
68.9905089089
 20
62.5331719709
 30
0.0
 11
11.5600239517
 21
11.5528949874
 31
0.0
 40
0.0631661312
 41
1.1913859589
 42
1.2364890507
  0
ELLIPSE
  5
2F0
100
AcDbEntity
  8
0
100
AcDbEllipse
 62
7
  6
BYLAYER
 10
68.9905089089
 20
64.8069969104
 30
0.0
 11
9.6390686169
 21
8.472058128
 31
0.0
 40
0.7581403628
 41
0.6666450018
 42
0.7117480936
  0
ELLIPSE
  5
2F1
100
AcDbEntity
  8
0
100
AcDbEllipse
 62
7
  6
BYLAYER
 10
68.9905089089
 20
68.687396957
 30
0.0
 11
11.5600239517
 21
-11.5528949874
 31
0.0
 40
0.0631661312
 41
-1.2364890507
 42
-1.1913859589
  0
ELLIPSE
  5
2F2
100
AcDbEntity
  8
0
100
AcDbEllipse
 62
7
  6
BYLAYER
 10
68.9905089089
 20
68.6081944267
 30
0.0
 11
11.4912004934
 21
-11.4626280056
 31
0.0
 40
0.1269935126
 41
-1.1735259851
 42
-1.1284228933
  0
ELLIPSE
  5
2F3
100
AcDbEntity
  8
0
100
AcDbEllipse
 62
7
  6
BYLAYER
 10
68.9905089089
 20
68.4776968257
 30
0.0
 11
11.377213794
 21
-11.3126576757
 31
0.0
 40
0.1921623568
 41
-1.1107361839
 42
-1.0656330921
  0
ELLIPSE
  5
2F4
100
AcDbEntity
  8
0
100
AcDbEllipse
 62
7
  6
BYLAYER
 10
68.9905089089
 20
65.2051749188
 30
0.0
 11
9.6458827394
 21
7.3844602403
 31
0.0
 40
0.8684143762
 41
0.6677067404
 42
0.7128098322
  0
ELLIPSE
  5
2F5
100
AcDbEntity
  8
0
100
AcDbEllipse
 62
7
  6
BYLAYER
 10
68.9905089089
 20
68.2981370043
 30
0.0
 11
11.2192358625
 21
-11.103573653
 31
0.0
 40
0.2593921815
 41
-1.0482411156
 42
-1.0031380237
  0
ELLIPSE
  5
2F6
100
AcDbEntity
  8
0
100
AcDbEllipse
 62
7
  6
BYLAYER
 10
68.9905089089
 20
68.0725872807
 30
0.0
 11
11.0191384116
 21
-10.8359096051
 31
0.0
 40
0.3294650235
 41
-0.9862175305
 42
-0.9411144387
  0
ELLIPSE
  5
2F7
100
AcDbEntity
  8
0
100
AcDbEllipse
 62
7
  6
BYLAYER
 10
68.9905089089
 20
62.6123745012
 30
0.0
 11
11.4912004934
 21
11.4626280056
 31
0.0
 40
0.1269935126
 41
1.1284228933
 42
1.1735259851
  0
ELLIPSE
  5
2F8
100
AcDbEntity
  8
0
100
AcDbEllipse
 62
7
  6
BYLAYER
 10
68.9905089089
 20
67.8049068732
 30
0.0
 11
10.7798633581
 21
-10.5096998268
 31
0.0
 40
0.4032531911
 41
-0.9249479552
 42
-0.8798448634
  0
ELLIPSE
  5
2F9
100
AcDbEntity
  8
0
100
AcDbEllipse
 62
7
  6
BYLAYER
 10
68.9905089089
 20
67.4996758678
 30
0.0
 11
10.5062434209
 21
-10.1235279518
 31
0.0
 40
0.4817532195
 41
-0.8649294298
 42
-0.819826338
  0
ELLIPSE
  5
2FA
100
AcDbEntity
  8
0
100
AcDbEllipse
 62
7
  6
BYLAYER
 10
71.3863225855
 20
64.4953305561
 30
0.0
 11
10.195190748
 21
8.0474192635
 31
0.0
 40
0.7470541823
 41
-1.7760389382
 42
-1.7683736348
  0
ELLIPSE
  5
2FB
100
AcDbEntity
  8
0
100
AcDbEllipse
 62
7
  6
BYLAYER
 10
71.3863225855
 20
63.9617412193
 30
0.0
 11
10.3341729894
 21
8.919591999
 31
0.0
 40
0.6468548444
 41
-1.75244681
 42
-1.7373489368
  0
ELLIPSE
  5
2FC
100
AcDbEntity
  8
0
100
AcDbEllipse
 62
7
  6
BYLAYER
 10
71.3863225855
 20
63.4563589145
 30
0.0
 11
10.5743403885
 21
9.5757833526
 31
0.0
 40
0.5552272381
 41
-1.7091271624
 42
-1.688592157
  0
ELLIPSE
  5
2FD
100
AcDbEntity
  8
0
100
AcDbEllipse
 62
7
  6
BYLAYER
 10
78.7978384598
 20
65.6102844639
 30
0.0
 11
11.5830346317
 21
0.0
 31
0.0
 40
0.963433044
 41
-1.8871631723
 42
-1.8420600805
  0
ELLIPSE
  5
2FE
100
AcDbEntity
  8
0
100
AcDbEllipse
 62
7
  6
BYLAYER
 10
78.7978384598
 20
65.2051749188
 30
0.0
 11
9.6458827394
 21
-7.3844602403
 31
0.0
 40
0.8684143762
 41
-1.3004404315
 42
-1.2553373397
  0
ELLIPSE
  5
2FF
100
AcDbEntity
  8
0
100
AcDbEllipse
 62
7
  6
BYLAYER
 10
78.7978384598
 20
64.8069969104
 30
0.0
 11
9.6390686169
 21
-8.472058128
 31
0.0
 40
0.7581403628
 41
-1.2993786929
 42
-1.2542756011
  0
ELLIPSE
  5
300
100
AcDbEntity
  8
0
100
AcDbEllipse
 62
7
  6
BYLAYER
 10
78.7978384598
 20
64.4225633747
 30
0.0
 11
9.9008743148
 21
-9.1398053983
 31
0.0
 40
0.657738698
 41
-1.3414816556
 42
-1.2963785638
  0
ELLIPSE
  5
301
100
AcDbEntity
  8
0
100
AcDbEllipse
 62
7
  6
BYLAYER
 10
78.7978384598
 20
64.0584520762
 30
0.0
 11
10.207034137
 21
-9.672197328
 31
0.0
 40
0.5661264515
 41
-1.3947731368
 42
-1.349670045
  0
ELLIPSE
  5
302
100
AcDbEntity
  8
0
100
AcDbEllipse
 62
7
  6
BYLAYER
 10
78.7978384598
 20
63.72089306
 30
0.0
 11
10.5062434209
 21
-10.1235279518
 31
0.0
 40
0.4817532195
 41
-1.4525600291
 42
-1.4074569373
  0
ELLIPSE
  5
303
100
AcDbEntity
  8
0
100
AcDbEllipse
 62
7
  6
BYLAYER
 10
78.7978384598
 20
63.4156620547
 30
0.0
 11
10.7798633581
 21
-10.5096998268
 31
0.0
 40
0.4032531911
 41
-1.5125785545
 42
-1.4674754626
  0
ELLIPSE
  5
304
100
AcDbEntity
  8
0
100
AcDbEllipse
 62
7
  6
BYLAYER
 10
78.7978384598
 20
63.1479816472
 30
0.0
 11
11.0191384116
 21
-10.8359096051
 31
0.0
 40
0.3294650235
 41
-1.5738481298
 42
-1.5287450379
  0
ELLIPSE
  5
305
100
AcDbEntity
  8
0
100
AcDbEllipse
 62
7
  6
BYLAYER
 10
78.7978384598
 20
62.9224319235
 30
0.0
 11
11.2192358625
 21
-11.103573653
 31
0.0
 40
0.2593921815
 41
-1.6358717148
 42
-1.590768623
  0
ELLIPSE
  5
306
100
AcDbEntity
  8
0
100
AcDbEllipse
 62
7
  6
BYLAYER
 10
78.7978384598
 20
62.7428721021
 30
0.0
 11
11.377213794
 21
-11.3126576757
 31
0.0
 40
0.1921623568
 41
-1.6983667832
 42
-1.6532636914
  0
ELLIPSE
  5
307
100
AcDbEntity
  8
0
100
AcDbEllipse
 62
7
  6
BYLAYER
 10
78.7978384598
 20
62.6123745012
 30
0.0
 11
11.4912004934
 21
-11.4626280056
 31
0.0
 40
0.1269935126
 41
-1.7611565844
 42
-1.7160534926
  0
ELLIPSE
  5
308
100
AcDbEntity
  8
0
100
AcDbEllipse
 62
7
  6
BYLAYER
 10
78.7978384598
 20
62.5331719709
 30
0.0
 11
11.5600239517
 21
-11.5528949874
 31
0.0
 40
0.0631661312
 41
-1.82411965
 42
-1.7790165582
  0
ELLIPSE
  5
309
100
AcDbEntity
  8
0
100
AcDbEllipse
 62
7
  6
BYLAYER
 10
71.3863225855
 20
62.987830873
 30
0.0
 11
10.8336078883
 21
10.1170563979
 31
0.0
 40
0.4711119558
 41
-1.6577118433
 42
-1.6329053324
  0
ELLIPSE
  5
30A
100
AcDbEntity
  8
0
100
AcDbEllipse
 62
7
  6
BYLAYER
 10
71.3863225855
 20
62.5641737396
 30
0.0
 11
11.0811640271
 21
10.57430594
 31
0.0
 40
0.3932536107
 41
-1.6022491259
 42
-1.573888848
  0
ELLIPSE
  5
30B
100
AcDbEntity
  8
0
100
AcDbEllipse
 62
7
  6
BYLAYER
 10
71.3863225855
 20
62.1926364052
 30
0.0
 11
11.3026503924
 21
10.9583479679
 31
0.0
 40
0.32049021
 41
-1.5445144439
 42
-1.5130492648
  0
ELLIPSE
  5
30C
100
AcDbEntity
  8
0
100
AcDbEllipse
 62
7
  6
BYLAYER
 10
71.3863225855
 20
61.8795759766
 30
0.0
 11
11.4903624333
 21
11.272755276
 31
0.0
 40
0.2517837063
 41
-1.48541291
 42
-1.4511216763
  0
ELLIPSE
  5
30D
100
AcDbEntity
  8
0
100
AcDbEllipse
 62
7
  6
BYLAYER
 10
71.3863225855
 20
61.6303490046
 30
0.0
 11
11.6397811956
 21
11.5182116851
 31
0.0
 40
0.1862029912
 41
-1.4254597263
 42
-1.3888450666
  0
ELLIPSE
  5
30E
100
AcDbEntity
  8
0
100
AcDbEllipse
 62
7
  6
BYLAYER
 10
71.3863225855
 20
61.4492198317
 30
0.0
 11
11.7481381864
 21
11.6942962282
 31
0.0
 40
0.1228992729
 41
-1.3649764266
 42
-1.3256576209
  0
ELLIPSE
  5
30F
100
AcDbEntity
  8
0
100
AcDbEllipse
 62
7
  6
BYLAYER
 10
71.3863225855
 20
61.3392876284
 30
0.0
 11
11.8137551981
 21
11.8003161272
 31
0.0
 40
0.0610824685
 41
-1.3041827215
 42
-1.2620631378
  0
ELLIPSE
  5
310
100
AcDbEntity
  8
0
100
AcDbEllipse
 62
7
  6
BYLAYER
 10
71.3863225855
 20
66.7252383718
 30
0.0
 11
10.195190748
 21
-8.0474192635
 31
0.0
 40
0.7470541823
 41
8.051558944
 42
8.0592242454
  0
ELLIPSE
  5
311
100
AcDbEntity
  8
0
100
AcDbEllipse
 62
7
  6
BYLAYER
 10
71.3863225855
 20
67.2588277085
 30
0.0
 11
10.3341729894
 21
-8.919591999
 31
0.0
 40
0.6468548444
 41
1.7373489256
 42
1.75244681
  0
ELLIPSE
  5
312
100
AcDbEntity
  8
0
100
AcDbEllipse
 62
7
  6
BYLAYER
 10
71.3863225855
 20
67.7642100133
 30
0.0
 11
10.5743403885
 21
-9.5757833526
 31
0.0
 40
0.5552272381
 41
1.6885921549
 42
1.7091271624
  0
ELLIPSE
  5
313
100
AcDbEntity
  8
0
100
AcDbEllipse
 62
7
  6
BYLAYER
 10
71.3863225855
 20
68.2327380548
 30
0.0
 11
10.8336078883
 21
-10.1170563979
 31
0.0
 40
0.4711119558
 41
1.632905328
 42
1.6577118433
  0
ELLIPSE
  5
314
100
AcDbEntity
  8
0
100
AcDbEllipse
 62
7
  6
BYLAYER
 10
71.3863225855
 20
68.6563951883
 30
0.0
 11
11.0811640271
 21
-10.57430594
 31
0.0
 40
0.3932536107
 41
1.5738888353
 42
1.6022491259
  0
ELLIPSE
  5
315
100
AcDbEntity
  8
0
100
AcDbEllipse
 62
7
  6
BYLAYER
 10
71.3863225855
 20
69.0279325227
 30
0.0
 11
11.3026503924
 21
-10.9583479679
 31
0.0
 40
0.32049021
 41
1.5130493452
 42
1.5445144439
  0
ELLIPSE
  5
316
100
AcDbEntity
  8
0
100
AcDbEllipse
 62
7
  6
BYLAYER
 10
71.3863225855
 20
69.3409929512
 30
0.0
 11
11.4903624333
 21
-11.272755276
 31
0.0
 40
0.2517837063
 41
1.4511217496
 42
1.48541291
  0
ELLIPSE
  5
317
100
AcDbEntity
  8
0
100
AcDbEllipse
 62
7
  6
BYLAYER
 10
71.3863225855
 20
69.5902199233
 30
0.0
 11
11.6397811956
 21
-11.5182116851
 31
0.0
 40
0.1862029912
 41
1.3888451401
 42
1.4254597263
  0
ELLIPSE
  5
318
100
AcDbEntity
  8
0
100
AcDbEllipse
 62
7
  6
BYLAYER
 10
71.3863225855
 20
69.7713490961
 30
0.0
 11
11.7481381864
 21
-11.6942962282
 31
0.0
 40
0.1228992729
 41
1.3256576735
 42
1.3649764266
  0
ELLIPSE
  5
319
100
AcDbEntity
  8
0
100
AcDbEllipse
 62
7
  6
BYLAYER
 10
71.3863225855
 20
69.8812812994
 30
0.0
 11
11.8137551981
 21
-11.8003161272
 31
0.0
 40
0.0610824685
 41
1.2620631662
 42
1.3041827215
  0
ELLIPSE
  5
31A
100
AcDbEntity
  8
0
100
AcDbEllipse
 62
7
  6
BYLAYER
 10
78.7978384598
 20
68.687396957
 30
0.0
 11
11.5600239517
 21
11.5528949874
 31
0.0
 40
0.0631661312
 41
1.7790165582
 42
1.82411965
  0
ELLIPSE
  5
31B
100
AcDbEntity
  8
0
100
AcDbEllipse
 62
7
  6
BYLAYER
 10
78.7978384598
 20
68.6081944267
 30
0.0
 11
11.4912004934
 21
11.4626280056
 31
0.0
 40
0.1269935126
 41
1.7160534926
 42
1.7611565844
  0
ELLIPSE
  5
31C
100
AcDbEntity
  8
0
100
AcDbEllipse
 62
7
  6
BYLAYER
 10
78.7978384598
 20
68.4776968257
 30
0.0
 11
11.377213794
 21
11.3126576757
 31
0.0
 40
0.1921623568
 41
1.6532636914
 42
1.6983667832
  0
ELLIPSE
  5
31D
100
AcDbEntity
  8
0
100
AcDbEllipse
 62
7
  6
BYLAYER
 10
78.7978384598
 20
68.2981370043
 30
0.0
 11
11.2192358625
 21
11.103573653
 31
0.0
 40
0.2593921815
 41
1.590768623
 42
1.6358717148
  0
ELLIPSE
  5
31E
100
AcDbEntity
  8
0
100
AcDbEllipse
 62
7
  6
BYLAYER
 10
78.7978384598
 20
68.0725872807
 30
0.0
 11
11.0191384116
 21
10.8359096051
 31
0.0
 40
0.3294650235
 41
1.5287450379
 42
1.5738481298
  0
ELLIPSE
  5
31F
100
AcDbEntity
  8
0
100
AcDbEllipse
 62
7
  6
BYLAYER
 10
78.7978384598
 20
67.8049068732
 30
0.0
 11
10.7798633581
 21
10.5096998268
 31
0.0
 40
0.4032531911
 41
1.4674754626
 42
1.5125785545
  0
ELLIPSE
  5
320
100
AcDbEntity
  8
0
100
AcDbEllipse
 62
7
  6
BYLAYER
 10
78.7978384598
 20
67.4996758678
 30
0.0
 11
10.5062434209
 21
10.1235279518
 31
0.0
 40
0.4817532195
 41
1.4074569373
 42
1.4525600291
  0
ELLIPSE
  5
321
100
AcDbEntity
  8
0
100
AcDbEllipse
 62
7
  6
BYLAYER
 10
78.7978384598
 20
67.1621168516
 30
0.0
 11
10.207034137
 21
9.672197328
 31
0.0
 40
0.5661264515
 41
1.349670045
 42
1.3947731368
  0
ELLIPSE
  5
322
100
AcDbEntity
  8
0
100
AcDbEllipse
 62
7
  6
BYLAYER
 10
78.7978384598
 20
66.7980055531
 30
0.0
 11
9.9008743148
 21
9.1398053983
 31
0.0
 40
0.657738698
 41
1.2963785638
 42
1.3414816556
  0
ELLIPSE
  5
323
100
AcDbEntity
  8
0
100
AcDbEllipse
 62
7
  6
BYLAYER
 10
78.7978384598
 20
66.4135720174
 30
0.0
 11
9.6390686169
 21
8.472058128
 31
0.0
 40
0.7581403628
 41
1.2542756011
 42
1.2993786929
  0
ELLIPSE
  5
324
100
AcDbEntity
  8
0
100
AcDbEllipse
 62
7
  6
BYLAYER
 10
78.7978384598
 20
66.015394009
 30
0.0
 11
9.6458827394
 21
7.3844602403
 31
0.0
 40
0.8684143762
 41
1.2553373397
 42
1.3004404315
  0
ELLIPSE
  5
325
100
AcDbEntity
  8
0
100
AcDbEllipse
 62
7
  6
BYLAYER
 10
78.7978384598
 20
65.6102844639
 30
0.0
 11
11.5830346317
 21
-0.0
 31
0.0
 40
0.963433044
 41
1.8420600805
 42
1.8871631723
  0
ELLIPSE
  5
326
100
AcDbEntity
  8
0
100
AcDbEllipse
 62
7
  6
BYLAYER
 10
78.7978384598
 20
66.015394009
 30
0.0
 11
9.6458827394
 21
7.3844602403
 31
0.0
 40
0.8684143762
 41
-2.4738859132
 42
-2.4287828214
  0
ELLIPSE
  5
327
100
AcDbEntity
  8
0
100
AcDbEllipse
 62
7
  6
BYLAYER
 10
78.7978384598
 20
65.2051749188
 30
0.0
 11
9.6458827394
 21
-7.3844602403
 31
0.0
 40
0.8684143762
 41
2.4287828214
 42
2.4738859132
  0
ELLIPSE
  5
328
100
AcDbEntity
  8
0
100
AcDbEllipse
 62
7
  6
BYLAYER
 10
78.7978384598
 20
64.8069969104
 30
0.0
 11
9.6390686169
 21
-8.472058128
 31
0.0
 40
0.7581403628
 41
2.42984456
 42
2.4749476518
  0
ELLIPSE
  5
329
100
AcDbEntity
  8
0
100
AcDbEllipse
 62
7
  6
BYLAYER
 10
78.7978384598
 20
64.4225633747
 30
0.0
 11
9.9008743148
 21
-9.1398053983
 31
0.0
 40
0.657738698
 41
2.3877415972
 42
2.432844689
  0
ELLIPSE
  5
32A
100
AcDbEntity
  8
0
100
AcDbEllipse
 62
7
  6
BYLAYER
 10
78.7978384598
 20
64.0584520762
 30
0.0
 11
10.207034137
 21
-9.672197328
 31
0.0
 40
0.5661264515
 41
2.3344501161
 42
2.3795532079
  0
ELLIPSE
  5
32B
100
AcDbEntity
  8
0
100
AcDbEllipse
 62
7
  6
BYLAYER
 10
78.7978384598
 20
63.72089306
 30
0.0
 11
10.5062434209
 21
-10.1235279518
 31
0.0
 40
0.4817532195
 41
2.2766632237
 42
2.3217663156
  0
ELLIPSE
  5
32C
100
AcDbEntity
  8
0
100
AcDbEllipse
 62
7
  6
BYLAYER
 10
78.7978384598
 20
63.4156620547
 30
0.0
 11
10.7798633581
 21
-10.5096998268
 31
0.0
 40
0.4032531911
 41
2.2166446984
 42
2.2617477902
  0
ELLIPSE
  5
32D
100
AcDbEntity
  8
0
100
AcDbEllipse
 62
7
  6
BYLAYER
 10
78.7978384598
 20
63.1479816472
 30
0.0
 11
11.0191384116
 21
-10.8359096051
 31
0.0
 40
0.3294650235
 41
2.1553751231
 42
2.2004782149
  0
ELLIPSE
  5
32E
100
AcDbEntity
  8
0
100
AcDbEllipse
 62
7
  6
BYLAYER
 10
78.7978384598
 20
62.9224319235
 30
0.0
 11
11.2192358625
 21
-11.103573653
 31
0.0
 40
0.2593921815
 41
2.093351538
 42
2.1384546298
  0
ELLIPSE
  5
32F
100
AcDbEntity
  8
0
100
AcDbEllipse
 62
7
  6
BYLAYER
 10
78.7978384598
 20
62.7428721021
 30
0.0
 11
11.377213794
 21
-11.3126576757
 31
0.0
 40
0.1921623568
 41
2.0308564696
 42
2.0759595615
  0
ELLIPSE
  5
330
100
AcDbEntity
  8
0
100
AcDbEllipse
 62
7
  6
BYLAYER
 10
78.7978384598
 20
62.6123745012
 30
0.0
 11
11.4912004934
 21
-11.4626280056
 31
0.0
 40
0.1269935126
 41
1.9680666685
 42
2.0131697603
  0
ELLIPSE
  5
331
100
AcDbEntity
  8
0
100
AcDbEllipse
 62
7
  6
BYLAYER
 10
78.7978384598
 20
68.2981370043
 30
0.0
 11
11.2192358625
 21
11.103573653
 31
0.0
 40
0.2593921815
 41
-2.1384546298
 42
-2.093351538
  0
ELLIPSE
  5
332
100
AcDbEntity
  8
0
100
AcDbEllipse
 62
7
  6
BYLAYER
 10
78.7978384598
 20
62.5331719709
 30
0.0
 11
11.5600239517
 21
-11.5528949874
 31
0.0
 40
0.0631661312
 41
1.9051036029
 42
1.9502066947
  0
ELLIPSE
  5
333
100
AcDbEntity
  8
0
100
AcDbEllipse
 62
7
  6
BYLAYER
 10
78.7978384598
 20
68.687396957
 30
0.0
 11
11.5600239517
 21
11.5528949874
 31
0.0
 40
0.0631661312
 41
-1.9502066947
 42
-1.9051036029
  0
ELLIPSE
  5
334
100
AcDbEntity
  8
0
100
AcDbEllipse
 62
7
  6
BYLAYER
 10
78.7978384598
 20
66.7980055531
 30
0.0
 11
9.9008743148
 21
9.1398053983
 31
0.0
 40
0.657738698
 41
-2.432844689
 42
-2.3877415972
  0
ELLIPSE
  5
335
100
AcDbEntity
  8
0
100
AcDbEllipse
 62
7
  6
BYLAYER
 10
78.7978384598
 20
67.1621168516
 30
0.0
 11
10.207034137
 21
9.672197328
 31
0.0
 40
0.5661264515
 41
-2.3795532079
 42
-2.3344501161
  0
ELLIPSE
  5
336
100
AcDbEntity
  8
0
100
AcDbEllipse
 62
7
  6
BYLAYER
 10
78.7978384598
 20
67.4996758678
 30
0.0
 11
10.5062434209
 21
10.1235279518
 31
0.0
 40
0.4817532195
 41
-2.3217663156
 42
-2.2766632237
  0
ELLIPSE
  5
337
100
AcDbEntity
  8
0
100
AcDbEllipse
 62
7
  6
BYLAYER
 10
78.7978384598
 20
68.4776968257
 30
0.0
 11
11.377213794
 21
11.3126576757
 31
0.0
 40
0.1921623568
 41
-2.0759595615
 42
-2.0308564696
  0
ELLIPSE
  5
338
100
AcDbEntity
  8
0
100
AcDbEllipse
 62
7
  6
BYLAYER
 10
78.7978384598
 20
67.8049068732
 30
0.0
 11
10.7798633581
 21
10.5096998268
 31
0.0
 40
0.4032531911
 41
-2.2617477902
 42
-2.2166446984
  0
ELLIPSE
  5
339
100
AcDbEntity
  8
0
100
AcDbEllipse
 62
7
  6
BYLAYER
 10
78.7978384598
 20
66.4135720174
 30
0.0
 11
9.6390686169
 21
8.472058128
 31
0.0
 40
0.7581403628
 41
-2.4749476518
 42
-2.42984456
  0
ELLIPSE
  5
33A
100
AcDbEntity
  8
0
100
AcDbEllipse
 62
7
  6
BYLAYER
 10
78.7978384598
 20
68.6081944267
 30
0.0
 11
11.4912004934
 21
11.4626280056
 31
0.0
 40
0.1269935126
 41
-2.0131697603
 42
-1.9680666685
  0
ELLIPSE
  5
33B
100
AcDbEntity
  8
0
100
AcDbEllipse
 62
7
  6
BYLAYER
 10
78.7978384598
 20
68.0725872807
 30
0.0
 11
11.0191384116
 21
10.8359096051
 31
0.0
 40
0.3294650235
 41
-2.2004782149
 42
-2.1553751231
  0
ENDSEC
  0
SECTION
  2
OBJECTS
  0
DICTIONARY
  5
C
100
AcDbDictionary
280
0
281
1
  3
ACAD_GROUP
350
D
  3
ACAD_MLINESTYLE
350
17
  3
ACAD_LAYOUT
350
1A
  3
ACAD_PLOTSETTINGS
350
19
  3
ACAD_PLOTSTYLENAME
350
E
  0
DICTIONARY
  5
D
102
{ACAD_REACTORS
330
C
102
}
100
AcDbDictionary
280
0
281
1
  0
ACDBDICTIONARYWDFLT
  5
E
102
{ACAD_REACTORS
330
C
102
}
100
AcDbDictionary
281
1
  3
Normal
350
F
100
AcDbDictionaryWithDefault
340
F
  0
DICTIONARY
  5
17
102
{ACAD_REACTORS
330
C
102
}
100
AcDbDictionary
280
0
281
1
  3
Standard
350
18
  0
DICTIONARY
  5
19
102
{ACAD_REACTORS
330
C
102
}
100
AcDbDictionary
281
1
  0
DICTIONARY
  5
1A
102
{ACAD_REACTORS
330
C
102
}
100
AcDbDictionary
281
1
  3
Model
350
33C
  3
Layout1
350
33D
  0
ACDBPLACEHOLDER
  5
F
102
{ACAD_REACTORS
330
E
102
}
  0
MLINESTYLE
  5
18
102
{ACAD_REACTORS
330
17
102
}
100
AcDbMlineStyle
  2
STANDARD
 70
0
  3

 62
256
 51
90.0
 52
90.0
 71
2
 49
0.5
 62
256
  6
BYLAYER
 49
-0.5
 62
256
  6
BYLAYER
  0
LAYOUT
  5
33C
102
{ACAD_REACTORS
330
1A
102
}
100
AcDbPlotSettings
  1

  2
none_device
  4

  6

 40
0.0
 41
0.0
 42
0.0
 43
0.0
 44
210.0
 45
297.0
 46
0.0
 47
0.0
 48
0.0
 49
0.0
140
0.0
141
0.0
142
1.0
143
1.0
 70
1024
 72
1
 73
0
 74
0
  7

 75
0
147
1.0
148
0.0
149
0.0
100
AcDbLayout
  1
Model
 70
0
 71
0
 10
0.0
 20
0.0
 11
210.0
 21
297.0
 12
0.0
 22
0.0
 32
0.0
 14
0.0
 24
0.0
 34
0.0
 15
0.0
 25
0.0
 35
0.0
146
0.0
 13
0.0
 23
0.0
 33
0.0
 16
1.0
 26
0.0
 36
0.0
 17
0.0
 27
1.0
 37
0.0
 76
0
330
210
345
0
346
0
  0
LAYOUT
  5
33D
102
{ACAD_REACTORS
330
1A
102
}
100
AcDbPlotSettings
  1

  2
none_device
  4

  6

 40
0.0
 41
0.0
 42
0.0
 43
0.0
 44
210.0
 45
297.0
 46
0.0
 47
0.0
 48
0.0
 49
0.0
140
0.0
141
0.0
142
1.0
143
1.0
 70
0
 72
1
 73
0
 74
0
  7

 75
0
147
1.0
148
0.0
149
0.0
100
AcDbLayout
  1
Layout1
 70
0
 71
1
 10
0.0
 20
0.0
 11
210.0
 21
297.0
 12
0.0
 22
0.0
 32
0.0
 14
0.0
 24
0.0
 34
0.0
 15
0.0
 25
0.0
 35
0.0
146
0.0
 13
0.0
 23
0.0
 33
0.0
 16
1.0
 26
0.0
 36
0.0
 17
0.0
 27
1.0
 37
0.0
 76
0
330
211
345
0
346
0
  0
ENDSEC
  0
EOF
