999
DXF file: C:\Users\sesa63760\Dev\_Creo\CAD\MCADID0002819_3D-CAD\drw0001_1.dxf
999
Pro/ENGINEER 2019471 by Parametric Technology Corporation
  0
SECTION
  2
HEADER
  9
$ACADVER
  1
AC1024
  9
$DWGCODEPAGE
  3
ANSI_1252
  9
$EXTMAX
 10
57.0982454027
 20
80.7532327838
 30
0.0
  9
$EXTMIN
 10
-0.0
 20
0.0
 30
0.0
  9
$LIMMIN
 10
-0.0
 20
0.0
  9
$LIMMAX
 10
57.0982454027
 20
80.7532327838
  9
$VIEWCTR
 10
28.5491227013
 20
40.3766163919
  9
$VIEWSIZE
 40
80.7532327838
  9
$CLAYER
  8
0
  9
$LTSCALE
 40
5.2639144333
  9
$CELTYPE
  6
BYLAYER
  9
$DIMSCALE
 40
1.0
  9
$DIMASZ
 40
0.6797410167
  9
$DIMEXO
 40
1.0
  9
$DIMDLI
 40
3.6368863357
  9
$DIMEXE
 40
1.0
  9
$DIMCEN
 40
0.8613678164
  9
$DIMLFAC
 40
1.0
  9
$DIMBLK
  1
_FILLED
  9
$DIMALT
 70
0
  9
$DIMALTF
 40
0.0393700787
  9
$DIMTXT
 40
0.9516374234
  9
$DIMTOL
 70
1
  9
$DIMLIM
 70
0
  9
$DIMTFAC
 40
1.0
  9
$DIMTP
 40
0.01
  9
$DIMTM
 40
0.01
  9
$DIMGAP
 40
0.625
  9
$DIMDSEP
 70
46
  9
$AUNITS
 70
0
  9
$PDMODE
 70
3
  9
$PDSIZE
 40
0.3125
  9
$HANDSEED
  5
2BB
  9
$TILEMODE
 70
1
  9
$MEASUREMENT
 70
1
  9
$INSUNITS
 70
4
  0
ENDSEC
  0
SECTION
  2
CLASSES
  0
CLASS
  1
ACDBDICTIONARYWDFLT
  2
AcDbDictionaryWithDefault
  3
AutoCAD 2000
 90
0
 91
1
280
0
281
0
  0
CLASS
  1
ACDBPLACEHOLDER
  2
AcDbPlaceHolder
  3
AutoCAD 2000
 90
0
 91
1
280
0
281
0
  0
CLASS
  1
LAYOUT
  2
AcDbLayout
  3
AutoCAD 2000
 90
0
 91
0
280
0
281
0
  0
ENDSEC
  0
SECTION
  2
TABLES
  0
TABLE
  2
VPORT
  5
8
100
AcDbSymbolTable
 70
2
  0
VPORT
  5
1F4
100
AcDbSymbolTableRecord
100
AcDbViewportTableRecord
  2
*ACTIVE
 70
0
 10
0.0
 20
0.0
 11
1.0
 21
1.0
 12
28.5491227013
 22
40.3766163919
 13
0.0
 23
0.0
 14
1.0
 24
1.0
 15
0.0
 25
0.0
 16
0.0
 26
0.0
 36
1.0
 17
0.0
 27
0.0
 37
0.0
 40
80.7532327838
 41
0.7070707071
 42
50.0
 43
0.0
 44
0.0
 50
0.0
 51
0.0
 71
0
 72
100
 73
1
 74
1
 75
0
 76
0
 77
0
 78
0
  0
ENDTAB
  0
TABLE
  2
LTYPE
  5
5
100
AcDbSymbolTable
 70
6
  0
LTYPE
  5
14
100
AcDbSymbolTableRecord
100
AcDbLinetypeTableRecord
  2
BYBLOCK
 70
0
  3

 72
65
 73
0
 40
0.0
  0
LTYPE
  5
15
100
AcDbSymbolTableRecord
100
AcDbLinetypeTableRecord
  2
BYLAYER
 70
0
  3

 72
65
 73
0
 40
0.0
  0
LTYPE
  5
16
100
AcDbSymbolTableRecord
100
AcDbLinetypeTableRecord
  2
CONTINUOUS
 70
64
  3
Solid line
 72
65
 73
0
 40
0.0
  0
LTYPE
  5
1F5
100
AcDbSymbolTableRecord
100
AcDbLinetypeTableRecord
  2
CENTER
 70
64
  3
____ _ ____ _ ____ _ ____ _ ____ _ ____ _ ____
 72
65
 73
4
 40
0.6
 49
0.375
 74
0
 49
-0.075
 74
0
 49
0.075
 74
0
 49
-0.075
 74
0
  0
LTYPE
  5
1F6
100
AcDbSymbolTableRecord
100
AcDbLinetypeTableRecord
  2
HIDDEN
 70
64
  3
- - - - - - - - - - - - - - - - - - - -
 72
65
 73
2
 40
0.2
 49
0.1
 74
0
 49
-0.1
 74
0
  0
LTYPE
  5
1F7
100
AcDbSymbolTableRecord
100
AcDbLinetypeTableRecord
  2
PHANTOM
 70
64
  3
_____ _ _ _____ _ _ _____ _ _ _____
 72
65
 73
6
 40
0.8
 49
0.45
 74
0
 49
-0.05
 74
0
 49
0.1
 74
0
 49
-0.05
 74
0
 49
0.1
 74
0
 49
-0.05
 74
0
  0
LTYPE
  5
1F8
100
AcDbSymbolTableRecord
100
AcDbLinetypeTableRecord
  2
DOT
 70
64
  3
. . . . . . . . . . . . . . . . . . . .
 72
65
 73
2
 40
0.2
 49
0.1
 74
0
 49
-0.1
 74
0
  0
LTYPE
  5
1F9
100
AcDbSymbolTableRecord
100
AcDbLinetypeTableRecord
  2
DASHED
 70
64
  3
- - - - - - - - - - - - - - - - - - - -
 72
65
 73
2
 40
0.2
 49
0.1
 74
0
 49
-0.1
 74
0
  0
ENDTAB
  0
TABLE
  2
LAYER
  5
2
100
AcDbSymbolTable
 70
36
  0
LAYER
  5
10
100
AcDbSymbolTableRecord
100
AcDbLayerTableRecord
  2
0
 70
0
 62
7
  6
CONTINUOUS
370
-3
390
F
  0
LAYER
  5
1FA
100
AcDbSymbolTableRecord
100
AcDbLayerTableRecord
  2
DEFAULT_1
 70
0
 62
7
  6
CENTER
370
-3
390
F
  0
LAYER
  5
1FB
100
AcDbSymbolTableRecord
100
AcDbLayerTableRecord
  2
DEFAULT_2
 70
0
 62
7
  6
HIDDEN
370
-3
390
F
  0
LAYER
  5
1FC
100
AcDbSymbolTableRecord
100
AcDbLayerTableRecord
  2
DEFAULT_3
 70
0
 62
7
  6
PHANTOM
370
-3
390
F
  0
LAYER
  5
1FD
100
AcDbSymbolTableRecord
100
AcDbLayerTableRecord
  2
00_COMPONENTS
 70
0
 62
7
  6
CONTINUOUS
370
-3
390
F
  0
LAYER
  5
1FE
100
AcDbSymbolTableRecord
100
AcDbLayerTableRecord
  2
01_1_DEFAULT_DATUMS
 70
0
 62
7
  6
CONTINUOUS
370
-3
390
F
  0
LAYER
  5
1FF
100
AcDbSymbolTableRecord
100
AcDbLayerTableRecord
  2
01_PLANES
 70
0
 62
7
  6
CONTINUOUS
370
-3
390
F
  0
LAYER
  5
200
100
AcDbSymbolTableRecord
100
AcDbLayerTableRecord
  2
02_COORD_SYS
 70
0
 62
7
  6
CONTINUOUS
370
-3
390
F
  0
LAYER
  5
201
100
AcDbSymbolTableRecord
100
AcDbLayerTableRecord
  2
03_AXES
 70
0
 62
7
  6
CONTINUOUS
370
-3
390
F
  0
LAYER
  5
202
100
AcDbSymbolTableRecord
100
AcDbLayerTableRecord
  2
04_POINTS
 70
0
 62
7
  6
CONTINUOUS
370
-3
390
F
  0
LAYER
  5
203
100
AcDbSymbolTableRecord
100
AcDbLayerTableRecord
  2
05_CURVES
 70
0
 62
7
  6
CONTINUOUS
370
-3
390
F
  0
LAYER
  5
204
100
AcDbSymbolTableRecord
100
AcDbLayerTableRecord
  2
06_SURFS
 70
0
 62
7
  6
CONTINUOUS
370
-3
390
F
  0
LAYER
  5
205
100
AcDbSymbolTableRecord
100
AcDbLayerTableRecord
  2
07_COSMETICS
 70
0
 62
7
  6
CONTINUOUS
370
-3
390
F
  0
LAYER
  5
206
100
AcDbSymbolTableRecord
100
AcDbLayerTableRecord
  2
10_NOTES
 70
0
 62
7
  6
CONTINUOUS
370
-3
390
F
  0
LAYER
  5
207
100
AcDbSymbolTableRecord
100
AcDbLayerTableRecord
  2
11_NOTES_PUB
 70
0
 62
7
  6
CONTINUOUS
370
-3
390
F
  0
LAYER
  5
208
100
AcDbSymbolTableRecord
100
AcDbLayerTableRecord
  2
13_REF_GTOL
 70
0
 62
7
  6
CONTINUOUS
370
-3
390
F
  0
LAYER
  5
209
100
AcDbSymbolTableRecord
100
AcDbLayerTableRecord
  2
16_MISC
 70
0
 62
7
  6
CONTINUOUS
370
-3
390
F
  0
LAYER
  5
20A
100
AcDbSymbolTableRecord
100
AcDbLayerTableRecord
  2
17_NO_PRINT
 70
0
 62
7
  6
CONTINUOUS
370
-3
390
F
  0
LAYER
  5
20B
100
AcDbSymbolTableRecord
100
AcDbLayerTableRecord
  2
18_DATUM_CAMS_JOINTS
 70
0
 62
7
  6
CONTINUOUS
370
-3
390
F
  0
LAYER
  5
20C
100
AcDbSymbolTableRecord
100
AcDbLayerTableRecord
  2
19_DATUM_FUNCTIONAL
 70
0
 62
7
  6
CONTINUOUS
370
-3
390
F
  0
LAYER
  5
20D
100
AcDbSymbolTableRecord
100
AcDbLayerTableRecord
  2
20_DATUM_KINEMATIC_SCHEME
 70
0
 62
7
  6
CONTINUOUS
370
-3
390
F
  0
ENDTAB
  0
TABLE
  2
STYLE
  5
3
100
AcDbSymbolTable
 70
1
  0
STYLE
  5
11
100
AcDbSymbolTableRecord
100
AcDbTextStyleTableRecord
  2
STANDARD
 70
0
 40
0.0
 41
1.0
 50
0.0
 71
0
 42
0.2
  3
ARIAL.TTF
  4

  0
STYLE
  5
20E
100
AcDbSymbolTableRecord
100
AcDbTextStyleTableRecord
  2
TEXTSTYLE_1
 70
0
 40
0.0
 41
0.8
 50
0.0
 71
0
 42
0.2
  3
gdt
  4

  0
ENDTAB
  0
TABLE
  2
VIEW
  5
6
100
AcDbSymbolTable
 70
0
  0
ENDTAB
  0
TABLE
  2
UCS
  5
7
100
AcDbSymbolTable
 70
0
  0
ENDTAB
  0
TABLE
  2
APPID
  5
9
100
AcDbSymbolTable
 70
1
  0
APPID
  5
20F
100
AcDbSymbolTableRecord
100
AcDbRegAppTableRecord
  2
ACAD
 70
0
  0
ENDTAB
  0
TABLE
  2
BLOCK_RECORD
  5
1
100
AcDbSymbolTable
 70
0
  0
BLOCK_RECORD
  5
210
100
AcDbSymbolTableRecord
100
AcDbBlockTableRecord
  2
*Model_Space
  0
BLOCK_RECORD
  5
211
100
AcDbSymbolTableRecord
100
AcDbBlockTableRecord
  2
*Paper_Space
  0
BLOCK_RECORD
  5
212
100
AcDbSymbolTableRecord
100
AcDbBlockTableRecord
  2
_FILLED
  0
ENDTAB
  0
TABLE
  2
DIMSTYLE
  5
A
100
AcDbSymbolTable
 70
1
100
AcDbDimStyleTable
 71
0
  0
DIMSTYLE
105
213
100
AcDbSymbolTableRecord
100
AcDbDimStyleTableRecord
  2
STANDARD
 70
0
  3

  4

 40
1.0
 41
0.6797410167
 42
1.0
 43
0.38
 44
1.0
 45
0.0
 46
0.0
 47
0.01
 48
0.01
140
0.9516374234
141
0.09
142
0.0
143
25.4
144
1.0
145
0.0
146
1.0
147
0.625
 71
1
 72
0
 73
0
 74
0
 75
0
 76
0
 77
1
 78
8
 79
2
170
0
171
1
172
0
173
0
174
0
175
0
176
0
177
0
178
0
270
2
179
2
271
2
272
2
273
2
274
2
275
0
280
0
281
0
282
0
283
1
284
8
285
0
286
0
287
3
288
0
340
11
278
46
341
212
342
212
343
212
344
212
  0
ENDTAB
  0
ENDSEC
  0
SECTION
  2
BLOCKS
  0
BLOCK
  5
20
100
AcDbEntity
  8
0
100
AcDbBlockBegin
  2
*Model_Space
 70
0
 10
0.0
 20
0.0
 30
0.0
  3
*Model_Space
  1

  0
ENDBLK
  5
21
100
AcDbEntity
  8
0
100
AcDbBlockEnd
  0
BLOCK
  5
1C
100
AcDbEntity
  8
0
100
AcDbBlockBegin
  2
*Paper_Space
 70
0
 10
0.0
 20
0.0
 30
0.0
  3
*Paper_Space
  1

  0
ENDBLK
  5
1D
100
AcDbEntity
  8
0
100
AcDbBlockEnd
  0
BLOCK
  5
214
100
AcDbEntity
  8
0
100
AcDbBlockBegin
  2
_FILLED
 70
64
 10
0.0
 20
0.0
  3
_FILLED
  1

  0
SOLID
  5
215
100
AcDbEntity
  8
0
  6
BYBLOCK
 62
0
100
AcDbTrace
 10
0.0
 20
0.0
 11
-1.0
 21
0.25
 12
-1.0
 22
-0.25
 13
-1.0
 23
-0.25
  0
ENDBLK
  5
216
100
AcDbEntity
  8
0
  6
BYBLOCK
 62
0
100
AcDbBlockEnd
  0
ENDSEC
  0
SECTION
  2
ENTITIES
  0
LINE
  5
217
100
AcDbEntity
  8
0
100
AcDbLine
 62
7
  6
BYLAYER
 10
6.6240578842
 20
38.6834334144
 11
6.6240533976
 21
39.9070305951
  0
LINE
  5
218
100
AcDbEntity
  8
0
100
AcDbLine
 62
7
  6
BYLAYER
 10
6.6240533976
 20
47.144997922
 11
6.6240578842
 21
45.9214007413
  0
LINE
  5
219
100
AcDbEntity
  8
0
100
AcDbLine
 62
7
  6
BYLAYER
 10
8.824229794
 20
44.6511596336
 11
8.824229794
 21
38.0146279872
  0
LINE
  5
21A
100
AcDbEntity
  8
0
100
AcDbLine
 62
7
  6
BYLAYER
 10
9.2113688192
 20
37.9431137882
 11
9.2113688192
 21
44.0668819167
  0
LINE
  5
21B
100
AcDbEntity
  8
0
100
AcDbLine
 62
7
  6
BYLAYER
 10
9.318145937
 20
37.1280361397
 11
9.318145937
 21
37.8814673851
  0
LINE
  5
21C
100
AcDbEntity
  8
0
100
AcDbLine
 62
7
  6
BYLAYER
 10
9.318145937
 20
44.1096217076
 11
9.318145937
 21
44.9674391471
  0
LINE
  5
21D
100
AcDbEntity
  8
0
100
AcDbLine
 62
7
  6
BYLAYER
 10
10.2057440558
 20
46.756968293
 11
10.2057440558
 21
47.3584039735
  0
LINE
  5
21E
100
AcDbEntity
  8
0
100
AcDbLine
 62
7
  6
BYLAYER
 10
10.7549809343
 20
45.7969912677
 11
10.7549809343
 21
44.9391738283
  0
LINE
  5
21F
100
AcDbEntity
  8
0
100
AcDbLine
 62
7
  6
BYLAYER
 10
11.2694549871
 20
45.2551114269
 11
11.2694549871
 21
47.2763728879
  0
LINE
  5
220
100
AcDbEntity
  8
0
100
AcDbLine
 62
7
  6
BYLAYER
 10
12.7238983443
 20
31.0505044832
 11
12.7238983443
 21
37.1742726116
  0
LINE
  5
221
100
AcDbEntity
  8
0
100
AcDbLine
 62
7
  6
BYLAYER
 10
9.3181339728
 20
46.6265364809
 11
10.2057440558
 21
47.3584039735
  0
LINE
  5
222
100
AcDbEntity
  8
0
100
AcDbLine
 62
7
  6
BYLAYER
 10
10.2057440558
 20
46.756968293
 11
9.7471564988
 21
46.3788458135
  0
LINE
  5
223
100
AcDbEntity
  8
0
100
AcDbLine
 62
7
  6
BYLAYER
 10
14.7724408024
 20
52.0982951613
 11
16.0409585793
 21
52.8306698696
  0
LINE
  5
224
100
AcDbEntity
  8
0
100
AcDbLine
 62
7
  6
BYLAYER
 10
7.7016796455
 20
47.7671620125
 11
6.6240533976
 21
47.144997922
  0
LINE
  5
225
100
AcDbEntity
  8
0
100
AcDbLine
 62
7
  6
BYLAYER
 10
13.0441777869
 20
30.7320879457
 11
13.0441777869
 21
36.8558560742
  0
LINE
  5
226
100
AcDbEntity
  8
0
100
AcDbLine
 62
7
  6
BYLAYER
 10
13.2740637237
 20
37.9589735705
 11
13.2740637237
 21
40.3994901395
  0
LINE
  5
227
100
AcDbEntity
  8
0
100
AcDbLine
 62
7
  6
BYLAYER
 10
13.3337391955
 20
29.8289614731
 11
13.3337391955
 21
30.6366905531
  0
LINE
  5
228
100
AcDbEntity
  8
0
100
AcDbLine
 62
7
  6
BYLAYER
 10
13.3337391955
 20
36.973357623
 11
13.3337391955
 21
37.9939856444
  0
LINE
  5
229
100
AcDbEntity
  8
0
100
AcDbLine
 62
7
  6
BYLAYER
 10
13.6540186382
 20
29.5105449357
 11
13.6540186382
 21
30.5311729571
  0
LINE
  5
22A
100
AcDbEntity
  8
0
100
AcDbLine
 62
7
  6
BYLAYER
 10
13.6540186382
 20
36.6549410855
 11
13.6540186382
 21
37.6755691069
  0
LINE
  5
22B
100
AcDbEntity
  8
0
100
AcDbLine
 62
7
  6
BYLAYER
 10
14.1261327711
 20
41.1213282518
 11
14.1261327711
 21
42.1419562732
  0
LINE
  5
22C
100
AcDbEntity
  8
0
100
AcDbLine
 62
7
  6
BYLAYER
 10
11.2694549871
 20
47.2763728879
 11
16.5901900014
 21
50.3482823439
  0
LINE
  5
22D
100
AcDbEntity
  8
0
100
AcDbLine
 62
7
  6
BYLAYER
 10
20.7550783896
 20
52.7528674225
 11
26.0758134039
 21
55.8247768785
  0
LINE
  5
22E
100
AcDbEntity
  8
0
100
AcDbLine
 62
7
  6
BYLAYER
 10
16.8693906146
 20
50.1870894413
 11
21.0342790028
 21
52.59167452
  0
LINE
  5
22F
100
AcDbEntity
  8
0
100
AcDbLine
 62
7
  6
BYLAYER
 10
18.1855592648
 20
28.0176071768
 11
13.6540186382
 21
29.5105449357
  0
LINE
  5
230
100
AcDbEntity
  8
0
100
AcDbLine
 62
7
  6
BYLAYER
 10
13.6540186382
 20
30.5311729571
 11
13.0441777869
 21
30.7320879457
  0
LINE
  5
231
100
AcDbEntity
  8
0
100
AcDbLine
 62
7
  6
BYLAYER
 10
14.7724408024
 20
52.0982951613
 11
14.7724408024
 21
51.2687287055
  0
LINE
  5
232
100
AcDbEntity
  8
0
100
AcDbLine
 62
7
  6
BYLAYER
 10
12.7798034608
 20
37.3246855713
 11
12.7239913519
 21
37.1742726545
  0
LINE
  5
233
100
AcDbEntity
  8
0
100
AcDbLine
 62
7
  6
BYLAYER
 10
13.3896443121
 20
38.1443986041
 11
13.3338322032
 21
37.9939856872
  0
LINE
  5
234
100
AcDbEntity
  8
0
100
AcDbLine
 62
7
  6
BYLAYER
 10
9.318145937
 20
44.9674391471
 11
10.7549809343
 21
45.7969912677
  0
LINE
  5
235
100
AcDbEntity
  8
0
100
AcDbLine
 62
7
  6
BYLAYER
 10
9.2113688192
 20
44.0668819167
 11
9.3017712075
 21
44.1190754483
  0
LINE
  5
236
100
AcDbEntity
  8
0
100
AcDbLine
 62
7
  6
BYLAYER
 10
10.7549809343
 20
44.958081467
 11
11.8850408691
 21
45.6105179801
  0
LINE
  5
237
100
AcDbEntity
  8
0
100
AcDbLine
 62
7
  6
BYLAYER
 10
9.318145937
 20
44.1096217076
 11
10.7549809343
 21
44.9391738283
  0
LINE
  5
238
100
AcDbEntity
  8
0
100
AcDbLine
 62
7
  6
BYLAYER
 10
24.6435729033
 20
27.503851233
 11
24.0888753936
 21
27.6480659271
  0
LINE
  5
239
100
AcDbEntity
  8
0
100
AcDbLine
 62
7
  6
BYLAYER
 10
9.318145937
 20
37.1280361397
 11
6.6240578842
 21
38.6834334144
  0
LINE
  5
23A
100
AcDbEntity
  8
0
100
AcDbLine
 62
7
  6
BYLAYER
 10
16.8435556256
 20
50.2020049418
 11
16.8435556256
 21
50.3906143019
  0
LINE
  5
23B
100
AcDbEntity
  8
0
100
AcDbLine
 62
7
  6
BYLAYER
 10
18.1855592648
 20
32.7055348303
 11
18.1855592648
 21
25.7652642847
  0
LINE
  5
23C
100
AcDbEntity
  8
0
100
AcDbLine
 62
7
  6
BYLAYER
 10
18.3133448168
 20
36.1405317861
 11
18.3133448168
 21
33.0137857897
  0
LINE
  5
23D
100
AcDbEntity
  8
0
100
AcDbLine
 62
7
  6
BYLAYER
 10
15.0601796778
 20
40.2882094952
 11
13.3896443121
 21
38.1443986041
  0
LINE
  5
23E
100
AcDbEntity
  8
0
100
AcDbLine
 62
7
  6
BYLAYER
 10
13.313584514
 20
38.0096909048
 11
12.7798034608
 21
37.3246855713
  0
LINE
  5
23F
100
AcDbEntity
  8
0
100
AcDbLine
 62
7
  6
BYLAYER
 10
7.7016796455
 20
40.5291946856
 11
6.6240533976
 21
39.9070305951
  0
LINE
  5
240
100
AcDbEntity
  8
0
100
AcDbLine
 62
7
  6
BYLAYER
 10
36.0299415854
 20
54.657447893
 11
34.3008410301
 21
54.153448459
  0
LINE
  5
241
100
AcDbEntity
  8
0
100
AcDbLine
 62
7
  6
BYLAYER
 10
6.6240578842
 20
39.2848690949
 11
8.824229794
 21
38.0146279872
  0
LINE
  5
242
100
AcDbEntity
  8
0
100
AcDbLine
 62
7
  6
BYLAYER
 10
12.7238983443
 20
35.9151997989
 11
9.2113688192
 21
37.9431137882
  0
LINE
  5
243
100
AcDbEntity
  8
0
100
AcDbLine
 62
7
  6
BYLAYER
 10
19.0770800496
 20
34.1243267425
 11
19.0770800496
 21
36.1997154444
  0
LINE
  5
244
100
AcDbEntity
  8
0
100
AcDbLine
 62
7
  6
BYLAYER
 10
19.861480861
 20
36.6525867607
 11
19.861480861
 21
35.2649173384
  0
LINE
  5
245
100
AcDbEntity
  8
0
100
AcDbLine
 62
7
  6
BYLAYER
 10
20.0784327152
 20
25.3125997171
 11
20.0784327152
 21
32.2528702627
  0
LINE
  5
246
100
AcDbEntity
  8
0
100
AcDbLine
 62
7
  6
BYLAYER
 10
14.391611659
 20
42.9832535909
 11
11.8850408691
 21
45.6105179801
  0
LINE
  5
247
100
AcDbEntity
  8
0
100
AcDbLine
 62
7
  6
BYLAYER
 10
20.5712306262
 20
35.8292211447
 11
20.5712306262
 21
36.7276355133
  0
LINE
  5
248
100
AcDbEntity
  8
0
100
AcDbLine
 62
7
  6
BYLAYER
 10
20.7550783896
 20
52.430478933
 11
20.7550783896
 21
52.7528674225
  0
LINE
  5
249
100
AcDbEntity
  8
0
100
AcDbLine
 62
7
  6
BYLAYER
 10
18.2628711709
 20
32.9403924874
 11
18.1856624784
 21
32.7055349011
  0
LINE
  5
24A
100
AcDbEntity
  8
0
100
AcDbLine
 62
7
  6
BYLAYER
 10
24.6435729033
 20
34.03587057
 11
24.1293620012
 21
34.1695592321
  0
LINE
  5
24B
100
AcDbEntity
  8
0
100
AcDbLine
 62
7
  6
BYLAYER
 10
13.0441777869
 20
36.8558560742
 11
13.6540186382
 21
36.6549410855
  0
LINE
  5
24C
100
AcDbEntity
  8
0
100
AcDbLine
 62
7
  6
BYLAYER
 10
13.6540186382
 20
37.6755691069
 11
18.3133448168
 21
36.1405317861
  0
LINE
  5
24D
100
AcDbEntity
  8
0
100
AcDbLine
 62
7
  6
BYLAYER
 10
29.0568011599
 20
31.3500963605
 11
28.9131164638
 21
31.4330508818
  0
LINE
  5
24E
100
AcDbEntity
  8
0
100
AcDbLine
 62
7
  6
BYLAYER
 10
11.2694549871
 20
47.2763728879
 11
14.7275830121
 21
43.6517329415
  0
LINE
  5
24F
100
AcDbEntity
  8
0
100
AcDbLine
 62
7
  6
BYLAYER
 10
9.9706458636
 20
37.5047548992
 11
9.318145937
 21
37.1280361397
  0
LINE
  5
250
100
AcDbEntity
  8
0
100
AcDbLine
 62
7
  6
BYLAYER
 10
23.755097091
 20
35.0777978904
 11
20.9486485412
 21
35.8074408257
  0
LINE
  5
251
100
AcDbEntity
  8
0
100
AcDbLine
 62
7
  6
BYLAYER
 10
20.5712306262
 20
36.7276355133
 11
24.6435729033
 21
35.6688754043
  0
LINE
  5
252
100
AcDbEntity
  8
0
100
AcDbLine
 62
7
  6
BYLAYER
 10
13.4590430218
 20
41.6145415517
 11
9.2113688192
 21
44.0668819167
  0
LINE
  5
253
100
AcDbEntity
  8
0
100
AcDbLine
 62
7
  6
BYLAYER
 10
9.3017712075
 20
44.1190754483
 11
9.318145937
 21
44.1096217076
  0
LINE
  5
254
100
AcDbEntity
  8
0
100
AcDbLine
 62
7
  6
BYLAYER
 10
8.824229794
 20
44.6511596336
 11
6.6240578842
 21
45.9214007413
  0
LINE
  5
255
100
AcDbEntity
  8
0
100
AcDbLine
 62
7
  6
BYLAYER
 10
6.6240578842
 20
46.5228364218
 11
9.318145937
 21
44.9674391471
  0
LINE
  5
256
100
AcDbEntity
  8
0
100
AcDbLine
 62
7
  6
BYLAYER
 10
23.9433766767
 20
34.4842833795
 11
23.9433766767
 21
33.4636553581
  0
LINE
  5
257
100
AcDbEntity
  8
0
100
AcDbLine
 62
7
  6
BYLAYER
 10
23.9433766767
 20
28.5646408553
 11
23.9433766767
 21
27.5440128339
  0
LINE
  5
258
100
AcDbEntity
  8
0
100
AcDbLine
 62
7
  6
BYLAYER
 10
24.1293620012
 20
34.7435162587
 11
24.1293620012
 21
33.7228882372
  0
LINE
  5
259
100
AcDbEntity
  8
0
100
AcDbLine
 62
7
  6
BYLAYER
 10
24.1293620012
 20
28.671215201
 11
24.1293620012
 21
27.8032457131
  0
LINE
  5
25A
100
AcDbEntity
  8
0
100
AcDbLine
 62
7
  6
BYLAYER
 10
24.6435729033
 20
35.6688754043
 11
24.6435729033
 21
34.03587057
  0
LINE
  5
25B
100
AcDbEntity
  8
0
100
AcDbLine
 62
7
  6
BYLAYER
 10
24.6435729033
 20
28.9680591636
 11
24.6435729033
 21
27.503851233
  0
LINE
  5
25C
100
AcDbEntity
  8
0
100
AcDbLine
 62
7
  6
BYLAYER
 10
25.3533226685
 20
27.5788999855
 11
25.3533226685
 21
29.2119048198
  0
LINE
  5
25D
100
AcDbEntity
  8
0
100
AcDbLine
 62
7
  6
BYLAYER
 10
25.3533226685
 20
34.1109193226
 11
25.3533226685
 21
35.7439241568
  0
LINE
  5
25E
100
AcDbEntity
  8
0
100
AcDbLine
 62
7
  6
BYLAYER
 10
20.0977316053
 20
35.6084475508
 11
18.2628711709
 21
32.9403924874
  0
LINE
  5
25F
100
AcDbEntity
  8
0
100
AcDbLine
 62
7
  6
BYLAYER
 10
9.3181339728
 20
46.6265364809
 11
10.7549809343
 21
45.7969912677
  0
LINE
  5
260
100
AcDbEntity
  8
0
100
AcDbLine
 62
7
  6
BYLAYER
 10
10.2057440558
 20
47.3584039735
 11
10.1551339813
 21
47.3876230526
  0
LINE
  5
261
100
AcDbEntity
  8
0
100
AcDbLine
 62
7
  6
BYLAYER
 10
8.824229794
 20
40.3555409479
 11
7.7016796455
 21
40.5291946856
  0
LINE
  5
262
100
AcDbEntity
  8
0
100
AcDbLine
 62
7
  6
BYLAYER
 10
28.9131164638
 20
31.4330508818
 11
28.9131164638
 21
36.1661549604
  0
LINE
  5
263
100
AcDbEntity
  8
0
100
AcDbLine
 62
7
  6
BYLAYER
 10
29.0568011599
 20
31.3500963605
 11
29.0568011599
 21
36.2491108633
  0
LINE
  5
264
100
AcDbEntity
  8
0
100
AcDbLine
 62
7
  6
BYLAYER
 10
45.2614861609
 20
51.3171991221
 11
44.4770853495
 21
50.8643278058
  0
LINE
  5
265
100
AcDbEntity
  8
0
100
AcDbLine
 62
7
  6
BYLAYER
 10
19.861480861
 20
36.6525867607
 11
19.0770800496
 21
36.1997154444
  0
LINE
  5
266
100
AcDbEntity
  8
0
100
AcDbLine
 62
7
  6
BYLAYER
 10
16.1776488306
 20
50.1101030096
 11
14.7724408024
 21
51.2687287055
  0
LINE
  5
267
100
AcDbEntity
  8
0
100
AcDbLine
 62
7
  6
BYLAYER
 10
14.7724408024
 20
52.0982951613
 11
16.8435556256
 21
50.3906143019
  0
LINE
  5
268
100
AcDbEntity
  8
0
100
AcDbLine
 62
7
  6
BYLAYER
 10
46.0510033756
 20
47.6936643544
 11
25.3533226685
 21
35.7439241568
  0
LINE
  5
269
100
AcDbEntity
  8
0
100
AcDbLine
 62
7
  6
BYLAYER
 10
51.0370456963
 20
50.1267271086
 11
47.1721017348
 21
47.8953139917
  0
LINE
  5
26A
100
AcDbEntity
  8
0
100
AcDbLine
 62
7
  6
BYLAYER
 10
20.0784327152
 20
32.2528702627
 11
23.9433766767
 21
34.4842833795
  0
LINE
  5
26B
100
AcDbEntity
  8
0
100
AcDbLine
 62
7
  6
BYLAYER
 10
46.2365389363
 20
46.3336883107
 11
48.9927121128
 21
47.9258095878
  0
LINE
  5
26C
100
AcDbEntity
  8
0
100
AcDbLine
 62
7
  6
BYLAYER
 10
46.0510033756
 20
46.0606595201
 11
42.3475248842
 21
43.9224679794
  0
LINE
  5
26D
100
AcDbEntity
  8
0
100
AcDbLine
 62
7
  6
BYLAYER
 10
29.0568011599
 20
36.2491108633
 11
25.3533226685
 21
34.1109193226
  0
LINE
  5
26E
100
AcDbEntity
  8
0
100
AcDbLine
 62
7
  6
BYLAYER
 10
22.1227662987
 20
32.4125317407
 11
24.8804177156
 21
34.0037995746
  0
LINE
  5
26F
100
AcDbEntity
  8
0
100
AcDbLine
 62
7
  6
BYLAYER
 10
16.5901900014
 20
50.3482823439
 11
16.8693906146
 21
50.1870894413
  0
LINE
  5
270
100
AcDbEntity
  8
0
100
AcDbLine
 62
7
  6
BYLAYER
 10
16.8435556256
 20
50.3906143019
 11
17.032733447
 21
50.2813949067
  0
LINE
  5
271
100
AcDbEntity
  8
0
100
AcDbLine
 62
7
  6
BYLAYER
 10
10.1551339813
 20
47.3876230526
 11
7.7016796455
 21
47.7671620125
  0
LINE
  5
272
100
AcDbEntity
  8
0
100
AcDbLine
 62
7
  6
BYLAYER
 10
19.1879859428
 20
51.5257230877
 11
18.9988081214
 21
51.6349424829
  0
LINE
  5
273
100
AcDbEntity
  8
0
100
AcDbLine
 62
7
  6
BYLAYER
 10
49.84619013
 20
51.1749213449
 11
45.2249324163
 21
50.1155571072
  0
LINE
  5
274
100
AcDbEntity
  8
0
100
AcDbLine
 62
7
  6
BYLAYER
 10
18.9988081214
 20
51.6349424829
 11
16.0409585793
 21
52.8306698696
  0
LINE
  5
275
100
AcDbEntity
  8
0
100
AcDbLine
 62
7
  6
BYLAYER
 10
21.0342790028
 20
52.59167452
 11
20.7550783896
 21
52.7528674225
  0
LINE
  5
276
100
AcDbEntity
  8
0
100
AcDbLine
 62
7
  6
BYLAYER
 10
48.9927121128
 20
43.026795085
 11
42.3475248842
 21
39.1893639008
  0
LINE
  5
277
100
AcDbEntity
  8
0
100
AcDbLine
 62
7
  6
BYLAYER
 10
25.3533226685
 20
29.2119048198
 11
29.0568011599
 21
31.3500963605
  0
LINE
  5
278
100
AcDbEntity
  8
0
100
AcDbLine
 62
7
  6
BYLAYER
 10
42.3475248842
 20
39.0234534767
 11
46.0510033756
 21
41.1616450173
  0
LINE
  5
279
100
AcDbEntity
  8
0
100
AcDbLine
 62
7
  6
BYLAYER
 10
51.0370456963
 20
43.186456563
 11
47.1721017348
 21
40.9550434461
  0
LINE
  5
27A
100
AcDbEntity
  8
0
100
AcDbLine
 62
7
  6
BYLAYER
 10
20.0784327152
 20
25.3125997171
 11
23.9433766767
 21
27.5440128339
  0
LINE
  5
27B
100
AcDbEntity
  8
0
100
AcDbLine
 62
7
  6
BYLAYER
 10
28.9131164638
 20
31.4330508818
 11
22.1227662987
 21
27.5135172379
  0
LINE
  5
27C
100
AcDbEntity
  8
0
100
AcDbLine
 62
7
  6
BYLAYER
 10
46.0510033756
 20
39.5286401831
 11
25.3533226685
 21
27.5788999855
  0
LINE
  5
27D
100
AcDbEntity
  8
0
100
AcDbLine
 62
7
  6
BYLAYER
 10
41.8931006124
 20
54.6007785405
 11
38.1798720535
 21
53.6362904345
  0
LINE
  5
27E
100
AcDbEntity
  8
0
100
AcDbLine
 62
7
  6
BYLAYER
 10
42.3475248842
 20
43.9224679794
 11
42.3475248842
 21
39.0234534767
  0
LINE
  5
27F
100
AcDbEntity
  8
0
100
AcDbLine
 62
7
  6
BYLAYER
 10
32.3539924968
 20
53.8282844565
 11
26.0758134039
 21
55.8247768785
  0
LINE
  5
280
100
AcDbEntity
  8
0
100
AcDbLine
 62
7
  6
BYLAYER
 10
44.4770853495
 20
50.2879131867
 11
44.4770853495
 21
50.8643278058
  0
LINE
  5
281
100
AcDbEntity
  8
0
100
AcDbLine
 62
7
  6
BYLAYER
 10
45.2614861609
 20
51.3171991221
 11
45.2614861609
 21
50.1239365858
  0
LINE
  5
282
100
AcDbEntity
  8
0
100
AcDbLine
 62
7
  6
BYLAYER
 10
45.4474714854
 20
50.1665713432
 11
45.4474714854
 21
51.5764320012
  0
LINE
  5
283
100
AcDbEntity
  8
0
100
AcDbLine
 62
7
  6
BYLAYER
 10
38.5413486782
 20
53.7301817476
 11
36.0299415854
 21
54.657447893
  0
LINE
  5
284
100
AcDbEntity
  8
0
100
AcDbLine
 62
7
  6
BYLAYER
 10
46.2369058976
 20
41.420877999
 11
46.2365389363
 21
41.4346738079
  0
LINE
  5
285
100
AcDbEntity
  8
0
100
AcDbLine
 62
7
  6
BYLAYER
 10
46.0510033756
 20
47.6936643544
 11
46.0510033756
 21
46.0606595201
  0
LINE
  5
286
100
AcDbEntity
  8
0
100
AcDbLine
 62
7
  6
BYLAYER
 10
46.0510033756
 20
41.1616450173
 11
46.0510033756
 21
39.5286401831
  0
LINE
  5
287
100
AcDbEntity
  8
0
100
AcDbLine
 62
7
  6
BYLAYER
 10
46.2369887002
 20
39.7878730622
 11
46.2369887002
 21
41.4208778965
  0
LINE
  5
288
100
AcDbEntity
  8
0
100
AcDbLine
 62
7
  6
BYLAYER
 10
46.2369887002
 20
46.3198923992
 11
46.2369887002
 21
47.9528972335
  0
LINE
  5
289
100
AcDbEntity
  8
0
100
AcDbLine
 62
7
  6
BYLAYER
 10
47.1721017348
 20
40.9550434461
 11
47.1721017348
 21
41.9756714676
  0
LINE
  5
28A
100
AcDbEntity
  8
0
100
AcDbLine
 62
7
  6
BYLAYER
 10
47.1721017348
 20
46.8746859703
 11
47.1721017348
 21
47.8953139917
  0
LINE
  5
28B
100
AcDbEntity
  8
0
100
AcDbLine
 62
7
  6
BYLAYER
 10
46.1809875765
 20
48.1034333392
 11
44.3471011486
 21
50.454558821
  0
LINE
  5
28C
100
AcDbEntity
  8
0
100
AcDbLine
 62
7
  6
BYLAYER
 10
44.3471011486
 20
50.454558821
 11
44.2911593798
 21
50.605094891
  0
LINE
  5
28D
100
AcDbEntity
  8
0
100
AcDbLine
 62
7
  6
BYLAYER
 10
45.36399037
 20
51.7581360535
 11
42.7051509318
 21
54.4481480381
  0
LINE
  5
28E
100
AcDbEntity
  8
0
100
AcDbLine
 62
7
  6
BYLAYER
 10
46.2369293454
 20
47.9528972691
 11
46.1809875765
 21
48.1034333392
  0
LINE
  5
28F
100
AcDbEntity
  8
0
100
AcDbLine
 62
7
  6
BYLAYER
 10
51.0370456963
 20
50.1267271086
 11
51.0370456963
 21
43.186456563
  0
LINE
  5
290
100
AcDbEntity
  8
0
100
AcDbLine
 62
7
  6
BYLAYER
 10
51.3618076123
 20
43.6391211306
 11
51.3618076123
 21
50.5793916762
  0
SPLINE
  5
291
100
AcDbEntity
  8
0
100
AcDbSpline
 62
7
  6
BYLAYER
 70
0
 71
3
 72
14
 73
10
 74
0
 42
0.0000001
 43
0.0000001
 44
0.0000000001
 40
0.0
 40
0.0
 40
0.0
 40
0.0
 40
0.1346101508
 40
0.2735438579
 40
0.5479102219
 40
0.6768301612
 40
0.7960684632
 40
0.9039627783
 40
1.0
 40
1.0
 40
1.0
 40
1.0
 10
20.9486485412
 20
35.8074408257
 30
0.0
 10
20.9087749976
 20
35.8178074684
 30
0.0
 10
20.8262421604
 20
35.8334433033
 30
0.0
 10
20.65872437
 20
35.8450086213
 30
0.0
 10
20.4916949743
 20
35.8280753964
 30
0.0
 10
20.3381231668
 20
35.7820829749
 30
0.0
 10
20.2388948217
 20
35.7358774491
 30
0.0
 10
20.1573220472
 20
35.6790036597
 30
0.0
 10
20.1143873351
 20
35.6326665068
 30
0.0
 10
20.0977316053
 20
35.6084475508
 30
0.0
  0
SPLINE
  5
292
100
AcDbEntity
  8
0
100
AcDbSpline
 62
7
  6
BYLAYER
 70
0
 71
3
 72
11
 73
7
 74
0
 42
0.0000001
 43
0.0000001
 44
0.0000000001
 40
0.0
 40
0.0
 40
0.0
 40
0.0
 40
0.2177243241
 40
0.4508718087
 40
0.7104854929
 40
1.0
 40
1.0
 40
1.0
 40
1.0
 10
24.1293325652
 20
27.8032456498
 30
0.0
 10
24.1293355505
 20
27.7790666857
 30
0.0
 10
24.1204401223
 20
27.7286548828
 30
0.0
 10
24.0822066966
 20
27.6583920046
 30
0.0
 10
24.0217501626
 20
27.5949368918
 30
0.0
 10
23.9712207234
 20
27.5600885058
 30
0.0
 10
23.9433766767
 20
27.5440128339
 30
0.0
  0
SPLINE
  5
293
100
AcDbEntity
  8
0
100
AcDbSpline
 62
7
  6
BYLAYER
 70
0
 71
3
 72
11
 73
7
 74
0
 42
0.0000001
 43
0.0000001
 44
0.0000000001
 40
0.0
 40
0.0
 40
0.0
 40
0.0
 40
0.2279913038
 40
0.4747126951
 40
0.7344147856
 40
1.0
 40
1.0
 40
1.0
 40
1.0
 10
25.3533226685
 20
34.1109193226
 30
0.0
 10
25.3210576343
 20
34.0922912076
 30
0.0
 10
25.250218785
 20
34.0596977603
 30
0.0
 10
25.1347447771
 20
34.0257823102
 30
0.0
 10
25.0098186877
 20
34.0060754471
 30
0.0
 10
24.92380714
 20
34.0028564434
 30
0.0
 10
24.8804177156
 20
34.0037995746
 30
0.0
  0
SPLINE
  5
294
100
AcDbEntity
  8
0
100
AcDbSpline
 62
7
  6
BYLAYER
 70
0
 71
3
 72
11
 73
7
 74
0
 42
0.0000001
 43
0.0000001
 44
0.0000000001
 40
0.0
 40
0.0
 40
0.0
 40
0.0
 40
0.2178151496
 40
0.4509916545
 40
0.7103586624
 40
1.0
 40
1.0
 40
1.0
 40
1.0
 10
46.2369838942
 20
46.3198924863
 30
0.0
 10
46.2369694398
 20
46.2957029913
 30
0.0
 10
46.2280444924
 20
46.2452855175
 30
0.0
 10
46.1898301156
 20
46.1750308582
 30
0.0
 10
46.1293931844
 20
46.1115657403
 30
0.0
 10
46.0788601368
 20
46.0767425327
 30
0.0
 10
46.0510033756
 20
46.0606595201
 30
0.0
  0
SPLINE
  5
295
100
AcDbEntity
  8
0
100
AcDbSpline
 62
7
  6
BYLAYER
 70
0
 71
3
 72
11
 73
7
 74
0
 42
0.0000001
 43
0.0000001
 44
0.0000000001
 40
0.0
 40
0.0
 40
0.0
 40
0.0
 40
0.2327165772
 40
0.4730672859
 40
0.7275459266
 40
1.0
 40
1.0
 40
1.0
 40
1.0
 10
45.4474690544
 20
51.5764320007
 30
0.0
 10
45.4474725827
 20
51.5923260956
 30
0.0
 10
45.4437661913
 20
51.6247440198
 30
0.0
 10
45.4273777006
 20
51.672027748
 30
0.0
 10
45.4005585658
 20
51.7173975293
 30
0.0
 10
45.3770713716
 20
51.7449016887
 30
0.0
 10
45.36399037
 20
51.7581360535
 30
0.0
  0
SPLINE
  5
296
100
AcDbEntity
  8
0
100
AcDbSpline
 62
7
  6
BYLAYER
 70
0
 71
3
 72
17
 73
13
 74
0
 42
0.0000001
 43
0.0000001
 44
0.0000000001
 40
0.0
 40
0.0
 40
0.0
 40
0.0
 40
0.0432509763
 40
0.0877387536
 40
0.1345334461
 40
0.1844388885
 40
0.2950399087
 40
0.4206396649
 40
0.5588243895
 40
0.7051426073
 40
0.8541796153
 40
1.0
 40
1.0
 40
1.0
 40
1.0
 10
51.3617965352
 20
50.5793917078
 30
0.0
 10
51.3618053359
 20
50.6054305654
 30
0.0
 10
51.3561184336
 20
50.6584115454
 30
0.0
 10
51.3309841845
 20
50.7359397232
 30
0.0
 10
51.2897650117
 20
50.8108100474
 30
0.0
 10
51.2118085566
 20
50.9088966673
 30
0.0
 10
51.0756631514
 20
51.017846539
 30
0.0
 10
50.8722561492
 20
51.1178287239
 30
0.0
 10
50.6341506597
 20
51.1871176075
 30
0.0
 10
50.3745601454
 20
51.2219161248
 30
0.0
 10
50.1081784905
 20
51.2202727353
 30
0.0
 10
49.9317604134
 20
51.1945372381
 30
0.0
 10
49.84619013
 20
51.1749213449
 30
0.0
  0
SPLINE
  5
297
100
AcDbEntity
  8
0
100
AcDbSpline
 62
7
  6
BYLAYER
 70
0
 71
3
 72
12
 73
8
 74
0
 42
0.0000001
 43
0.0000001
 44
0.0000000001
 40
0.0
 40
0.0
 40
0.0
 40
0.0
 40
0.108168039
 40
0.2183618878
 40
0.4513077998
 40
0.7105425683
 40
1.0
 40
1.0
 40
1.0
 40
1.0
 10
51.3617965352
 20
43.6391211622
 30
0.0
 10
51.3617894403
 20
43.6181292651
 30
0.0
 10
51.3581200033
 20
43.5756676252
 30
0.0
 10
51.3361026319
 20
43.4905371024
 30
0.0
 10
51.2794665158
 20
43.3861189814
 30
0.0
 10
51.1739587719
 20
43.275381483
 30
0.0
 10
51.0856941165
 20
43.2145435738
 30
0.0
 10
51.0370456963
 20
43.186456563
 30
0.0
  0
SPLINE
  5
298
100
AcDbEntity
  8
0
100
AcDbSpline
 62
7
  6
BYLAYER
 70
0
 71
3
 72
13
 73
9
 74
0
 42
0.0000001
 43
0.0000001
 44
0.0000000001
 40
0.0
 40
0.0
 40
0.0
 40
0.0
 40
0.3015259001
 40
0.5663111491
 40
0.6847869837
 40
0.7951099592
 40
0.899240476
 40
1.0
 40
1.0
 40
1.0
 40
1.0
 10
13.6540186382
 20
29.5105449357
 30
0.0
 10
13.6081795555
 20
29.5256468409
 30
0.0
 10
13.5242243438
 20
29.5613727117
 30
0.0
 10
13.434078816
 20
29.6261443451
 30
0.0
 10
13.3820130705
 20
29.6860148532
 30
0.0
 10
13.3544611494
 20
29.7320020205
 30
0.0
 10
13.3375479199
 20
29.7799220646
 30
0.0
 10
13.3337423592
 20
29.8128337849
 30
0.0
 10
13.3337405744
 20
29.8289615123
 30
0.0
  0
SPLINE
  5
299
100
AcDbEntity
  8
0
100
AcDbSpline
 62
7
  6
BYLAYER
 70
0
 71
3
 72
11
 73
7
 74
0
 42
0.0000001
 43
0.0000001
 44
0.0000000001
 40
0.0
 40
0.0
 40
0.0
 40
0.0
 40
0.2294385008
 40
0.4821322932
 40
0.7442116918
 40
1.0
 40
1.0
 40
1.0
 40
1.0
 10
25.3533226685
 20
27.5788999855
 30
0.0
 10
25.3050377532
 20
27.5510228431
 30
0.0
 10
25.1954530573
 20
27.5062497472
 30
0.0
 10
25.016987043
 20
27.471873503
 30
0.0
 10
24.8288867822
 20
27.4686737561
 30
0.0
 10
24.7037306519
 20
27.4882109404
 30
0.0
 10
24.6435729033
 20
27.503851233
 30
0.0
  0
SPLINE
  5
29A
100
AcDbEntity
  8
0
100
AcDbSpline
 62
7
  6
BYLAYER
 70
0
 71
3
 72
11
 73
7
 74
0
 42
0.0000001
 43
0.0000001
 44
0.0000000001
 40
0.0
 40
0.0
 40
0.0
 40
0.0
 40
0.2177125024
 40
0.4508454504
 40
0.710391618
 40
1.0
 40
1.0
 40
1.0
 40
1.0
 10
46.2369809626
 20
39.7878730936
 30
0.0
 10
46.2369750662
 20
39.7636951413
 30
0.0
 10
46.2280643174
 20
39.7132894626
 30
0.0
 10
46.1898342365
 20
39.6430398253
 30
0.0
 10
46.1294006033
 20
39.5795584945
 30
0.0
 10
46.0788567982
 20
39.5447212681
 30
0.0
 10
46.0510033756
 20
39.5286401831
 30
0.0
  0
SPLINE
  5
29B
100
AcDbEntity
  8
0
100
AcDbSpline
 62
7
  6
BYLAYER
 70
0
 71
3
 72
13
 73
9
 74
0
 42
0.0000001
 43
0.0000001
 44
0.0000000001
 40
0.0
 40
0.0
 40
0.0
 40
0.0
 40
0.0984929007
 40
0.2008607023
 40
0.3102579417
 40
0.4287433077
 40
0.6957127893
 40
1.0
 40
1.0
 40
1.0
 40
1.0
 10
24.1293325708
 20
34.7435161958
 30
0.0
 10
24.129330406
 20
34.7611221528
 30
0.0
 10
24.12479012
 20
34.797178029
 30
0.0
 10
24.1046060764
 20
34.8493349594
 30
0.0
 10
24.0718759515
 20
34.8989379498
 30
0.0
 10
24.0101746036
 20
34.9628911935
 30
0.0
 10
23.9046248708
 20
35.0297338745
 30
0.0
 10
23.8077394565
 20
35.0641115072
 30
0.0
 10
23.755097091
 20
35.0777978904
 30
0.0
  0
SPLINE
  5
29C
100
AcDbEntity
  8
0
100
AcDbSpline
 62
7
  6
BYLAYER
 70
0
 71
3
 72
13
 73
9
 74
0
 42
0.0000001
 43
0.0000001
 44
0.0000000001
 40
0.0
 40
0.0
 40
0.0
 40
0.0
 40
0.2978690478
 40
0.5652872437
 40
0.6858659289
 40
0.7977486525
 40
0.901905885
 40
1.0
 40
1.0
 40
1.0
 40
1.0
 10
45.2249324163
 20
50.1155571072
 30
0.0
 10
45.1757170326
 20
50.1042751099
 30
0.0
 10
45.0837860966
 20
50.0754744503
 30
0.0
 10
44.9805659791
 20
50.0197070616
 30
0.0
 10
44.9149726488
 20
49.9656663026
 30
0.0
 10
44.8766062767
 20
49.9231004427
 30
0.0
 10
44.8479864152
 20
49.8778688436
 30
0.0
 10
44.8355759988
 20
49.8455925639
 30
0.0
 10
44.8313733885
 20
49.8295044279
 30
0.0
  0
SPLINE
  5
29D
100
AcDbEntity
  8
0
100
AcDbSpline
 62
7
  6
BYLAYER
 70
0
 71
3
 72
19
 73
15
 74
0
 42
0.0000001
 43
0.0000001
 44
0.0000000001
 40
0.0
 40
0.0
 40
0.0
 40
0.0
 40
0.062386321
 40
0.1288366001
 40
0.2703636988
 40
0.4174573681
 40
0.5617344058
 40
0.6953398904
 40
0.7563356757
 40
0.8128110265
 40
0.8647545943
 40
0.912567286
 40
0.9571706665
 40
1.0
 40
1.0
 40
1.0
 40
1.0
 10
20.0784327152
 20
25.3125997171
 30
0.0
 10
20.0386238484
 20
25.2896161943
 30
0.0
 10
19.9532209533
 20
25.2475510032
 30
0.0
 10
19.7656657794
 20
25.1795340506
 30
0.0
 10
19.50750472
 20
25.1279202587
 30
0.0
 10
19.1872376051
 20
25.1190889308
 30
0.0
 10
18.8756967101
 20
25.1628270866
 30
0.0
 10
18.6369943133
 20
25.2425834096
 30
0.0
 10
18.4740612481
 20
25.3311268039
 30
0.0
 10
18.3729478461
 20
25.4050617244
 30
0.0
 10
18.2913060324
 20
25.4869980289
 30
0.0
 10
18.231128925
 20
25.5755943888
 30
0.0
 10
18.1939829068
 20
25.6690037716
 30
0.0
 10
18.1855938832
 20
25.7337070062
 30
0.0
 10
18.1855895989
 20
25.7652643522
 30
0.0
  0
SPLINE
  5
29E
100
AcDbEntity
  8
0
100
AcDbSpline
 62
7
  6
BYLAYER
 70
0
 71
3
 72
15
 73
11
 74
0
 42
0.0000001
 43
0.0000001
 44
0.0000000001
 40
0.0
 40
0.0
 40
0.0
 40
0.0
 40
0.1161098075
 40
0.2421560996
 40
0.37463173
 40
0.5098412455
 40
0.6436557675
 40
0.7720736882
 40
0.8916273713
 40
1.0
 40
1.0
 40
1.0
 40
1.0
 10
47.1721017348
 20
40.9550434461
 30
0.0
 10
47.1383990612
 20
40.9355853146
 30
0.0
 10
47.0641077295
 20
40.9017815991
 30
0.0
 10
46.9429587556
 20
40.8673833698
 30
0.0
 10
46.8119773043
 20
40.8484825164
 30
0.0
 10
46.6770979849
 20
40.8458688394
 30
0.0
 10
46.5442549072
 20
40.8596350017
 30
0.0
 10
46.4193351887
 20
40.8891885224
 30
0.0
 10
46.3078550559
 20
40.9332345549
 30
0.0
 10
46.2421393072
 20
40.9733081879
 30
0.0
 10
46.2134621777
 20
40.9956015754
 30
0.0
  0
SPLINE
  5
29F
100
AcDbEntity
  8
0
100
AcDbSpline
 62
7
  6
BYLAYER
 70
0
 71
3
 72
11
 73
7
 74
0
 42
0.0000001
 43
0.0000001
 44
0.0000000001
 40
0.0
 40
0.0
 40
0.0
 40
0.0
 40
0.2682242044
 40
0.5215227733
 40
0.7636860864
 40
1.0
 40
1.0
 40
1.0
 40
1.0
 10
14.7275830121
 20
43.6517329415
 30
0.0
 10
14.6321941227
 20
43.5383422256
 30
0.0
 10
14.461507001
 20
43.3046712963
 30
0.0
 10
14.2693245221
 20
42.9268628374
 30
0.0
 10
14.1524099246
 20
42.5375257707
 30
0.0
 10
14.1261592828
 20
42.2725050434
 30
0.0
 10
14.1261505478
 20
42.1419562599
 30
0.0
  0
SPLINE
  5
2A0
100
AcDbEntity
  8
0
100
AcDbSpline
 62
7
  6
BYLAYER
 70
0
 71
3
 72
15
 73
11
 74
0
 42
0.0000001
 43
0.0000001
 44
0.0000000001
 40
0.0
 40
0.0
 40
0.0
 40
0.0
 40
0.1182999752
 40
0.2411103278
 40
0.3671735131
 40
0.4952364733
 40
0.6239207359
 40
0.7518267377
 40
0.8776415531
 40
1.0
 40
1.0
 40
1.0
 40
1.0
 10
38.1798720535
 20
53.6362904345
 30
0.0
 10
37.9608328733
 20
53.7166670583
 30
0.0
 10
37.5066175556
 20
53.8598566733
 30
0.0
 10
36.7995702875
 20
54.0197309492
 30
0.0
 10
36.0631463652
 20
54.126742831
 30
0.0
 10
35.3092788282
 20
54.1792498212
 30
0.0
 10
34.5499649031
 20
54.1763416798
 30
0.0
 10
33.7973001026
 20
54.1181400575
 30
0.0
 10
33.0634803888
 20
54.0054993197
 30
0.0
 10
32.5863551156
 20
53.8934416076
 30
0.0
 10
32.3539924968
 20
53.8282844565
 30
0.0
  0
SPLINE
  5
2A1
100
AcDbEntity
  8
0
100
AcDbSpline
 62
7
  6
BYLAYER
 70
0
 71
3
 72
13
 73
9
 74
0
 42
0.0000001
 43
0.0000001
 44
0.0000000001
 40
0.0
 40
0.0
 40
0.0
 40
0.0
 40
0.1012828356
 40
0.2132237717
 40
0.3346004365
 40
0.4636154814
 40
0.7335521761
 40
1.0
 40
1.0
 40
1.0
 40
1.0
 10
42.7051509318
 20
54.4481480381
 30
0.0
 10
42.6847987814
 20
54.4687387996
 30
0.0
 10
42.6370220964
 20
54.5073094136
 30
0.0
 10
42.5531762297
 20
54.5540382142
 30
0.0
 10
42.4561253975
 20
54.591123695
 30
0.0
 10
42.3113740674
 20
54.6266245129
 30
0.0
 10
42.1201894663
 20
54.640488264
 30
0.0
 10
41.9668180503
 20
54.6199261882
 30
0.0
 10
41.8931006124
 20
54.6007785405
 30
0.0
  0
SPLINE
  5
2A2
100
AcDbEntity
  8
0
100
AcDbSpline
 62
7
  6
BYLAYER
 70
0
 71
3
 72
13
 73
9
 74
0
 42
0.0000001
 43
0.0000001
 44
0.0000000001
 40
0.0
 40
0.0
 40
0.0
 40
0.0
 40
0.3015259001
 40
0.5663111491
 40
0.6847869837
 40
0.7951099592
 40
0.899240476
 40
1.0
 40
1.0
 40
1.0
 40
1.0
 10
13.0441777869
 20
30.7320879457
 30
0.0
 10
12.9983387043
 20
30.747189851
 30
0.0
 10
12.9143834926
 20
30.7829157218
 30
0.0
 10
12.8242379647
 20
30.8476873552
 30
0.0
 10
12.7721722193
 20
30.9075578633
 30
0.0
 10
12.7446202981
 20
30.9535450306
 30
0.0
 10
12.7277070686
 20
31.0014650746
 30
0.0
 10
12.723901508
 20
31.034376795
 30
0.0
 10
12.7238997232
 20
31.0505045224
 30
0.0
  0
SPLINE
  5
2A3
100
AcDbEntity
  8
0
100
AcDbSpline
 62
7
  6
BYLAYER
 70
0
 71
3
 72
9
 73
5
 74
0
 42
0.0000001
 43
0.0000001
 44
0.0000000001
 40
0.0
 40
0.0
 40
0.0
 40
0.0
 40
0.5036360632
 40
1.0
 40
1.0
 40
1.0
 40
1.0
 10
13.4590430218
 20
41.6145415517
 30
0.0
 10
13.3983466375
 20
41.4167370327
 30
0.0
 10
13.3056160581
 20
41.0148158789
 30
0.0
 10
13.27406336
 20
40.6034099757
 30
0.0
 10
13.2740569225
 20
40.3994901474
 30
0.0
  0
SPLINE
  5
2A4
100
AcDbEntity
  8
0
100
AcDbSpline
 62
7
  6
BYLAYER
 70
0
 71
3
 72
11
 73
7
 74
0
 42
0.0000001
 43
0.0000001
 44
0.0000000001
 40
0.0
 40
0.0
 40
0.0
 40
0.0
 40
0.289608382
 40
0.5491545496
 40
0.7822874976
 40
1.0
 40
1.0
 40
1.0
 40
1.0
 10
46.0510033756
 20
47.6936643544
 30
0.0
 10
46.0788567982
 20
47.7097454394
 30
0.0
 10
46.1294006033
 20
47.7445826658
 30
0.0
 10
46.1898342365
 20
47.8080639966
 30
0.0
 10
46.2280643174
 20
47.8783136339
 30
0.0
 10
46.2369750662
 20
47.9287193126
 30
0.0
 10
46.2369809626
 20
47.9528972649
 30
0.0
  0
SPLINE
  5
2A5
100
AcDbEntity
  8
0
100
AcDbSpline
 62
7
  6
BYLAYER
 70
0
 71
3
 72
11
 73
7
 74
0
 42
0.0000001
 43
0.0000001
 44
0.0000000001
 40
0.0
 40
0.0
 40
0.0
 40
0.0
 40
0.2174941927
 40
0.4507390246
 40
0.7105773307
 40
1.0
 40
1.0
 40
1.0
 40
1.0
 10
24.1293443212
 20
33.7228881775
 30
0.0
 10
24.1293491012
 20
33.6984354258
 30
0.0
 10
24.120205998
 20
33.6474063299
 30
0.0
 10
24.0810590991
 20
33.5764962015
 30
0.0
 10
24.0195783709
 20
33.5125101259
 30
0.0
 10
23.9683739955
 20
33.4772962821
 30
0.0
 10
23.9401938063
 20
33.4610265394
 30
0.0
  0
SPLINE
  5
2A6
100
AcDbEntity
  8
0
100
AcDbSpline
 62
7
  6
BYLAYER
 70
0
 71
3
 72
11
 73
7
 74
0
 42
0.0000001
 43
0.0000001
 44
0.0000000001
 40
0.0
 40
0.0
 40
0.0
 40
0.0
 40
0.2655852144
 40
0.5252873049
 40
0.7720086962
 40
1.0
 40
1.0
 40
1.0
 40
1.0
 10
24.8804177156
 20
29.1047850718
 30
0.0
 10
24.92380714
 20
29.1038419407
 30
0.0
 10
25.0098186877
 20
29.1070609443
 30
0.0
 10
25.1347447771
 20
29.1267678074
 30
0.0
 10
25.250218785
 20
29.1606832576
 30
0.0
 10
25.3210576343
 20
29.1932767048
 30
0.0
 10
25.3533226685
 20
29.2119048198
 30
0.0
  0
SPLINE
  5
2A7
100
AcDbEntity
  8
0
100
AcDbSpline
 62
7
  6
BYLAYER
 70
0
 71
3
 72
11
 73
7
 74
0
 42
0.0000001
 43
0.0000001
 44
0.0000000001
 40
0.0
 40
0.0
 40
0.0
 40
0.0
 40
0.2177125024
 40
0.4508454504
 40
0.710391618
 40
1.0
 40
1.0
 40
1.0
 40
1.0
 10
44.2911077625
 20
50.6050948952
 30
0.0
 10
44.2911136589
 20
50.6292728476
 30
0.0
 10
44.3000244077
 20
50.6796785263
 30
0.0
 10
44.3382544886
 20
50.7499281636
 30
0.0
 10
44.3986881218
 20
50.8134094943
 30
0.0
 10
44.4492319269
 20
50.8482467208
 30
0.0
 10
44.4770853495
 20
50.8643278058
 30
0.0
  0
SPLINE
  5
2A8
100
AcDbEntity
  8
0
100
AcDbSpline
 62
7
  6
BYLAYER
 70
0
 71
3
 72
15
 73
11
 74
0
 42
0.0000001
 43
0.0000001
 44
0.0000000001
 40
0.0
 40
0.0
 40
0.0
 40
0.0
 40
0.1160306133
 40
0.2419056374
 40
0.3742582045
 40
0.5094727537
 40
0.6433827299
 40
0.7719177585
 40
0.8915740704
 40
1.0
 40
1.0
 40
1.0
 40
1.0
 10
47.1766549884
 20
46.8765236192
 30
0.0
 10
47.1428105676
 20
46.8569836503
 30
0.0
 10
47.0683231073
 20
46.8228924153
 30
0.0
 10
46.9468436797
 20
46.7878806069
 30
0.0
 10
46.8153921939
 20
46.7683667362
 30
0.0
 10
46.679862116
 20
46.7653678112
 30
0.0
 10
46.5462643062
 20
46.778915517
 30
0.0
 10
46.420574127
 20
46.8084142994
 30
0.0
 10
46.3084044657
 20
46.8525698267
 30
0.0
 10
46.2422937865
 20
46.8928306687
 30
0.0
 10
46.2134622099
 20
46.9152441063
 30
0.0
  0
SPLINE
  5
2A9
100
AcDbEntity
  8
0
100
AcDbSpline
 62
7
  6
BYLAYER
 70
0
 71
3
 72
15
 73
11
 74
0
 42
0.0000001
 43
0.0000001
 44
0.0000000001
 40
0.0
 40
0.0
 40
0.0
 40
0.0
 40
0.1080603966
 40
0.2274139171
 40
0.3557558696
 40
0.4896076893
 40
0.6249362267
 40
0.7575697029
 40
0.8837715528
 40
1.0
 40
1.0
 40
1.0
 40
1.0
 10
46.2105873648
 20
47.9381247308
 30
0.0
 10
46.239112638
 20
47.9155948213
 30
0.0
 10
46.3046753238
 20
47.875045831
 30
0.0
 10
46.4161860143
 20
47.8304188308
 30
0.0
 10
46.5413872338
 20
47.8003674308
 30
0.0
 10
46.6747066454
 20
47.7862162991
 30
0.0
 10
46.8101873729
 20
47.7885855728
 30
0.0
 10
46.9418165484
 20
47.8073877218
 30
0.0
 10
47.063580204
 20
47.8418315177
 30
0.0
 10
47.138242596
 20
47.8757655255
 30
0.0
 10
47.1721017348
 20
47.8953139917
 30
0.0
  0
SPLINE
  5
2AA
100
AcDbEntity
  8
0
100
AcDbSpline
 62
7
  6
BYLAYER
 70
0
 71
3
 72
13
 73
9
 74
0
 42
0.0000001
 43
0.0000001
 44
0.0000000001
 40
0.0
 40
0.0
 40
0.0
 40
0.0
 40
0.1007595905
 40
0.2048901372
 40
0.3152131642
 40
0.4336890312
 40
0.6984741845
 40
1.0
 40
1.0
 40
1.0
 40
1.0
 10
12.7238997235
 20
37.1742726511
 30
0.0
 10
12.72390151
 20
37.1581449129
 30
0.0
 10
12.7277070785
 20
37.1252331787
 30
0.0
 10
12.7446203056
 20
37.0773131065
 30
0.0
 10
12.7721722732
 20
37.0313259445
 30
0.0
 10
12.8242380067
 20
36.9714554316
 30
0.0
 10
12.9143835266
 20
36.9066838192
 30
0.0
 10
12.9983387168
 20
36.8709579754
 30
0.0
 10
13.0441777869
 20
36.8558560742
 30
0.0
  0
SPLINE
  5
2AB
100
AcDbEntity
  8
0
100
AcDbSpline
 62
7
  6
BYLAYER
 70
0
 71
3
 72
12
 73
8
 74
0
 42
0.0000001
 43
0.0000001
 44
0.0000000001
 40
0.0
 40
0.0
 40
0.0
 40
0.0
 40
0.2894574317
 40
0.5486922002
 40
0.7816381122
 40
0.891831961
 40
1.0
 40
1.0
 40
1.0
 40
1.0
 10
51.0370456963
 20
50.1267271086
 30
0.0
 10
51.0856941165
 20
50.1548141194
 30
0.0
 10
51.1739587719
 20
50.2156520286
 30
0.0
 10
51.2794665158
 20
50.326389527
 30
0.0
 10
51.3361026319
 20
50.430807648
 30
0.0
 10
51.3581200033
 20
50.5159381708
 30
0.0
 10
51.3617894403
 20
50.5583998107
 30
0.0
 10
51.3617965352
 20
50.5793917078
 30
0.0
  0
SPLINE
  5
2AC
100
AcDbEntity
  8
0
100
AcDbSpline
 62
7
  6
BYLAYER
 70
0
 71
3
 72
11
 73
7
 74
0
 42
0.0000001
 43
0.0000001
 44
0.0000000001
 40
0.0
 40
0.0
 40
0.0
 40
0.0
 40
0.2895145713
 40
0.5491280755
 40
0.7822755659
 40
1.0
 40
1.0
 40
1.0
 40
1.0
 10
23.9433766767
 20
34.4842833795
 30
0.0
 10
23.9712207302
 20
34.5003590554
 30
0.0
 10
24.0217501834
 20
34.5352074071
 30
0.0
 10
24.0822066728
 20
34.5986625442
 30
0.0
 10
24.1204401331
 20
34.6689253986
 30
0.0
 10
24.1293355439
 20
34.7193372189
 30
0.0
 10
24.1293325708
 20
34.7435161958
 30
0.0
  0
SPLINE
  5
2AD
100
AcDbEntity
  8
0
100
AcDbSpline
 62
7
  6
BYLAYER
 70
0
 71
3
 72
19
 73
15
 74
0
 42
0.0000001
 43
0.0000001
 44
0.0000000001
 40
0.0
 40
0.0
 40
0.0
 40
0.0
 40
0.0428293335
 40
0.087432714
 40
0.1352454057
 40
0.1871889735
 40
0.2436643243
 40
0.3046601096
 40
0.4382655942
 40
0.5825426319
 40
0.7296363012
 40
0.8711633999
 40
0.937613679
 40
1.0
 40
1.0
 40
1.0
 40
1.0
 10
18.1855895989
 20
32.7055348978
 30
0.0
 10
18.1855938832
 20
32.6739775518
 30
0.0
 10
18.1939829068
 20
32.6092743172
 30
0.0
 10
18.231128925
 20
32.5158649344
 30
0.0
 10
18.2913060324
 20
32.4272685745
 30
0.0
 10
18.3729478461
 20
32.34533227
 30
0.0
 10
18.4740612481
 20
32.2713973495
 30
0.0
 10
18.6369943133
 20
32.1828539552
 30
0.0
 10
18.8756967101
 20
32.1030976322
 30
0.0
 10
19.1872376051
 20
32.0593594764
 30
0.0
 10
19.50750472
 20
32.0681908043
 30
0.0
 10
19.7656657794
 20
32.1198045962
 30
0.0
 10
19.9532209533
 20
32.1878215488
 30
0.0
 10
20.0386238484
 20
32.2298867399
 30
0.0
 10
20.0784327152
 20
32.2528702627
 30
0.0
  0
SPLINE
  5
2AE
100
AcDbEntity
  8
0
100
AcDbSpline
 62
7
  6
BYLAYER
 70
0
 71
3
 72
13
 73
9
 74
0
 42
0.0000001
 43
0.0000001
 44
0.0000000001
 40
0.0
 40
0.0
 40
0.0
 40
0.0
 40
0.1007595905
 40
0.2048901372
 40
0.3152131642
 40
0.4336890312
 40
0.6984741845
 40
1.0
 40
1.0
 40
1.0
 40
1.0
 10
13.3337405747
 20
37.9939856838
 30
0.0
 10
13.3337423613
 20
37.9778579457
 30
0.0
 10
13.3375479297
 20
37.9449462114
 30
0.0
 10
13.3544611568
 20
37.8970261392
 30
0.0
 10
13.3820131245
 20
37.8510389772
 30
0.0
 10
13.4340788579
 20
37.7911684644
 30
0.0
 10
13.5242243778
 20
37.7263968519
 30
0.0
 10
13.6081795681
 20
37.6906710081
 30
0.0
 10
13.6540186382
 20
37.6755691069
 30
0.0
  0
SPLINE
  5
2AF
100
AcDbEntity
  8
0
100
AcDbSpline
 62
7
  6
BYLAYER
 70
0
 71
3
 72
11
 73
7
 74
0
 42
0.0000001
 43
0.0000001
 44
0.0000000001
 40
0.0
 40
0.0
 40
0.0
 40
0.0
 40
0.2896413376
 40
0.5490083455
 40
0.7821848504
 40
1.0
 40
1.0
 40
1.0
 40
1.0
 10
46.0510033756
 20
41.1616450173
 30
0.0
 10
46.0788601368
 20
41.1777280299
 30
0.0
 10
46.1293931844
 20
41.2125512375
 30
0.0
 10
46.1898301156
 20
41.2760163554
 30
0.0
 10
46.2280444924
 20
41.3462710147
 30
0.0
 10
46.2369694398
 20
41.3966884885
 30
0.0
 10
46.2369838942
 20
41.4208779835
 30
0.0
  0
SPLINE
  5
2B0
100
AcDbEntity
  8
0
100
AcDbSpline
 62
7
  6
BYLAYER
 70
0
 71
3
 72
11
 73
7
 74
0
 42
0.0000001
 43
0.0000001
 44
0.0000000001
 40
0.0
 40
0.0
 40
0.0
 40
0.0
 40
0.2557883082
 40
0.5178677068
 40
0.7705614992
 40
1.0
 40
1.0
 40
1.0
 40
1.0
 10
24.6435729033
 20
35.6688754043
 30
0.0
 10
24.7037306519
 20
35.6532351117
 30
0.0
 10
24.8288867822
 20
35.6336979274
 30
0.0
 10
25.016987043
 20
35.6368976743
 30
0.0
 10
25.1954530573
 20
35.6712739185
 30
0.0
 10
25.3050377532
 20
35.7160470144
 30
0.0
 10
25.3533226685
 20
35.7439241568
 30
0.0
  0
SPLINE
  5
2B1
100
AcDbEntity
  8
0
100
AcDbSpline
 62
7
  6
BYLAYER
 70
0
 71
3
 72
11
 73
7
 74
0
 42
0.0000001
 43
0.0000001
 44
0.0000000001
 40
0.0
 40
0.0
 40
0.0
 40
0.0
 40
0.2294385008
 40
0.4821322932
 40
0.7442116918
 40
1.0
 40
1.0
 40
1.0
 40
1.0
 10
19.861480861
 20
36.6525867607
 30
0.0
 10
19.9097657762
 20
36.6804639032
 30
0.0
 10
20.0193504721
 20
36.7252369991
 30
0.0
 10
20.1978164864
 20
36.7596132433
 30
0.0
 10
20.3859167473
 20
36.7628129901
 30
0.0
 10
20.5110728776
 20
36.7432758058
 30
0.0
 10
20.5712306262
 20
36.7276355133
 30
0.0
  0
SPLINE
  5
2B2
100
AcDbEntity
  8
0
100
AcDbSpline
 62
7
  6
BYLAYER
 70
0
 71
3
 72
11
 73
7
 74
0
 42
0.0000001
 43
0.0000001
 44
0.0000000001
 40
0.0
 40
0.0
 40
0.0
 40
0.0
 40
0.2517290304
 40
0.5141596927
 40
0.7690961541
 40
1.0
 40
1.0
 40
1.0
 40
1.0
 10
18.3133448168
 20
36.1405317861
 30
0.0
 10
18.3759056558
 20
36.1199208181
 30
0.0
 10
18.5087518739
 20
36.0924870515
 30
0.0
 10
18.7110464802
 20
36.089215712
 30
0.0
 10
18.905161595
 20
36.1221238991
 30
0.0
 10
19.0247552611
 20
36.169505894
 30
0.0
 10
19.0770800496
 20
36.1997154444
 30
0.0
  0
SPLINE
  5
2B3
100
AcDbEntity
  8
0
100
AcDbSpline
 62
7
  6
BYLAYER
 70
0
 71
3
 72
9
 73
5
 74
0
 42
0.0000001
 43
0.0000001
 44
0.0000000001
 40
0.0
 40
0.0
 40
0.0
 40
0.0
 40
0.254984719
 40
1.0
 40
1.0
 40
1.0
 40
1.0
 10
24.8804177156
 20
34.0037995746
 30
0.0
 10
24.8600831037
 20
34.0042415765
 30
0.0
 10
24.7804086634
 20
34.0081926191
 30
0.0
 10
24.7010886116
 20
34.0209171762
 30
0.0
 10
24.6435729033
 20
34.03587057
 30
0.0
  0
SPLINE
  5
2B4
100
AcDbEntity
  8
0
100
AcDbSpline
 62
7
  6
BYLAYER
 70
0
 71
3
 72
11
 73
7
 74
0
 42
0.0000001
 43
0.0000001
 44
0.0000000001
 40
0.0
 40
0.0
 40
0.0
 40
0.0
 40
0.2648976266
 40
0.5173900512
 40
0.7610217856
 40
1.0
 40
1.0
 40
1.0
 40
1.0
 10
14.5976380305
 20
39.7769467837
 30
0.0
 10
14.5221711959
 20
39.8801068832
 30
0.0
 10
14.3875873667
 20
40.0915003138
 30
0.0
 10
14.2375171094
 20
40.428208663
 30
0.0
 10
14.1465406001
 20
40.7726689014
 30
0.0
 10
14.1261428324
 20
41.0060175112
 30
0.0
 10
14.1261505478
 20
41.1213282385
 30
0.0
  0
SPLINE
  5
2B5
100
AcDbEntity
  8
0
100
AcDbSpline
 62
7
  6
BYLAYER
 70
0
 71
3
 72
13
 73
9
 74
0
 42
0.0000001
 43
0.0000001
 44
0.0000000001
 40
0.0
 40
0.0
 40
0.0
 40
0.0
 40
0.3015259001
 40
0.5663111491
 40
0.6847869837
 40
0.7951099592
 40
0.899240476
 40
1.0
 40
1.0
 40
1.0
 40
1.0
 10
13.6540186382
 20
36.6549410855
 30
0.0
 10
13.6081795555
 20
36.6700429908
 30
0.0
 10
13.5242243438
 20
36.7057688616
 30
0.0
 10
13.434078816
 20
36.770540495
 30
0.0
 10
13.3820130705
 20
36.830411003
 30
0.0
 10
13.3544611494
 20
36.8763981704
 30
0.0
 10
13.3375479199
 20
36.9243182144
 30
0.0
 10
13.3337423592
 20
36.9572299348
 30
0.0
 10
13.3337405744
 20
36.9733576621
 30
0.0
  0
SPLINE
  5
2B6
100
AcDbEntity
  8
0
100
AcDbSpline
 62
7
  6
BYLAYER
 70
0
 71
3
 72
13
 73
9
 74
0
 42
0.0000001
 43
0.0000001
 44
0.0000000001
 40
0.0
 40
0.0
 40
0.0
 40
0.0
 40
0.1146197112
 40
0.2303749839
 40
0.3483372642
 40
0.469483549
 40
0.7243167858
 40
1.0
 40
1.0
 40
1.0
 40
1.0
 10
14.1261505478
 20
42.1419562599
 30
0.0
 10
14.1261450871
 20
42.0603431624
 30
0.0
 10
14.1362460695
 20
41.8961309131
 30
0.0
 10
14.1816235044
 20
41.6517131242
 30
0.0
 10
14.2568460925
 20
41.4098872539
 30
0.0
 10
14.3987430562
 20
41.0873679183
 30
0.0
 10
14.6534510557
 20
40.6955734012
 30
0.0
 10
14.9148785927
 20
40.4201928744
 30
0.0
 10
15.0601796778
 20
40.2882094952
 30
0.0
  0
SPLINE
  5
2B7
100
AcDbEntity
  8
0
100
AcDbSpline
 62
7
  6
BYLAYER
 70
0
 71
3
 72
11
 73
7
 74
0
 42
0.0000001
 43
0.0000001
 44
0.0000000001
 40
0.0
 40
0.0
 40
0.0
 40
0.0
 40
0.2446787127
 40
0.4915666515
 40
0.7427734153
 40
1.0
 40
1.0
 40
1.0
 40
1.0
 10
13.2740569225
 20
40.3994901474
 30
0.0
 10
13.2740520028
 20
40.2436493826
 30
0.0
 10
13.2923310118
 20
39.9302625454
 30
0.0
 10
13.3743556882
 20
39.4633338622
 30
0.0
 10
13.5105442033
 20
39.0009464371
 30
0.0
 10
13.6351135398
 20
38.7012824822
 30
0.0
 10
13.7055369519
 20
38.5533577891
 30
0.0
  0
SPLINE
  5
2B8
100
AcDbEntity
  8
0
100
AcDbSpline
 62
7
  6
BYLAYER
 70
0
 71
3
 72
11
 73
7
 74
0
 42
0.0000001
 43
0.0000001
 44
0.0000000001
 40
0.0
 40
0.0
 40
0.0
 40
0.0
 40
0.289707598
 40
0.5490909052
 40
0.7822212283
 40
1.0
 40
1.0
 40
1.0
 40
1.0
 10
45.2614861609
 20
51.3171991221
 30
0.0
 10
45.2893493086
 20
51.3332858219
 30
0.0
 10
45.3398986881
 20
51.3681041015
 30
0.0
 10
45.400316529
 20
51.4315948557
 30
0.0
 10
45.4385277973
 20
51.5018371026
 30
0.0
 10
45.4474636854
 20
51.5522465299
 30
0.0
 10
45.4474690544
 20
51.5764320007
 30
0.0
  0
ENDSEC
  0
SECTION
  2
OBJECTS
  0
DICTIONARY
  5
C
100
AcDbDictionary
280
0
281
1
  3
ACAD_GROUP
350
D
  3
ACAD_MLINESTYLE
350
17
  3
ACAD_LAYOUT
350
1A
  3
ACAD_PLOTSETTINGS
350
19
  3
ACAD_PLOTSTYLENAME
350
E
  0
DICTIONARY
  5
D
102
{ACAD_REACTORS
330
C
102
}
100
AcDbDictionary
280
0
281
1
  0
ACDBDICTIONARYWDFLT
  5
E
102
{ACAD_REACTORS
330
C
102
}
100
AcDbDictionary
281
1
  3
Normal
350
F
100
AcDbDictionaryWithDefault
340
F
  0
DICTIONARY
  5
17
102
{ACAD_REACTORS
330
C
102
}
100
AcDbDictionary
280
0
281
1
  3
Standard
350
18
  0
DICTIONARY
  5
19
102
{ACAD_REACTORS
330
C
102
}
100
AcDbDictionary
281
1
  0
DICTIONARY
  5
1A
102
{ACAD_REACTORS
330
C
102
}
100
AcDbDictionary
281
1
  3
Model
350
2B9
  3
Layout1
350
2BA
  0
ACDBPLACEHOLDER
  5
F
102
{ACAD_REACTORS
330
E
102
}
  0
MLINESTYLE
  5
18
102
{ACAD_REACTORS
330
17
102
}
100
AcDbMlineStyle
  2
STANDARD
 70
0
  3

 62
256
 51
90.0
 52
90.0
 71
2
 49
0.5
 62
256
  6
BYLAYER
 49
-0.5
 62
256
  6
BYLAYER
  0
LAYOUT
  5
2B9
102
{ACAD_REACTORS
330
1A
102
}
100
AcDbPlotSettings
  1

  2
none_device
  4

  6

 40
0.0
 41
0.0
 42
0.0
 43
0.0
 44
210.0
 45
297.0
 46
0.0
 47
0.0
 48
0.0
 49
0.0
140
0.0
141
0.0
142
1.0
143
1.0
 70
1024
 72
1
 73
0
 74
0
  7

 75
0
147
1.0
148
0.0
149
0.0
100
AcDbLayout
  1
Model
 70
0
 71
0
 10
0.0
 20
0.0
 11
210.0
 21
297.0
 12
0.0
 22
0.0
 32
0.0
 14
0.0
 24
0.0
 34
0.0
 15
0.0
 25
0.0
 35
0.0
146
0.0
 13
0.0
 23
0.0
 33
0.0
 16
1.0
 26
0.0
 36
0.0
 17
0.0
 27
1.0
 37
0.0
 76
0
330
210
345
0
346
0
  0
LAYOUT
  5
2BA
102
{ACAD_REACTORS
330
1A
102
}
100
AcDbPlotSettings
  1

  2
none_device
  4

  6

 40
0.0
 41
0.0
 42
0.0
 43
0.0
 44
210.0
 45
297.0
 46
0.0
 47
0.0
 48
0.0
 49
0.0
140
0.0
141
0.0
142
1.0
143
1.0
 70
0
 72
1
 73
0
 74
0
  7

 75
0
147
1.0
148
0.0
149
0.0
100
AcDbLayout
  1
Layout1
 70
0
 71
1
 10
0.0
 20
0.0
 11
210.0
 21
297.0
 12
0.0
 22
0.0
 32
0.0
 14
0.0
 24
0.0
 34
0.0
 15
0.0
 25
0.0
 35
0.0
146
0.0
 13
0.0
 23
0.0
 33
0.0
 16
1.0
 26
0.0
 36
0.0
 17
0.0
 27
1.0
 37
0.0
 76
0
330
211
345
0
346
0
  0
ENDSEC
  0
EOF
