999
DXF file: C:\Users\sesa63760\Dev\_Creo\CAD\MCADPE0010455_3D-CAD\drw0001_1.dxf
999
Pro/ENGINEER 2019471 by Parametric Technology Corporation
  0
SECTION
  2
HEADER
  9
$ACADVER
  1
AC1024
  9
$DWGCODEPAGE
  3
ANSI_1252
  9
$EXTMAX
 10
18.0689755967
 20
25.5546940582
 30
0.0
  9
$EXTMIN
 10
0.0
 20
0.0
 30
0.0
  9
$LIMMIN
 10
0.0
 20
0.0
  9
$LIMMAX
 10
18.0689755967
 20
25.5546940582
  9
$VIEWCTR
 10
9.0344877983
 20
12.7773470291
  9
$VIEWSIZE
 40
25.5546940582
  9
$CLAYER
  8
0
  9
$LTSCALE
 40
1.6657874645
  9
$CELTYPE
  6
BYLAYER
  9
$DIMSCALE
 40
1.0
  9
$DIMASZ
 40
0.2151068523
  9
$DIMEXO
 40
1.0
  9
$DIMDLI
 40
1.1509077028
  9
$DIMEXE
 40
1.0
  9
$DIMCEN
 40
0.2725834033
  9
$DIMLFAC
 40
1.0
  9
$DIMBLK
  1
_FILLED
  9
$DIMALT
 70
0
  9
$DIMALTF
 40
0.0393700787
  9
$DIMTXT
 40
0.3011495933
  9
$DIMTOL
 70
1
  9
$DIMLIM
 70
0
  9
$DIMTFAC
 40
1.0
  9
$DIMTP
 40
0.01
  9
$DIMTM
 40
0.01
  9
$DIMGAP
 40
0.625
  9
$DIMDSEP
 70
46
  9
$AUNITS
 70
0
  9
$PDMODE
 70
3
  9
$PDSIZE
 40
0.3125
  9
$HANDSEED
  5
261
  9
$TILEMODE
 70
1
  9
$MEASUREMENT
 70
1
  9
$INSUNITS
 70
4
  0
ENDSEC
  0
SECTION
  2
CLASSES
  0
CLASS
  1
ACDBDICTIONARYWDFLT
  2
AcDbDictionaryWithDefault
  3
AutoCAD 2000
 90
0
 91
1
280
0
281
0
  0
CLASS
  1
ACDBPLACEHOLDER
  2
AcDbPlaceHolder
  3
AutoCAD 2000
 90
0
 91
1
280
0
281
0
  0
CLASS
  1
LAYOUT
  2
AcDbLayout
  3
AutoCAD 2000
 90
0
 91
0
280
0
281
0
  0
ENDSEC
  0
SECTION
  2
TABLES
  0
TABLE
  2
VPORT
  5
8
100
AcDbSymbolTable
 70
2
  0
VPORT
  5
1F4
100
AcDbSymbolTableRecord
100
AcDbViewportTableRecord
  2
*ACTIVE
 70
0
 10
0.0
 20
0.0
 11
1.0
 21
1.0
 12
9.0344877983
 22
12.7773470291
 13
0.0
 23
0.0
 14
1.0
 24
1.0
 15
0.0
 25
0.0
 16
0.0
 26
0.0
 36
1.0
 17
0.0
 27
0.0
 37
0.0
 40
25.5546940582
 41
0.7070707071
 42
50.0
 43
0.0
 44
0.0
 50
0.0
 51
0.0
 71
0
 72
100
 73
1
 74
1
 75
0
 76
0
 77
0
 78
0
  0
ENDTAB
  0
TABLE
  2
LTYPE
  5
5
100
AcDbSymbolTable
 70
6
  0
LTYPE
  5
14
100
AcDbSymbolTableRecord
100
AcDbLinetypeTableRecord
  2
BYBLOCK
 70
0
  3

 72
65
 73
0
 40
0.0
  0
LTYPE
  5
15
100
AcDbSymbolTableRecord
100
AcDbLinetypeTableRecord
  2
BYLAYER
 70
0
  3

 72
65
 73
0
 40
0.0
  0
LTYPE
  5
16
100
AcDbSymbolTableRecord
100
AcDbLinetypeTableRecord
  2
CONTINUOUS
 70
64
  3
Solid line
 72
65
 73
0
 40
0.0
  0
LTYPE
  5
1F5
100
AcDbSymbolTableRecord
100
AcDbLinetypeTableRecord
  2
CENTER
 70
64
  3
____ _ ____ _ ____ _ ____ _ ____ _ ____ _ ____
 72
65
 73
4
 40
0.6
 49
0.375
 74
0
 49
-0.075
 74
0
 49
0.075
 74
0
 49
-0.075
 74
0
  0
LTYPE
  5
1F6
100
AcDbSymbolTableRecord
100
AcDbLinetypeTableRecord
  2
HIDDEN
 70
64
  3
- - - - - - - - - - - - - - - - - - - -
 72
65
 73
2
 40
0.2
 49
0.1
 74
0
 49
-0.1
 74
0
  0
LTYPE
  5
1F7
100
AcDbSymbolTableRecord
100
AcDbLinetypeTableRecord
  2
PHANTOM
 70
64
  3
_____ _ _ _____ _ _ _____ _ _ _____
 72
65
 73
6
 40
0.8
 49
0.45
 74
0
 49
-0.05
 74
0
 49
0.1
 74
0
 49
-0.05
 74
0
 49
0.1
 74
0
 49
-0.05
 74
0
  0
LTYPE
  5
1F8
100
AcDbSymbolTableRecord
100
AcDbLinetypeTableRecord
  2
DOT
 70
64
  3
. . . . . . . . . . . . . . . . . . . .
 72
65
 73
2
 40
0.2
 49
0.1
 74
0
 49
-0.1
 74
0
  0
LTYPE
  5
1F9
100
AcDbSymbolTableRecord
100
AcDbLinetypeTableRecord
  2
DASHED
 70
64
  3
- - - - - - - - - - - - - - - - - - - -
 72
65
 73
2
 40
0.2
 49
0.1
 74
0
 49
-0.1
 74
0
  0
ENDTAB
  0
TABLE
  2
LAYER
  5
2
100
AcDbSymbolTable
 70
36
  0
LAYER
  5
10
100
AcDbSymbolTableRecord
100
AcDbLayerTableRecord
  2
0
 70
0
 62
7
  6
CONTINUOUS
370
-3
390
F
  0
LAYER
  5
1FA
100
AcDbSymbolTableRecord
100
AcDbLayerTableRecord
  2
DEFAULT_1
 70
0
 62
7
  6
CENTER
370
-3
390
F
  0
LAYER
  5
1FB
100
AcDbSymbolTableRecord
100
AcDbLayerTableRecord
  2
DEFAULT_2
 70
0
 62
7
  6
HIDDEN
370
-3
390
F
  0
LAYER
  5
1FC
100
AcDbSymbolTableRecord
100
AcDbLayerTableRecord
  2
DEFAULT_3
 70
0
 62
7
  6
PHANTOM
370
-3
390
F
  0
LAYER
  5
1FD
100
AcDbSymbolTableRecord
100
AcDbLayerTableRecord
  2
00_COMPONENTS
 70
0
 62
7
  6
CONTINUOUS
370
-3
390
F
  0
LAYER
  5
1FE
100
AcDbSymbolTableRecord
100
AcDbLayerTableRecord
  2
01_1_DEFAULT_DATUMS
 70
0
 62
7
  6
CONTINUOUS
370
-3
390
F
  0
LAYER
  5
1FF
100
AcDbSymbolTableRecord
100
AcDbLayerTableRecord
  2
01_PLANES
 70
0
 62
7
  6
CONTINUOUS
370
-3
390
F
  0
LAYER
  5
200
100
AcDbSymbolTableRecord
100
AcDbLayerTableRecord
  2
02_COORD_SYS
 70
0
 62
7
  6
CONTINUOUS
370
-3
390
F
  0
LAYER
  5
201
100
AcDbSymbolTableRecord
100
AcDbLayerTableRecord
  2
03_AXES
 70
0
 62
7
  6
CONTINUOUS
370
-3
390
F
  0
LAYER
  5
202
100
AcDbSymbolTableRecord
100
AcDbLayerTableRecord
  2
04_POINTS
 70
0
 62
7
  6
CONTINUOUS
370
-3
390
F
  0
LAYER
  5
203
100
AcDbSymbolTableRecord
100
AcDbLayerTableRecord
  2
05_CURVES
 70
0
 62
7
  6
CONTINUOUS
370
-3
390
F
  0
LAYER
  5
204
100
AcDbSymbolTableRecord
100
AcDbLayerTableRecord
  2
06_SURFS
 70
0
 62
7
  6
CONTINUOUS
370
-3
390
F
  0
LAYER
  5
205
100
AcDbSymbolTableRecord
100
AcDbLayerTableRecord
  2
07_COSMETICS
 70
0
 62
7
  6
CONTINUOUS
370
-3
390
F
  0
LAYER
  5
206
100
AcDbSymbolTableRecord
100
AcDbLayerTableRecord
  2
10_NOTES
 70
0
 62
7
  6
CONTINUOUS
370
-3
390
F
  0
LAYER
  5
207
100
AcDbSymbolTableRecord
100
AcDbLayerTableRecord
  2
11_NOTES_PUB
 70
0
 62
7
  6
CONTINUOUS
370
-3
390
F
  0
LAYER
  5
208
100
AcDbSymbolTableRecord
100
AcDbLayerTableRecord
  2
13_REF_GTOL
 70
0
 62
7
  6
CONTINUOUS
370
-3
390
F
  0
LAYER
  5
209
100
AcDbSymbolTableRecord
100
AcDbLayerTableRecord
  2
16_MISC
 70
0
 62
7
  6
CONTINUOUS
370
-3
390
F
  0
LAYER
  5
20A
100
AcDbSymbolTableRecord
100
AcDbLayerTableRecord
  2
17_NO_PRINT
 70
0
 62
7
  6
CONTINUOUS
370
-3
390
F
  0
LAYER
  5
20B
100
AcDbSymbolTableRecord
100
AcDbLayerTableRecord
  2
18_DATUM_CAMS_JOINTS
 70
0
 62
7
  6
CONTINUOUS
370
-3
390
F
  0
LAYER
  5
20C
100
AcDbSymbolTableRecord
100
AcDbLayerTableRecord
  2
19_DATUM_FUNCTIONAL
 70
0
 62
7
  6
CONTINUOUS
370
-3
390
F
  0
LAYER
  5
20D
100
AcDbSymbolTableRecord
100
AcDbLayerTableRecord
  2
20_DATUM_KINEMATIC_SCHEME
 70
0
 62
7
  6
CONTINUOUS
370
-3
390
F
  0
ENDTAB
  0
TABLE
  2
STYLE
  5
3
100
AcDbSymbolTable
 70
1
  0
STYLE
  5
11
100
AcDbSymbolTableRecord
100
AcDbTextStyleTableRecord
  2
STANDARD
 70
0
 40
0.0
 41
1.0
 50
0.0
 71
0
 42
0.2
  3
ARIAL.TTF
  4

  0
STYLE
  5
20E
100
AcDbSymbolTableRecord
100
AcDbTextStyleTableRecord
  2
TEXTSTYLE_1
 70
0
 40
0.0
 41
0.8
 50
0.0
 71
0
 42
0.2
  3
gdt
  4

  0
ENDTAB
  0
TABLE
  2
VIEW
  5
6
100
AcDbSymbolTable
 70
0
  0
ENDTAB
  0
TABLE
  2
UCS
  5
7
100
AcDbSymbolTable
 70
0
  0
ENDTAB
  0
TABLE
  2
APPID
  5
9
100
AcDbSymbolTable
 70
1
  0
APPID
  5
20F
100
AcDbSymbolTableRecord
100
AcDbRegAppTableRecord
  2
ACAD
 70
0
  0
ENDTAB
  0
TABLE
  2
BLOCK_RECORD
  5
1
100
AcDbSymbolTable
 70
0
  0
BLOCK_RECORD
  5
210
100
AcDbSymbolTableRecord
100
AcDbBlockTableRecord
  2
*Model_Space
  0
BLOCK_RECORD
  5
211
100
AcDbSymbolTableRecord
100
AcDbBlockTableRecord
  2
*Paper_Space
  0
BLOCK_RECORD
  5
212
100
AcDbSymbolTableRecord
100
AcDbBlockTableRecord
  2
_FILLED
  0
ENDTAB
  0
TABLE
  2
DIMSTYLE
  5
A
100
AcDbSymbolTable
 70
1
100
AcDbDimStyleTable
 71
0
  0
DIMSTYLE
105
213
100
AcDbSymbolTableRecord
100
AcDbDimStyleTableRecord
  2
STANDARD
 70
0
  3

  4

 40
1.0
 41
0.2151068523
 42
1.0
 43
0.38
 44
1.0
 45
0.0
 46
0.0
 47
0.01
 48
0.01
140
0.3011495933
141
0.09
142
0.0
143
25.4
144
1.0
145
0.0
146
1.0
147
0.625
 71
1
 72
0
 73
0
 74
0
 75
0
 76
0
 77
1
 78
8
 79
2
170
0
171
1
172
0
173
0
174
0
175
0
176
0
177
0
178
0
270
2
179
2
271
2
272
2
273
2
274
2
275
0
280
0
281
0
282
0
283
1
284
8
285
0
286
0
287
3
288
0
340
11
278
46
341
212
342
212
343
212
344
212
  0
ENDTAB
  0
ENDSEC
  0
SECTION
  2
BLOCKS
  0
BLOCK
  5
20
100
AcDbEntity
  8
0
100
AcDbBlockBegin
  2
*Model_Space
 70
0
 10
0.0
 20
0.0
 30
0.0
  3
*Model_Space
  1

  0
ENDBLK
  5
21
100
AcDbEntity
  8
0
100
AcDbBlockEnd
  0
BLOCK
  5
1C
100
AcDbEntity
  8
0
100
AcDbBlockBegin
  2
*Paper_Space
 70
0
 10
0.0
 20
0.0
 30
0.0
  3
*Paper_Space
  1

  0
ENDBLK
  5
1D
100
AcDbEntity
  8
0
100
AcDbBlockEnd
  0
BLOCK
  5
214
100
AcDbEntity
  8
0
100
AcDbBlockBegin
  2
_FILLED
 70
64
 10
0.0
 20
0.0
  3
_FILLED
  1

  0
SOLID
  5
215
100
AcDbEntity
  8
0
  6
BYBLOCK
 62
0
100
AcDbTrace
 10
0.0
 20
0.0
 11
-1.0
 21
0.25
 12
-1.0
 22
-0.25
 13
-1.0
 23
-0.25
  0
ENDBLK
  5
216
100
AcDbEntity
  8
0
  6
BYBLOCK
 62
0
100
AcDbBlockEnd
  0
ENDSEC
  0
SECTION
  2
ENTITIES
  0
LINE
  5
217
100
AcDbEntity
  8
0
100
AcDbLine
 62
7
  6
BYLAYER
 10
7.7176845636
 20
18.7724614146
 11
6.4625752526
 21
18.0478280415
  0
LINE
  5
218
100
AcDbEntity
  8
0
100
AcDbLine
 62
7
  6
BYLAYER
 10
3.3513183688
 20
16.2515537644
 11
2.0962090577
 21
15.5269203913
  0
LINE
  5
219
100
AcDbEntity
  8
0
100
AcDbLine
 62
7
  6
BYLAYER
 10
5.2375929753
 20
7.7076259704
 11
8.7042107135
 21
6.6009765644
  0
LINE
  5
21A
100
AcDbEntity
  8
0
100
AcDbLine
 62
7
  6
BYLAYER
 10
2.0962090577
 20
15.5269203913
 11
2.4164284319
 21
14.4537578783
  0
LINE
  5
21B
100
AcDbEntity
  8
0
100
AcDbLine
 62
7
  6
BYLAYER
 10
8.7601132796
 20
18.2912433354
 11
5.6488563959
 21
16.4949690584
  0
LINE
  5
21C
100
AcDbEntity
  8
0
100
AcDbLine
 62
7
  6
BYLAYER
 10
3.1792531021
 20
14.6058131779
 11
5.2375929753
 21
7.7076259704
  0
LINE
  5
21D
100
AcDbEntity
  8
0
100
AcDbLine
 62
7
  6
BYLAYER
 10
4.6552492128
 20
15.7656661807
 11
5.6275169889
 21
16.3270018922
  0
LINE
  5
21E
100
AcDbEntity
  8
0
100
AcDbLine
 62
7
  6
BYLAYER
 10
6.7288505921
 20
16.716889937
 11
9.4158451735
 21
18.2682177218
  0
LINE
  5
21F
100
AcDbEntity
  8
0
100
AcDbLine
 62
7
  6
BYLAYER
 10
5.5267978963
 20
15.1177411622
 11
4.8373716551
 21
14.7197031121
  0
LINE
  5
220
100
AcDbEntity
  8
0
100
AcDbLine
 62
7
  6
BYLAYER
 10
4.8373716551
 20
14.7197031121
 11
4.6552492128
 21
15.7656661807
  0
LINE
  5
221
100
AcDbEntity
  8
0
100
AcDbLine
 62
7
  6
BYLAYER
 10
5.8456687592
 20
13.2864064736
 11
5.5267978964
 21
15.1177411622
  0
LINE
  5
222
100
AcDbEntity
  8
0
100
AcDbLine
 62
7
  6
BYLAYER
 10
8.503491162
 20
15.9044951698
 11
7.5312233858
 21
15.3431594582
  0
LINE
  5
223
100
AcDbEntity
  8
0
100
AcDbLine
 62
7
  6
BYLAYER
 10
4.3241749305
 20
13.4563520797
 11
4.0059782038
 21
13.2726422104
  0
LINE
  5
224
100
AcDbEntity
  8
0
100
AcDbLine
 62
7
  6
BYLAYER
 10
12.381150667
 20
8.7238461646
 11
14.8585750885
 21
7.9329772337
  0
LINE
  5
225
100
AcDbEntity
  8
0
100
AcDbLine
 62
7
  6
BYLAYER
 10
5.6275169889
 20
16.3270018922
 11
6.128510294
 21
13.4497041352
  0
LINE
  5
226
100
AcDbEntity
  8
0
100
AcDbLine
 62
7
  6
BYLAYER
 10
5.8456687592
 20
13.2864064736
 11
6.128510294
 21
13.4497041352
  0
LINE
  5
227
100
AcDbEntity
  8
0
100
AcDbLine
 62
7
  6
BYLAYER
 10
10.8775892324
 20
9.8731498844
 11
12.2577497011
 21
9.4325608498
  0
LINE
  5
228
100
AcDbEntity
  8
0
100
AcDbLine
 62
7
  6
BYLAYER
 10
9.6879289108
 20
10.3865372331
 11
10.893795874
 21
10.0015879658
  0
LINE
  5
229
100
AcDbEntity
  8
0
100
AcDbLine
 62
7
  6
BYLAYER
 10
8.7042107135
 20
6.6009765644
 11
8.4656515286
 21
7.9710663062
  0
LINE
  5
22A
100
AcDbEntity
  8
0
100
AcDbLine
 62
7
  6
BYLAYER
 10
7.5312233858
 20
15.3431594582
 11
7.7036244324
 21
14.353028174
  0
LINE
  5
22B
100
AcDbEntity
  8
0
100
AcDbLine
 62
7
  6
BYLAYER
 10
5.3241704536
 20
11.7242986874
 11
5.0059737269
 21
11.5405888182
  0
LINE
  5
22C
100
AcDbEntity
  8
0
100
AcDbLine
 62
7
  6
BYLAYER
 10
10.5643670234
 20
14.2434566617
 11
12.2437386368
 21
15.2130365272
  0
LINE
  5
22D
100
AcDbEntity
  8
0
100
AcDbLine
 62
7
  6
BYLAYER
 10
14.9307332183
 20
16.7643643119
 11
16.1858425293
 21
17.488997685
  0
LINE
  5
22E
100
AcDbEntity
  8
0
100
AcDbLine
 62
7
  6
BYLAYER
 10
8.8130137668
 20
12.3391400491
 11
5.8456687592
 21
13.2864064736
  0
LINE
  5
22F
100
AcDbEntity
  8
0
100
AcDbLine
 62
7
  6
BYLAYER
 10
6.4625752526
 20
18.0478280415
 11
6.7382557314
 21
17.1239303036
  0
LINE
  5
230
100
AcDbEntity
  8
0
100
AcDbLine
 62
7
  6
BYLAYER
 10
6.128510294
 20
13.4497041352
 11
8.7662602054
 21
12.6076544508
  0
LINE
  5
231
100
AcDbEntity
  8
0
100
AcDbLine
 62
7
  6
BYLAYER
 10
9.4555969007
 20
8.5426081217
 11
9.5707551196
 21
7.881233065
  0
LINE
  5
232
100
AcDbEntity
  8
0
100
AcDbLine
 62
7
  6
BYLAYER
 10
8.5070124785
 20
14.0965623769
 11
8.8130137668
 21
12.3391400491
  0
LINE
  5
233
100
AcDbEntity
  8
0
100
AcDbLine
 62
7
  6
BYLAYER
 10
10.6319405102
 20
13.4182209902
 11
11.3213667515
 21
13.8162590402
  0
LINE
  5
234
100
AcDbEntity
  8
0
100
AcDbLine
 62
7
  6
BYLAYER
 10
15.5639897748
 20
16.2657239634
 11
16.2534160161
 21
16.6637620135
  0
LINE
  5
235
100
AcDbEntity
  8
0
100
AcDbLine
 62
7
  6
BYLAYER
 10
15.5767241926
 20
16.1102059291
 11
15.0110411228
 21
15.783610606
  0
LINE
  5
236
100
AcDbEntity
  8
0
100
AcDbLine
 62
7
  6
BYLAYER
 10
11.3341011693
 20
13.6607410059
 11
12.3240465414
 21
14.2322828213
  0
LINE
  5
237
100
AcDbEntity
  8
0
100
AcDbLine
 62
7
  6
BYLAYER
 10
7.7036244324
 20
14.353028174
 11
10.6319405102
 21
13.4182209902
  0
LINE
  5
238
100
AcDbEntity
  8
0
100
AcDbLine
 62
7
  6
BYLAYER
 10
9.4158451735
 20
18.2682177218
 11
9.7852353799
 21
16.1467411049
  0
LINE
  5
239
100
AcDbEntity
  8
0
100
AcDbLine
 62
7
  6
BYLAYER
 10
10.8529555992
 20
10.0146254188
 11
10.8775892324
 21
9.8731498844
  0
LINE
  5
23A
100
AcDbEntity
  8
0
100
AcDbLine
 62
7
  6
BYLAYER
 10
10.6319405102
 20
13.4182209902
 11
10.5643670234
 21
14.2434566617
  0
LINE
  5
23B
100
AcDbEntity
  8
0
100
AcDbLine
 62
7
  6
BYLAYER
 10
8.4656515286
 20
7.9710663062
 11
9.6879289108
 21
10.3865372331
  0
LINE
  5
23C
100
AcDbEntity
  8
0
100
AcDbLine
 62
7
  6
BYLAYER
 10
11.3341011693
 20
13.6607410059
 11
11.3213667515
 21
13.8162590402
  0
LINE
  5
23D
100
AcDbEntity
  8
0
100
AcDbLine
 62
7
  6
BYLAYER
 10
10.893795874
 20
10.0015879658
 11
11.3341011693
 21
13.6607410059
  0
LINE
  5
23E
100
AcDbEntity
  8
0
100
AcDbLine
 62
7
  6
BYLAYER
 10
10.291210241
 20
10.1939515556
 11
9.4555969007
 21
8.5426081217
  0
LINE
  5
23F
100
AcDbEntity
  8
0
100
AcDbLine
 62
7
  6
BYLAYER
 10
12.2577497011
 20
9.4325608498
 11
12.381150667
 21
8.7238461646
  0
LINE
  5
240
100
AcDbEntity
  8
0
100
AcDbLine
 62
7
  6
BYLAYER
 10
12.3240465414
 20
14.2322828213
 11
11.8837412461
 21
10.5731297812
  0
LINE
  5
241
100
AcDbEntity
  8
0
100
AcDbLine
 62
7
  6
BYLAYER
 10
12.2437386368
 20
15.2130365272
 11
12.3240465414
 21
14.2322828213
  0
LINE
  5
242
100
AcDbEntity
  8
0
100
AcDbLine
 62
7
  6
BYLAYER
 10
11.8837412461
 20
10.5731297812
 11
10.893795874
 21
10.0015879658
  0
LINE
  5
243
100
AcDbEntity
  8
0
100
AcDbLine
 62
7
  6
BYLAYER
 10
10.8775892324
 20
9.8731498844
 11
9.8198646591
 21
9.2624759626
  0
LINE
  5
244
100
AcDbEntity
  8
0
100
AcDbLine
 62
7
  6
BYLAYER
 10
9.4555969007
 20
8.5426081217
 11
8.4656515286
 21
7.9710663062
  0
LINE
  5
245
100
AcDbEntity
  8
0
100
AcDbLine
 62
7
  6
BYLAYER
 10
12.2577497011
 20
9.4325608498
 11
9.5707551196
 21
7.881233065
  0
LINE
  5
246
100
AcDbEntity
  8
0
100
AcDbLine
 62
7
  6
BYLAYER
 10
14.8585750885
 20
7.9329772337
 11
14.2940352119
 21
9.8249396864
  0
LINE
  5
247
100
AcDbEntity
  8
0
100
AcDbLine
 62
7
  6
BYLAYER
 10
14.8597182816
 20
10.1515350095
 11
15.4242581582
 21
8.2595725568
  0
LINE
  5
248
100
AcDbEntity
  8
0
100
AcDbLine
 62
7
  6
BYLAYER
 10
14.2940352119
 20
9.8249396864
 11
15.0110411228
 21
15.783610606
  0
LINE
  5
249
100
AcDbEntity
  8
0
100
AcDbLine
 62
7
  6
BYLAYER
 10
12.381150667
 20
8.7238461646
 11
8.7042107135
 21
6.6009765644
  0
LINE
  5
24A
100
AcDbEntity
  8
0
100
AcDbLine
 62
7
  6
BYLAYER
 10
14.2940352119
 20
9.8249396864
 11
14.8597182816
 21
10.1515350095
  0
LINE
  5
24B
100
AcDbEntity
  8
0
100
AcDbLine
 62
7
  6
BYLAYER
 10
15.0110411228
 20
15.783610606
 11
14.9307332183
 21
16.7643643119
  0
LINE
  5
24C
100
AcDbEntity
  8
0
100
AcDbLine
 62
7
  6
BYLAYER
 10
15.5767241926
 20
16.1102059291
 11
14.8597182816
 21
10.1515350095
  0
LINE
  5
24D
100
AcDbEntity
  8
0
100
AcDbLine
 62
7
  6
BYLAYER
 10
15.5639897748
 20
16.2657239634
 11
15.5767241926
 21
16.1102059291
  0
LINE
  5
24E
100
AcDbEntity
  8
0
100
AcDbLine
 62
7
  6
BYLAYER
 10
16.1858425293
 20
17.488997685
 11
16.2534160161
 21
16.6637620135
  0
LINE
  5
24F
100
AcDbEntity
  8
0
100
AcDbLine
 62
7
  6
BYLAYER
 10
15.4242581582
 20
8.2595725568
 11
14.8585750885
 21
7.9329772337
  0
SPLINE
  5
250
100
AcDbEntity
  8
0
100
AcDbSpline
 62
7
  6
BYLAYER
 70
0
 71
3
 72
17
 73
13
 74
0
 42
0.0000001
 43
0.0000001
 44
0.0000000001
 40
0.0
 40
0.0
 40
0.0
 40
0.0
 40
0.0500954473
 40
0.100626604
 40
0.152007508
 40
0.2046222841
 40
0.3147159876
 40
0.4330779687
 40
0.5607928484
 40
0.6981769392
 40
0.8449532088
 40
1.0
 40
1.0
 40
1.0
 40
1.0
 10
4.0059793223
 20
13.2726402711
 30
0.0
 10
3.9949289715
 20
13.2662612008
 30
0.0
 10
3.9734533161
 20
13.2521504289
 30
0.0
 10
3.9436670984
 20
13.2272959197
 30
0.0
 10
3.916368165
 20
13.1988314302
 30
0.0
 10
3.8829840586
 20
13.155604445
 30
0.0
 10
3.8481891058
 20
13.0924910179
 30
0.0
 10
3.8189323101
 20
13.0062141379
 30
0.0
 10
3.8017478715
 20
12.9097442473
 30
0.0
 10
3.7968717999
 20
12.804695971
 30
0.0
 10
3.8043296557
 20
12.6928763344
 30
0.0
 10
3.8170723813
 20
12.6169282619
 30
0.0
 10
3.8253262721
 20
12.578309703
 30
0.0
  0
SPLINE
  5
251
100
AcDbEntity
  8
0
100
AcDbSpline
 62
7
  6
BYLAYER
 70
0
 71
3
 72
14
 73
10
 74
0
 42
0.0000001
 43
0.0000001
 44
0.0000000001
 40
0.0
 40
0.0
 40
0.0
 40
0.0
 40
0.2330533837
 40
0.3536322989
 40
0.4770304499
 40
0.6033232933
 40
0.7325640112
 40
0.864792137
 40
1.0
 40
1.0
 40
1.0
 40
1.0
 10
6.7288505921
 20
16.716889937
 30
0.0
 10
7.1744848976
 20
16.6885935433
 30
0.0
 10
7.8488330634
 20
16.6073255763
 30
0.0
 10
8.7457010921
 20
16.4301430134
 30
0.0
 10
9.4345193155
 20
16.2590950352
 30
0.0
 10
10.1305542052
 20
16.0517164677
 30
0.0
 10
10.832758299
 20
15.8083263672
 30
0.0
 10
11.5399558659
 20
15.5293355683
 30
0.0
 10
12.0088086844
 20
15.3222132133
 30
0.0
 10
12.2437386368
 20
15.2130365272
 30
0.0
  0
SPLINE
  5
252
100
AcDbEntity
  8
0
100
AcDbSpline
 62
7
  6
BYLAYER
 70
0
 71
3
 72
17
 73
13
 74
0
 42
0.0000001
 43
0.0000001
 44
0.0000000001
 40
0.0
 40
0.0
 40
0.0
 40
0.0
 40
0.0553126299
 40
0.1112964436
 40
0.1680271775
 40
0.225581853
 40
0.3434234309
 40
0.4653523286
 40
0.5917504651
 40
0.7228907026
 40
0.8589501836
 40
1.0
 40
1.0
 40
1.0
 40
1.0
 10
7.7176845636
 20
18.7724614146
 30
0.0
 10
7.8744003655
 20
18.8082724716
 30
0.0
 10
8.1916860362
 20
18.8720517409
 30
0.0
 10
8.6749281248
 20
18.9437537834
 30
0.0
 10
9.1676417433
 20
18.9919300673
 30
0.0
 10
9.8416822831
 20
19.0249995463
 30
0.0
 10
10.7069112115
 20
19.0059065052
 30
0.0
 10
11.7658915767
 20
18.8887901095
 30
0.0
 10
12.8495737156
 20
18.6779330348
 30
0.0
 10
13.953532375
 20
18.3743190828
 30
0.0
 10
15.0732744549
 20
17.9792851864
 30
0.0
 10
15.8140907321
 20
17.6617582413
 30
0.0
 10
16.1858425293
 20
17.488997685
 30
0.0
  0
SPLINE
  5
253
100
AcDbEntity
  8
0
100
AcDbSpline
 62
7
  6
BYLAYER
 70
0
 71
3
 72
11
 73
7
 74
0
 42
0.0000001
 43
0.0000001
 44
0.0000000001
 40
0.0
 40
0.0
 40
0.0
 40
0.0
 40
0.2442490581
 40
0.492005991
 40
0.7437716705
 40
1.0
 40
1.0
 40
1.0
 40
1.0
 10
3.3513183688
 20
16.2515537644
 30
0.0
 10
3.5350786174
 20
16.2935447358
 30
0.0
 10
3.90793584
 20
16.3667433641
 30
0.0
 10
4.4770841058
 20
16.4436056832
 30
0.0
 10
5.0589307758
 20
16.4881482154
 30
0.0
 10
5.4511184179
 20
16.4961920047
 30
0.0
 10
5.6488563959
 20
16.4949690584
 30
0.0
  0
SPLINE
  5
254
100
AcDbEntity
  8
0
100
AcDbSpline
 62
7
  6
BYLAYER
 70
0
 71
3
 72
25
 73
21
 74
0
 42
0.0000001
 43
0.0000001
 44
0.0000000001
 40
0.0
 40
0.0
 40
0.0
 40
0.0
 40
0.0692392628
 40
0.1408570006
 40
0.2140096197
 40
0.2879324811
 40
0.3618006369
 40
0.4347760213
 40
0.5060647057
 40
0.5749333836
 40
0.6407325124
 40
0.7029480801
 40
0.7612329441
 40
0.8154580446
 40
0.8657753711
 40
0.9126618921
 40
0.9350993293
 40
0.9570264928
 40
0.9786029392
 40
1.0
 40
1.0
 40
1.0
 40
1.0
 10
3.8253262721
 20
12.578309703
 30
0.0
 10
3.8338013914
 20
12.5386560533
 30
0.0
 10
3.8547266239
 20
12.4587385855
 30
0.0
 10
3.8963412041
 20
12.3403845499
 30
0.0
 10
3.9481727162
 20
12.2231259187
 30
0.0
 10
4.009323566
 20
12.1089580258
 30
0.0
 10
4.0787619239
 20
11.9997539359
 30
0.0
 10
4.1553528186
 20
11.8973559975
 30
0.0
 10
4.2378058873
 20
11.8034685158
 30
0.0
 10
4.3247448376
 20
11.7196472798
 30
0.0
 10
4.4147479479
 20
11.6473035304
 30
0.0
 10
4.5063237816
 20
11.587623318
 30
0.0
 10
4.5979966791
 20
11.5416126974
 30
0.0
 10
4.6883184281
 20
11.5100800508
 30
0.0
 10
4.7758336211
 20
11.4935979688
 30
0.0
 10
4.8463539876
 20
11.4928242626
 30
0.0
 10
4.8993507951
 20
11.5003190262
 30
0.0
 10
4.9368825981
 20
11.5097345601
 30
0.0
 10
4.9725903557
 20
11.522969543
 30
0.0
 10
4.9951201187
 20
11.5343259072
 30
0.0
 10
5.0059726083
 20
11.5405907575
 30
0.0
  0
SPLINE
  5
255
100
AcDbEntity
  8
0
100
AcDbSpline
 62
7
  6
BYLAYER
 70
0
 71
3
 72
11
 73
7
 74
0
 42
0.0000001
 43
0.0000001
 44
0.0000000001
 40
0.0
 40
0.0
 40
0.0
 40
0.0
 40
0.2437242953
 40
0.4912299008
 40
0.7431363696
 40
1.0
 40
1.0
 40
1.0
 40
1.0
 10
2.4164284319
 20
14.4537578783
 30
0.0
 10
2.609031152
 20
14.5012499544
 30
0.0
 10
3.0006285422
 20
14.5836727921
 30
0.0
 10
3.5998689374
 20
14.6688420537
 30
0.0
 10
4.2139819107
 20
14.71627075
 30
0.0
 10
4.6283261279
 20
14.7226272232
 30
0.0
 10
4.8373716551
 20
14.7197031121
 30
0.0
  0
SPLINE
  5
256
100
AcDbEntity
  8
0
100
AcDbSpline
 62
7
  6
BYLAYER
 70
0
 71
3
 72
17
 73
13
 74
0
 42
0.0000001
 43
0.0000001
 44
0.0000000001
 40
0.0
 40
0.0
 40
0.0
 40
0.0
 40
0.0500954473
 40
0.100626604
 40
0.152007508
 40
0.2046222841
 40
0.3147159876
 40
0.4330779687
 40
0.5607928484
 40
0.6981769392
 40
0.8449532088
 40
1.0
 40
1.0
 40
1.0
 40
1.0
 10
5.0059726083
 20
11.5405907575
 30
0.0
 10
5.0170229592
 20
11.5469698278
 30
0.0
 10
5.0384986146
 20
11.5610805997
 30
0.0
 10
5.0682848322
 20
11.585935109
 30
0.0
 10
5.0955837656
 20
11.6143995984
 30
0.0
 10
5.1289678721
 20
11.6576265836
 30
0.0
 10
5.1637628248
 20
11.7207400107
 30
0.0
 10
5.1930196206
 20
11.8070168908
 30
0.0
 10
5.2102040592
 20
11.9034867813
 30
0.0
 10
5.2150801307
 20
12.0085350576
 30
0.0
 10
5.207622275
 20
12.1203546942
 30
0.0
 10
5.1948795494
 20
12.1963027667
 30
0.0
 10
5.1866256586
 20
12.2349213256
 30
0.0
  0
SPLINE
  5
257
100
AcDbEntity
  8
0
100
AcDbSpline
 62
7
  6
BYLAYER
 70
0
 71
3
 72
25
 73
21
 74
0
 42
0.0000001
 43
0.0000001
 44
0.0000000001
 40
0.0
 40
0.0
 40
0.0
 40
0.0
 40
0.0213971343
 40
0.0429736465
 40
0.0649009077
 40
0.0873384743
 40
0.1342249496
 40
0.1845420945
 40
0.2387666658
 40
0.2970504627
 40
0.3592648572
 40
0.4250626459
 40
0.4939303607
 40
0.5652187533
 40
0.6381945664
 40
0.7120636979
 40
0.7859873993
 40
0.859141463
 40
0.930760628
 40
1.0
 40
1.0
 40
1.0
 40
1.0
 10
4.3241760125
 20
13.4563501977
 30
0.0
 10
4.335028664
 20
13.4626148529
 30
0.0
 10
4.3575584634
 20
13.4739712408
 30
0.0
 10
4.3932661468
 20
13.4872068688
 30
0.0
 10
4.4307982329
 20
13.4966220966
 30
0.0
 10
4.4837951969
 20
13.5041163022
 30
0.0
 10
4.5543154782
 20
13.5033432344
 30
0.0
 10
4.6418302364
 20
13.4868608568
 30
0.0
 10
4.732150815
 20
13.4553282195
 30
0.0
 10
4.8238226715
 20
13.4093191615
 30
0.0
 10
4.9153966696
 20
13.3496399346
 30
0.0
 10
5.0053984598
 20
13.2772978745
 30
0.0
 10
5.0923371482
 20
13.19347853
 30
0.0
 10
5.1747898427
 20
13.099591376
 30
0.0
 10
5.2513822219
 20
12.9971937485
 30
0.0
 10
5.3208214148
 20
12.8879886115
 30
0.0
 10
5.3819737759
 20
12.7738193823
 30
0.0
 10
5.433806545
 20
12.6565589077
 30
0.0
 10
5.4754215454
 20
12.5382031755
 30
0.0
 10
5.4963472529
 20
12.4582849059
 30
0.0
 10
5.5048223853
 20
12.4186311949
 30
0.0
  0
SPLINE
  5
258
100
AcDbEntity
  8
0
100
AcDbSpline
 62
7
  6
BYLAYER
 70
0
 71
3
 72
14
 73
10
 74
0
 42
0.0000001
 43
0.0000001
 44
0.0000000001
 40
0.0
 40
0.0
 40
0.0
 40
0.0
 40
0.135207863
 40
0.2674359888
 40
0.3966767067
 40
0.5229695501
 40
0.6463677011
 40
0.7669466163
 40
1.0
 40
1.0
 40
1.0
 40
1.0
 10
14.9307332183
 20
16.7643643119
 30
0.0
 10
14.6958032658
 20
16.873540998
 30
0.0
 10
14.2269504473
 20
17.080663353
 30
0.0
 10
13.5197528804
 20
17.3596541519
 30
0.0
 10
12.8175487867
 20
17.6030442524
 30
0.0
 10
12.1215138969
 20
17.8104228199
 30
0.0
 10
11.4326956736
 20
17.9814707982
 30
0.0
 10
10.5358276449
 20
18.158653361
 30
0.0
 10
9.861479479
 20
18.2399213281
 30
0.0
 10
9.4158451735
 20
18.2682177218
 30
0.0
  0
SPLINE
  5
259
100
AcDbEntity
  8
0
100
AcDbSpline
 62
7
  6
BYLAYER
 70
0
 71
3
 72
11
 73
7
 74
0
 42
0.0000001
 43
0.0000001
 44
0.0000000001
 40
0.0
 40
0.0
 40
0.0
 40
0.0
 40
0.2592383681
 40
0.5122948716
 40
0.7591907046
 40
1.0
 40
1.0
 40
1.0
 40
1.0
 10
10.5643670234
 20
14.2434566617
 30
0.0
 10
10.3112056029
 20
14.3611058787
 30
0.0
 10
9.806077681
 20
14.5833649689
 30
0.0
 10
9.0439030604
 20
14.8798373331
 30
0.0
 10
8.2877626072
 20
15.1348155576
 30
0.0
 10
7.7823764307
 20
15.2786012098
 30
0.0
 10
7.5312233858
 20
15.3431594582
 30
0.0
  0
SPLINE
  5
25A
100
AcDbEntity
  8
0
100
AcDbSpline
 62
7
  6
BYLAYER
 70
0
 71
3
 72
25
 73
21
 74
0
 42
0.0000001
 43
0.0000001
 44
0.0000000001
 40
0.0
 40
0.0
 40
0.0
 40
0.0
 40
0.0692392628
 40
0.1408570006
 40
0.2140096197
 40
0.2879324811
 40
0.3618006369
 40
0.4347760213
 40
0.5060647057
 40
0.5749333836
 40
0.6407325124
 40
0.7029480801
 40
0.7612329441
 40
0.8154580446
 40
0.8657753711
 40
0.9126618921
 40
0.9350993293
 40
0.9570264928
 40
0.9786029392
 40
1.0
 40
1.0
 40
1.0
 40
1.0
 10
5.1866256586
 20
12.2349213256
 30
0.0
 10
5.1781505393
 20
12.2745749753
 30
0.0
 10
5.1572253068
 20
12.3544924431
 30
0.0
 10
5.1156107266
 20
12.4728464787
 30
0.0
 10
5.0637792144
 20
12.5901051099
 30
0.0
 10
5.0026283647
 20
12.7042730028
 30
0.0
 10
4.9331900068
 20
12.8134770927
 30
0.0
 10
4.8565991121
 20
12.9158750311
 30
0.0
 10
4.7741460433
 20
13.0097625128
 30
0.0
 10
4.687207093
 20
13.0935837488
 30
0.0
 10
4.5972039827
 20
13.1659274982
 30
0.0
 10
4.5056281491
 20
13.2256077106
 30
0.0
 10
4.4139552516
 20
13.2716183312
 30
0.0
 10
4.3236335025
 20
13.3031509778
 30
0.0
 10
4.2361183096
 20
13.3196330598
 30
0.0
 10
4.1655979431
 20
13.320406766
 30
0.0
 10
4.1126011356
 20
13.3129120024
 30
0.0
 10
4.0750693326
 20
13.3034964685
 30
0.0
 10
4.039361575
 20
13.2902614856
 30
0.0
 10
4.0168318119
 20
13.2789051214
 30
0.0
 10
4.0059793223
 20
13.2726402711
 30
0.0
  0
SPLINE
  5
25B
100
AcDbEntity
  8
0
100
AcDbSpline
 62
7
  6
BYLAYER
 70
0
 71
3
 72
11
 73
7
 74
0
 42
0.0000001
 43
0.0000001
 44
0.0000000001
 40
0.0
 40
0.0
 40
0.0
 40
0.0
 40
0.2562283295
 40
0.507994009
 40
0.7557509419
 40
1.0
 40
1.0
 40
1.0
 40
1.0
 10
8.7601132796
 20
18.2912433354
 30
0.0
 10
8.5623753017
 20
18.2924662817
 30
0.0
 10
8.1701876596
 20
18.2844224924
 30
0.0
 10
7.5883409895
 20
18.2398799603
 30
0.0
 10
7.0191927237
 20
18.1630176412
 30
0.0
 10
6.6463355012
 20
18.0898190128
 30
0.0
 10
6.4625752526
 20
18.0478280415
 30
0.0
  0
SPLINE
  5
25C
100
AcDbEntity
  8
0
100
AcDbSpline
 62
7
  6
BYLAYER
 70
0
 71
3
 72
17
 73
13
 74
0
 42
0.0000001
 43
0.0000001
 44
0.0000000001
 40
0.0
 40
0.0
 40
0.0
 40
0.0
 40
0.1550477405
 40
0.3018219603
 40
0.4392045798
 40
0.5669192793
 40
0.6852805521
 40
0.7953746809
 40
0.8479897666
 40
0.8993714756
 40
0.9499035657
 40
1.0
 40
1.0
 40
1.0
 40
1.0
 10
5.5048223853
 20
12.4186311949
 30
0.0
 10
5.5130763295
 20
12.3800123861
 30
0.0
 10
5.5258192562
 20
12.3040646014
 30
0.0
 10
5.5332767998
 20
12.192245543
 30
0.0
 10
5.5284009025
 20
12.0871982354
 30
0.0
 10
5.511217453
 20
11.9907286607
 30
0.0
 10
5.481960105
 20
11.9044521853
 30
0.0
 10
5.4471667397
 20
11.8413377681
 30
0.0
 10
5.413781597
 20
11.798111029
 30
0.0
 10
5.386482643
 20
11.7696458941
 30
0.0
 10
5.3566964306
 20
11.7447902202
 30
0.0
 10
5.3352200713
 20
11.7306795471
 30
0.0
 10
5.3241693716
 20
11.7243005694
 30
0.0
  0
SPLINE
  5
25D
100
AcDbEntity
  8
0
100
AcDbSpline
 62
7
  6
BYLAYER
 70
0
 71
3
 72
11
 73
7
 74
0
 42
0.0000001
 43
0.0000001
 44
0.0000000001
 40
0.0
 40
0.0
 40
0.0
 40
0.0
 40
0.2591890819
 40
0.5120645469
 40
0.7588903249
 40
1.0
 40
1.0
 40
1.0
 40
1.0
 10
8.503491162
 20
15.9044951698
 30
0.0
 10
8.2597885721
 20
15.9671382977
 30
0.0
 10
7.7751456523
 20
16.0789676355
 30
0.0
 10
7.0491755477
 20
16.2065408384
 30
0.0
 10
6.334657234
 20
16.2915751171
 30
0.0
 10
5.8614888089
 20
16.3201146054
 30
0.0
 10
5.6275169889
 20
16.3270018922
 30
0.0
  0
SPLINE
  5
25E
100
AcDbEntity
  8
0
100
AcDbSpline
 62
7
  6
BYLAYER
 70
0
 71
3
 72
11
 73
7
 74
0
 42
0.0000001
 43
0.0000001
 44
0.0000000001
 40
0.0
 40
0.0
 40
0.0
 40
0.0
 40
0.2570674278
 40
0.5090525092
 40
0.7564951845
 40
1.0
 40
1.0
 40
1.0
 40
1.0
 10
4.6552492128
 20
15.7656661807
 30
0.0
 10
4.4345531101
 20
15.7721626783
 30
0.0
 10
3.9970277939
 20
15.7723201406
 30
0.0
 10
3.3480784639
 20
15.7327508148
 30
0.0
 10
2.7145043263
 20
15.6534136538
 30
0.0
 10
2.3000965882
 20
15.5735106387
 30
0.0
 10
2.0962090577
 20
15.5269203913
 30
0.0
  0
ENDSEC
  0
SECTION
  2
OBJECTS
  0
DICTIONARY
  5
C
100
AcDbDictionary
280
0
281
1
  3
ACAD_GROUP
350
D
  3
ACAD_MLINESTYLE
350
17
  3
ACAD_LAYOUT
350
1A
  3
ACAD_PLOTSETTINGS
350
19
  3
ACAD_PLOTSTYLENAME
350
E
  0
DICTIONARY
  5
D
102
{ACAD_REACTORS
330
C
102
}
100
AcDbDictionary
280
0
281
1
  0
ACDBDICTIONARYWDFLT
  5
E
102
{ACAD_REACTORS
330
C
102
}
100
AcDbDictionary
281
1
  3
Normal
350
F
100
AcDbDictionaryWithDefault
340
F
  0
DICTIONARY
  5
17
102
{ACAD_REACTORS
330
C
102
}
100
AcDbDictionary
280
0
281
1
  3
Standard
350
18
  0
DICTIONARY
  5
19
102
{ACAD_REACTORS
330
C
102
}
100
AcDbDictionary
281
1
  0
DICTIONARY
  5
1A
102
{ACAD_REACTORS
330
C
102
}
100
AcDbDictionary
281
1
  3
Model
350
25F
  3
Layout1
350
260
  0
ACDBPLACEHOLDER
  5
F
102
{ACAD_REACTORS
330
E
102
}
  0
MLINESTYLE
  5
18
102
{ACAD_REACTORS
330
17
102
}
100
AcDbMlineStyle
  2
STANDARD
 70
0
  3

 62
256
 51
90.0
 52
90.0
 71
2
 49
0.5
 62
256
  6
BYLAYER
 49
-0.5
 62
256
  6
BYLAYER
  0
LAYOUT
  5
25F
102
{ACAD_REACTORS
330
1A
102
}
100
AcDbPlotSettings
  1

  2
none_device
  4

  6

 40
0.0
 41
0.0
 42
0.0
 43
0.0
 44
210.0
 45
297.0
 46
0.0
 47
0.0
 48
0.0
 49
0.0
140
0.0
141
0.0
142
1.0
143
1.0
 70
1024
 72
1
 73
0
 74
0
  7

 75
0
147
1.0
148
0.0
149
0.0
100
AcDbLayout
  1
Model
 70
0
 71
0
 10
0.0
 20
0.0
 11
210.0
 21
297.0
 12
0.0
 22
0.0
 32
0.0
 14
0.0
 24
0.0
 34
0.0
 15
0.0
 25
0.0
 35
0.0
146
0.0
 13
0.0
 23
0.0
 33
0.0
 16
1.0
 26
0.0
 36
0.0
 17
0.0
 27
1.0
 37
0.0
 76
0
330
210
345
0
346
0
  0
LAYOUT
  5
260
102
{ACAD_REACTORS
330
1A
102
}
100
AcDbPlotSettings
  1

  2
none_device
  4

  6

 40
0.0
 41
0.0
 42
0.0
 43
0.0
 44
210.0
 45
297.0
 46
0.0
 47
0.0
 48
0.0
 49
0.0
140
0.0
141
0.0
142
1.0
143
1.0
 70
0
 72
1
 73
0
 74
0
  7

 75
0
147
1.0
148
0.0
149
0.0
100
AcDbLayout
  1
Layout1
 70
0
 71
1
 10
0.0
 20
0.0
 11
210.0
 21
297.0
 12
0.0
 22
0.0
 32
0.0
 14
0.0
 24
0.0
 34
0.0
 15
0.0
 25
0.0
 35
0.0
146
0.0
 13
0.0
 23
0.0
 33
0.0
 16
1.0
 26
0.0
 36
0.0
 17
0.0
 27
1.0
 37
0.0
 76
0
330
211
345
0
346
0
  0
ENDSEC
  0
EOF
