999
DXF file: C:\Users\sesa63760\Dev\_Creo\CAD\MCADUE0002364_3D-CAD\drw0001_5.dxf
999
Pro/ENGINEER 2019471 by Parametric Technology Corporation
  0
SECTION
  2
HEADER
  9
$ACADVER
  1
AC1024
  9
$DWGCODEPAGE
  3
ANSI_1252
  9
$EXTMAX
 10
48.8414759843
 20
69.0758017493
 30
0.0
  9
$EXTMIN
 10
0.0
 20
0.0
 30
0.0
  9
$LIMMIN
 10
0.0
 20
0.0
  9
$LIMMAX
 10
48.8414759843
 20
69.0758017493
  9
$VIEWCTR
 10
24.4207379922
 20
34.5379008746
  9
$VIEWSIZE
 40
69.0758017493
  9
$CLAYER
  8
0
  9
$LTSCALE
 40
4.5027189288
  9
$CELTYPE
  6
BYLAYER
  9
$DIMSCALE
 40
1.0
  9
$DIMASZ
 40
0.5814461427
  9
$DIMEXO
 40
1.0
  9
$DIMDLI
 40
3.1109694417
  9
$DIMEXE
 40
1.0
  9
$DIMCEN
 40
0.736808552
  9
$DIMLFAC
 40
1.0
  9
$DIMBLK
  1
_FILLED
  9
$DIMALT
 70
0
  9
$DIMALTF
 40
0.0393700787
  9
$DIMTXT
 40
0.8140245997
  9
$DIMTOL
 70
1
  9
$DIMLIM
 70
0
  9
$DIMTFAC
 40
1.0
  9
$DIMTP
 40
0.01
  9
$DIMTM
 40
0.01
  9
$DIMGAP
 40
0.625
  9
$DIMDSEP
 70
46
  9
$AUNITS
 70
0
  9
$PDMODE
 70
3
  9
$PDSIZE
 40
0.3125
  9
$HANDSEED
  5
2D3
  9
$TILEMODE
 70
1
  9
$MEASUREMENT
 70
1
  9
$INSUNITS
 70
4
  0
ENDSEC
  0
SECTION
  2
CLASSES
  0
CLASS
  1
ACDBDICTIONARYWDFLT
  2
AcDbDictionaryWithDefault
  3
AutoCAD 2000
 90
0
 91
1
280
0
281
0
  0
CLASS
  1
ACDBPLACEHOLDER
  2
AcDbPlaceHolder
  3
AutoCAD 2000
 90
0
 91
1
280
0
281
0
  0
CLASS
  1
LAYOUT
  2
AcDbLayout
  3
AutoCAD 2000
 90
0
 91
0
280
0
281
0
  0
ENDSEC
  0
SECTION
  2
TABLES
  0
TABLE
  2
VPORT
  5
8
100
AcDbSymbolTable
 70
2
  0
VPORT
  5
1F4
100
AcDbSymbolTableRecord
100
AcDbViewportTableRecord
  2
*ACTIVE
 70
0
 10
0.0
 20
0.0
 11
1.0
 21
1.0
 12
24.4207379922
 22
34.5379008746
 13
0.0
 23
0.0
 14
1.0
 24
1.0
 15
0.0
 25
0.0
 16
0.0
 26
0.0
 36
1.0
 17
0.0
 27
0.0
 37
0.0
 40
69.0758017493
 41
0.7070707071
 42
50.0
 43
0.0
 44
0.0
 50
0.0
 51
0.0
 71
0
 72
100
 73
1
 74
1
 75
0
 76
0
 77
0
 78
0
  0
ENDTAB
  0
TABLE
  2
LTYPE
  5
5
100
AcDbSymbolTable
 70
6
  0
LTYPE
  5
14
100
AcDbSymbolTableRecord
100
AcDbLinetypeTableRecord
  2
BYBLOCK
 70
0
  3

 72
65
 73
0
 40
0.0
  0
LTYPE
  5
15
100
AcDbSymbolTableRecord
100
AcDbLinetypeTableRecord
  2
BYLAYER
 70
0
  3

 72
65
 73
0
 40
0.0
  0
LTYPE
  5
16
100
AcDbSymbolTableRecord
100
AcDbLinetypeTableRecord
  2
CONTINUOUS
 70
64
  3
Solid line
 72
65
 73
0
 40
0.0
  0
LTYPE
  5
1F5
100
AcDbSymbolTableRecord
100
AcDbLinetypeTableRecord
  2
CENTER
 70
64
  3
____ _ ____ _ ____ _ ____ _ ____ _ ____ _ ____
 72
65
 73
4
 40
0.6
 49
0.375
 74
0
 49
-0.075
 74
0
 49
0.075
 74
0
 49
-0.075
 74
0
  0
LTYPE
  5
1F6
100
AcDbSymbolTableRecord
100
AcDbLinetypeTableRecord
  2
HIDDEN
 70
64
  3
- - - - - - - - - - - - - - - - - - - -
 72
65
 73
2
 40
0.2
 49
0.1
 74
0
 49
-0.1
 74
0
  0
LTYPE
  5
1F7
100
AcDbSymbolTableRecord
100
AcDbLinetypeTableRecord
  2
PHANTOM
 70
64
  3
_____ _ _ _____ _ _ _____ _ _ _____
 72
65
 73
6
 40
0.8
 49
0.45
 74
0
 49
-0.05
 74
0
 49
0.1
 74
0
 49
-0.05
 74
0
 49
0.1
 74
0
 49
-0.05
 74
0
  0
LTYPE
  5
1F8
100
AcDbSymbolTableRecord
100
AcDbLinetypeTableRecord
  2
DOT
 70
64
  3
. . . . . . . . . . . . . . . . . . . .
 72
65
 73
2
 40
0.2
 49
0.1
 74
0
 49
-0.1
 74
0
  0
LTYPE
  5
1F9
100
AcDbSymbolTableRecord
100
AcDbLinetypeTableRecord
  2
DASHED
 70
64
  3
- - - - - - - - - - - - - - - - - - - -
 72
65
 73
2
 40
0.2
 49
0.1
 74
0
 49
-0.1
 74
0
  0
ENDTAB
  0
TABLE
  2
LAYER
  5
2
100
AcDbSymbolTable
 70
36
  0
LAYER
  5
10
100
AcDbSymbolTableRecord
100
AcDbLayerTableRecord
  2
0
 70
0
 62
7
  6
CONTINUOUS
370
-3
390
F
  0
LAYER
  5
1FA
100
AcDbSymbolTableRecord
100
AcDbLayerTableRecord
  2
DEFAULT_1
 70
0
 62
7
  6
CENTER
370
-3
390
F
  0
LAYER
  5
1FB
100
AcDbSymbolTableRecord
100
AcDbLayerTableRecord
  2
DEFAULT_2
 70
0
 62
8
  6
HIDDEN
370
-3
390
F
  0
LAYER
  5
1FC
100
AcDbSymbolTableRecord
100
AcDbLayerTableRecord
  2
DEFAULT_3
 70
0
 62
7
  6
PHANTOM
370
-3
390
F
  0
LAYER
  5
1FD
100
AcDbSymbolTableRecord
100
AcDbLayerTableRecord
  2
00_COMPONENTS
 70
0
 62
7
  6
CONTINUOUS
370
-3
390
F
  0
LAYER
  5
1FE
100
AcDbSymbolTableRecord
100
AcDbLayerTableRecord
  2
01_1_DEFAULT_DATUMS
 70
0
 62
7
  6
CONTINUOUS
370
-3
390
F
  0
LAYER
  5
1FF
100
AcDbSymbolTableRecord
100
AcDbLayerTableRecord
  2
01_PLANES
 70
0
 62
7
  6
CONTINUOUS
370
-3
390
F
  0
LAYER
  5
200
100
AcDbSymbolTableRecord
100
AcDbLayerTableRecord
  2
02_COORD_SYS
 70
0
 62
7
  6
CONTINUOUS
370
-3
390
F
  0
LAYER
  5
201
100
AcDbSymbolTableRecord
100
AcDbLayerTableRecord
  2
03_AXES
 70
0
 62
7
  6
CONTINUOUS
370
-3
390
F
  0
LAYER
  5
202
100
AcDbSymbolTableRecord
100
AcDbLayerTableRecord
  2
04_POINTS
 70
0
 62
7
  6
CONTINUOUS
370
-3
390
F
  0
LAYER
  5
203
100
AcDbSymbolTableRecord
100
AcDbLayerTableRecord
  2
05_CURVES
 70
0
 62
7
  6
CONTINUOUS
370
-3
390
F
  0
LAYER
  5
204
100
AcDbSymbolTableRecord
100
AcDbLayerTableRecord
  2
06_SURFS
 70
0
 62
7
  6
CONTINUOUS
370
-3
390
F
  0
LAYER
  5
205
100
AcDbSymbolTableRecord
100
AcDbLayerTableRecord
  2
07_COSMETICS
 70
0
 62
7
  6
CONTINUOUS
370
-3
390
F
  0
LAYER
  5
206
100
AcDbSymbolTableRecord
100
AcDbLayerTableRecord
  2
10_NOTES
 70
0
 62
7
  6
CONTINUOUS
370
-3
390
F
  0
LAYER
  5
207
100
AcDbSymbolTableRecord
100
AcDbLayerTableRecord
  2
11_NOTES_PUB
 70
0
 62
7
  6
CONTINUOUS
370
-3
390
F
  0
LAYER
  5
208
100
AcDbSymbolTableRecord
100
AcDbLayerTableRecord
  2
13_REF_GTOL
 70
0
 62
7
  6
CONTINUOUS
370
-3
390
F
  0
LAYER
  5
209
100
AcDbSymbolTableRecord
100
AcDbLayerTableRecord
  2
16_MISC
 70
0
 62
7
  6
CONTINUOUS
370
-3
390
F
  0
LAYER
  5
20A
100
AcDbSymbolTableRecord
100
AcDbLayerTableRecord
  2
17_NO_PRINT
 70
0
 62
7
  6
CONTINUOUS
370
-3
390
F
  0
LAYER
  5
20B
100
AcDbSymbolTableRecord
100
AcDbLayerTableRecord
  2
18_DATUM_CAMS_JOINTS
 70
0
 62
7
  6
CONTINUOUS
370
-3
390
F
  0
LAYER
  5
20C
100
AcDbSymbolTableRecord
100
AcDbLayerTableRecord
  2
19_DATUM_FUNCTIONAL
 70
0
 62
7
  6
CONTINUOUS
370
-3
390
F
  0
LAYER
  5
20D
100
AcDbSymbolTableRecord
100
AcDbLayerTableRecord
  2
20_DATUM_KINEMATIC_SCHEME
 70
0
 62
7
  6
CONTINUOUS
370
-3
390
F
  0
ENDTAB
  0
TABLE
  2
STYLE
  5
3
100
AcDbSymbolTable
 70
1
  0
STYLE
  5
11
100
AcDbSymbolTableRecord
100
AcDbTextStyleTableRecord
  2
STANDARD
 70
0
 40
0.0
 41
0.8
 50
0.0
 71
0
 42
0.2
  3
txt
  4

  0
STYLE
  5
20E
100
AcDbSymbolTableRecord
100
AcDbTextStyleTableRecord
  2
TEXTSTYLE_1
 70
0
 40
0.0
 41
0.8
 50
0.0
 71
0
 42
0.2
  3
gdt
  4

  0
ENDTAB
  0
TABLE
  2
VIEW
  5
6
100
AcDbSymbolTable
 70
0
  0
ENDTAB
  0
TABLE
  2
UCS
  5
7
100
AcDbSymbolTable
 70
0
  0
ENDTAB
  0
TABLE
  2
APPID
  5
9
100
AcDbSymbolTable
 70
1
  0
APPID
  5
20F
100
AcDbSymbolTableRecord
100
AcDbRegAppTableRecord
  2
ACAD
 70
0
  0
ENDTAB
  0
TABLE
  2
BLOCK_RECORD
  5
1
100
AcDbSymbolTable
 70
0
  0
BLOCK_RECORD
  5
210
100
AcDbSymbolTableRecord
100
AcDbBlockTableRecord
  2
*Model_Space
  0
BLOCK_RECORD
  5
211
100
AcDbSymbolTableRecord
100
AcDbBlockTableRecord
  2
*Paper_Space
  0
BLOCK_RECORD
  5
212
100
AcDbSymbolTableRecord
100
AcDbBlockTableRecord
  2
_FILLED
  0
ENDTAB
  0
TABLE
  2
DIMSTYLE
  5
A
100
AcDbSymbolTable
 70
1
100
AcDbDimStyleTable
 71
0
  0
DIMSTYLE
105
213
100
AcDbSymbolTableRecord
100
AcDbDimStyleTableRecord
  2
STANDARD
 70
0
  3

  4

 40
1.0
 41
0.5814461427
 42
1.0
 43
0.38
 44
1.0
 45
0.0
 46
0.0
 47
0.01
 48
0.01
140
0.8140245997
141
0.09
142
0.0
143
25.4
144
1.0
145
0.0
146
1.0
147
0.625
 71
1
 72
0
 73
0
 74
0
 75
0
 76
0
 77
1
 78
8
 79
2
170
0
171
1
172
0
173
0
174
0
175
0
176
0
177
0
178
0
270
2
179
2
271
2
272
2
273
2
274
2
275
0
280
0
281
0
282
0
283
1
284
8
285
0
286
0
287
3
288
0
340
11
278
46
341
212
342
212
343
212
344
212
  0
ENDTAB
  0
ENDSEC
  0
SECTION
  2
BLOCKS
  0
BLOCK
  5
20
100
AcDbEntity
  8
0
100
AcDbBlockBegin
  2
*Model_Space
 70
0
 10
0.0
 20
0.0
 30
0.0
  3
*Model_Space
  1

  0
ENDBLK
  5
21
100
AcDbEntity
  8
0
100
AcDbBlockEnd
  0
BLOCK
  5
1C
100
AcDbEntity
  8
0
100
AcDbBlockBegin
  2
*Paper_Space
 70
0
 10
0.0
 20
0.0
 30
0.0
  3
*Paper_Space
  1

  0
ENDBLK
  5
1D
100
AcDbEntity
  8
0
100
AcDbBlockEnd
  0
BLOCK
  5
214
100
AcDbEntity
  8
0
100
AcDbBlockBegin
  2
_FILLED
 70
64
 10
0.0
 20
0.0
  3
_FILLED
  1

  0
SOLID
  5
215
100
AcDbEntity
  8
0
  6
BYBLOCK
 62
0
100
AcDbTrace
 10
0.0
 20
0.0
 11
-1.0
 21
0.25
 12
-1.0
 22
-0.25
 13
-1.0
 23
-0.25
  0
ENDBLK
  5
216
100
AcDbEntity
  8
0
  6
BYBLOCK
 62
0
100
AcDbBlockEnd
  0
ENDSEC
  0
SECTION
  2
ENTITIES
  0
LINE
  5
217
100
AcDbEntity
  8
0
100
AcDbLine
 62
7
  6
CONTINUOUS
 10
8.8435197115
 20
59.2686246831
 11
8.8462087386
 21
59.2708707597
  0
LINE
  5
218
100
AcDbEntity
  8
0
100
AcDbLine
 62
7
  6
CONTINUOUS
 10
10.3442245238
 20
59.2698338769
 11
10.3475254053
 21
59.2718585503
  0
LINE
  5
219
100
AcDbEntity
  8
0
100
AcDbLine
 62
7
  6
CONTINUOUS
 10
40.0983125923
 20
5.6224489796
 11
32.5983125923
 21
5.6224489796
  0
LINE
  5
21A
100
AcDbEntity
  8
0
100
AcDbLine
 62
7
  6
CONTINUOUS
 10
34.0983125923
 20
5.9097558372
 11
40.0983125923
 21
5.9097558372
  0
LINE
  5
21B
100
AcDbEntity
  8
0
100
AcDbLine
 62
7
  6
CONTINUOUS
 10
9.5949048199
 20
9.9744669319
 11
9.5980842984
 21
9.9726202033
  0
LINE
  5
21C
100
AcDbEntity
  8
0
100
AcDbLine
 62
7
  6
CONTINUOUS
 10
10.3445767816
 20
59.2693641793
 11
9.593785147
 21
58.2683989503
  0
LINE
  5
21D
100
AcDbEntity
  8
0
100
AcDbLine
 62
7
  6
CONTINUOUS
 10
8.8439705847
 20
59.2680235793
 11
8.5983125923
 21
58.940516873
  0
LINE
  5
21E
100
AcDbEntity
  8
0
100
AcDbLine
 62
7
  6
CONTINUOUS
 10
11.8429872601
 20
59.2683738645
 11
11.8458510289
 21
59.2706024175
  0
LINE
  5
21F
100
AcDbEntity
  8
0
100
AcDbLine
 62
7
  6
CONTINUOUS
 10
13.3448394962
 20
59.2693246329
 11
13.3478614178
 21
59.2713814171
  0
LINE
  5
220
100
AcDbEntity
  8
0
100
AcDbLine
 62
7
  6
CONTINUOUS
 10
14.0948877103
 20
9.9749583509
 11
14.0978649052
 21
9.9731980835
  0
LINE
  5
221
100
AcDbEntity
  8
0
100
AcDbLine
 62
7
  6
CONTINUOUS
 10
12.5946780762
 20
9.9740696545
 11
12.597840477
 21
9.9719697227
  0
LINE
  5
222
100
AcDbEntity
  8
0
100
AcDbLine
 62
7
  6
CONTINUOUS
 10
11.0925801474
 20
9.9765726245
 11
11.0956987592
 21
9.974409787
  0
LINE
  5
223
100
AcDbEntity
  8
0
100
AcDbLine
 62
7
  6
CONTINUOUS
 10
8.8429457783
 20
10.9776306958
 11
9.5951483316
 21
9.9747916503
  0
LINE
  5
224
100
AcDbEntity
  8
0
100
AcDbLine
 62
7
  6
CONTINUOUS
 10
11.843538422
 20
59.2676390715
 11
11.0944660559
 21
58.2689861111
  0
LINE
  5
225
100
AcDbEntity
  8
0
100
AcDbLine
 62
7
  6
CONTINUOUS
 10
13.3488019875
 20
59.2721326401
 11
12.5935816653
 21
58.2678440367
  0
LINE
  5
226
100
AcDbEntity
  8
0
100
AcDbLine
 62
7
  6
CONTINUOUS
 10
14.8448085003
 20
59.271084826
 11
14.8478327711
 21
59.2730887411
  0
LINE
  5
227
100
AcDbEntity
  8
0
100
AcDbLine
 62
7
  6
CONTINUOUS
 10
16.3448025399
 20
59.2695166705
 11
16.3478431743
 21
59.2714095655
  0
LINE
  5
228
100
AcDbEntity
  8
0
100
AcDbLine
 62
7
  6
CONTINUOUS
 10
34.0983125923
 20
8.999925781
 11
40.0983125923
 21
8.999925781
  0
LINE
  5
229
100
AcDbEntity
  8
0
100
AcDbLine
 62
7
  6
CONTINUOUS
 10
17.09484919
 20
9.9737801305
 11
17.0978270659
 21
9.9719488538
  0
LINE
  5
22A
100
AcDbEntity
  8
0
100
AcDbLine
 62
7
  6
CONTINUOUS
 10
15.5946472004
 20
9.9755717844
 11
15.5978607576
 21
9.9731980545
  0
LINE
  5
22B
100
AcDbEntity
  8
0
100
AcDbLine
 62
7
  6
CONTINUOUS
 10
10.3452895728
 20
10.9749945508
 11
11.0933854694
 21
9.9776462499
  0
LINE
  5
22C
100
AcDbEntity
  8
0
100
AcDbLine
 62
7
  6
CONTINUOUS
 10
11.8430471628
 20
10.9773285307
 11
12.5951175433
 21
9.9746556668
  0
LINE
  5
22D
100
AcDbEntity
  8
0
100
AcDbLine
 62
7
  6
CONTINUOUS
 10
14.8459365553
 20
59.2695806
 11
14.0951563127
 21
58.2686954493
  0
LINE
  5
22E
100
AcDbEntity
  8
0
100
AcDbLine
 62
7
  6
CONTINUOUS
 10
17.8446661054
 20
59.2697350878
 11
17.8478475444
 21
59.2721001794
  0
LINE
  5
22F
100
AcDbEntity
  8
0
100
AcDbLine
 62
7
  6
CONTINUOUS
 10
19.3449086699
 20
59.2694155308
 11
19.3478614178
 21
59.2713814171
  0
LINE
  5
230
100
AcDbEntity
  8
0
100
AcDbLine
 62
7
  6
CONTINUOUS
 10
20.8448085003
 20
59.271084826
 11
20.8478327711
 21
59.2730887411
  0
LINE
  5
231
100
AcDbEntity
  8
0
100
AcDbLine
 62
7
  6
CONTINUOUS
 10
22.3448025399
 20
59.2695166705
 11
22.3478431743
 21
59.2714095655
  0
LINE
  5
232
100
AcDbEntity
  8
0
100
AcDbLine
 62
7
  6
CONTINUOUS
 10
20.0948877103
 20
9.9749583509
 11
20.0978649052
 21
9.9731980835
  0
LINE
  5
233
100
AcDbEntity
  8
0
100
AcDbLine
 62
7
  6
CONTINUOUS
 10
23.09484919
 20
9.9737801305
 11
23.0978270659
 21
9.9719488538
  0
LINE
  5
234
100
AcDbEntity
  8
0
100
AcDbLine
 62
7
  6
CONTINUOUS
 10
18.5946306656
 20
9.9741329373
 11
18.597840477
 21
9.9719697227
  0
LINE
  5
235
100
AcDbEntity
  8
0
100
AcDbLine
 62
7
  6
CONTINUOUS
 10
13.3452043169
 20
10.9747179681
 11
14.0949904655
 21
9.975095367
  0
LINE
  5
236
100
AcDbEntity
  8
0
100
AcDbLine
 62
7
  6
CONTINUOUS
 10
14.844974483
 20
10.9758886148
 11
15.5949828069
 21
9.9760192743
  0
LINE
  5
237
100
AcDbEntity
  8
0
100
AcDbLine
 62
7
  6
CONTINUOUS
 10
16.3446972021
 20
59.2696571278
 11
15.5951397714
 21
58.2703330103
  0
LINE
  5
238
100
AcDbEntity
  8
0
100
AcDbLine
 62
7
  6
CONTINUOUS
 10
17.8452829223
 20
59.2689126282
 11
17.0950051812
 21
58.2686973044
  0
LINE
  5
239
100
AcDbEntity
  8
0
100
AcDbLine
 62
7
  6
CONTINUOUS
 10
23.8446661054
 20
59.2697350877
 11
23.8478475444
 21
59.2721001794
  0
LINE
  5
23A
100
AcDbEntity
  8
0
100
AcDbLine
 62
7
  6
CONTINUOUS
 10
25.3449086699
 20
59.2694155308
 11
25.3478614178
 21
59.2713814171
  0
LINE
  5
23B
100
AcDbEntity
  8
0
100
AcDbLine
 62
7
  6
CONTINUOUS
 10
34.0983125923
 20
13.7868587653
 11
40.0983125923
 21
13.7868587653
  0
LINE
  5
23C
100
AcDbEntity
  8
0
100
AcDbLine
 62
7
  6
CONTINUOUS
 10
26.0948877103
 20
9.9749583509
 11
26.0978649052
 21
9.9731980835
  0
LINE
  5
23D
100
AcDbEntity
  8
0
100
AcDbLine
 62
7
  6
CONTINUOUS
 10
24.5946306656
 20
9.9741329373
 11
24.597840477
 21
9.9719697227
  0
LINE
  5
23E
100
AcDbEntity
  8
0
100
AcDbLine
 62
7
  6
CONTINUOUS
 10
21.5946472004
 20
9.9755717844
 11
21.5978607576
 21
9.9731980545
  0
LINE
  5
23F
100
AcDbEntity
  8
0
100
AcDbLine
 62
7
  6
CONTINUOUS
 10
16.3452001212
 20
10.9758916858
 11
17.0958696844
 21
9.9751409369
  0
LINE
  5
240
100
AcDbEntity
  8
0
100
AcDbLine
 62
7
  6
CONTINUOUS
 10
17.845046782
 20
10.9747114751
 11
18.5950901673
 21
9.9747456642
  0
LINE
  5
241
100
AcDbEntity
  8
0
100
AcDbLine
 62
7
  6
CONTINUOUS
 10
19.3488019875
 20
59.2721326401
 11
18.5952288257
 21
58.2693810527
  0
LINE
  5
242
100
AcDbEntity
  8
0
100
AcDbLine
 62
7
  6
CONTINUOUS
 10
20.8459365553
 20
59.2695806
 11
20.0951563127
 21
58.2686954493
  0
LINE
  5
243
100
AcDbEntity
  8
0
100
AcDbLine
 62
7
  6
CONTINUOUS
 10
26.8448085003
 20
59.271084826
 11
26.8478327711
 21
59.2730887411
  0
LINE
  5
244
100
AcDbEntity
  8
0
100
AcDbLine
 62
7
  6
CONTINUOUS
 10
28.3448025399
 20
59.2695166705
 11
28.3478431743
 21
59.2714095655
  0
LINE
  5
245
100
AcDbEntity
  8
0
100
AcDbLine
 62
7
  6
CONTINUOUS
 10
29.09484919
 20
9.9737801305
 11
29.0978270659
 21
9.9719488538
  0
LINE
  5
246
100
AcDbEntity
  8
0
100
AcDbLine
 62
7
  6
CONTINUOUS
 10
27.5946472004
 20
9.9755717844
 11
27.5978607576
 21
9.9731980545
  0
LINE
  5
247
100
AcDbEntity
  8
0
100
AcDbLine
 62
7
  6
CONTINUOUS
 10
19.3452043169
 20
10.9747179681
 11
20.0949904655
 21
9.975095367
  0
LINE
  5
248
100
AcDbEntity
  8
0
100
AcDbLine
 62
7
  6
CONTINUOUS
 10
20.844974483
 20
10.9758886148
 11
21.5949828069
 21
9.9760192743
  0
LINE
  5
249
100
AcDbEntity
  8
0
100
AcDbLine
 62
7
  6
CONTINUOUS
 10
8.5983125923
 20
10.6426990482
 11
8.5983125923
 21
58.9432981253
  0
LINE
  5
24A
100
AcDbEntity
  8
0
100
AcDbLine
 62
7
  6
CONTINUOUS
 10
22.3446972021
 20
59.2696571277
 11
21.5951397714
 21
58.2703330103
  0
LINE
  5
24B
100
AcDbEntity
  8
0
100
AcDbLine
 62
7
  6
CONTINUOUS
 10
23.8452829223
 20
59.2689126282
 11
23.0950051812
 21
58.2686973044
  0
LINE
  5
24C
100
AcDbEntity
  8
0
100
AcDbLine
 62
7
  6
CONTINUOUS
 10
22.3452001213
 20
10.9758916858
 11
23.0958696844
 21
9.9751409369
  0
LINE
  5
24D
100
AcDbEntity
  8
0
100
AcDbLine
 62
7
  6
CONTINUOUS
 10
25.3488019875
 20
59.2721326401
 11
24.5952288257
 21
58.2693810527
  0
LINE
  5
24E
100
AcDbEntity
  8
0
100
AcDbLine
 62
7
  6
CONTINUOUS
 10
26.8459365553
 20
59.2695806
 11
26.0951563127
 21
58.2686954493
  0
LINE
  5
24F
100
AcDbEntity
  8
0
100
AcDbLine
 62
7
  6
CONTINUOUS
 10
23.845046782
 20
10.9747114751
 11
24.5950901673
 21
9.9747456642
  0
LINE
  5
250
100
AcDbEntity
  8
0
100
AcDbLine
 62
7
  6
CONTINUOUS
 10
25.3452043169
 20
10.9747179681
 11
26.0949904655
 21
9.975095367
  0
LINE
  5
251
100
AcDbEntity
  8
0
100
AcDbLine
 62
7
  6
CONTINUOUS
 10
28.3446972021
 20
59.2696571278
 11
27.5951397714
 21
58.2703330103
  0
LINE
  5
252
100
AcDbEntity
  8
0
100
AcDbLine
 62
7
  6
CONTINUOUS
 10
29.5983125923
 20
58.9396691119
 11
29.0950051812
 21
58.2686973044
  0
LINE
  5
253
100
AcDbEntity
  8
0
100
AcDbLine
 62
7
  6
CONTINUOUS
 10
34.0983125923
 20
21.8770287091
 11
40.0983125923
 21
21.8770287091
  0
LINE
  5
254
100
AcDbEntity
  8
0
100
AcDbLine
 62
7
  6
CONTINUOUS
 10
26.844974483
 20
10.9758886148
 11
27.5949828069
 21
9.9760192743
  0
LINE
  5
255
100
AcDbEntity
  8
0
100
AcDbLine
 62
7
  6
CONTINUOUS
 10
28.3452001212
 20
10.9758916858
 11
29.0958696844
 21
9.9751409369
  0
LINE
  5
256
100
AcDbEntity
  8
0
100
AcDbLine
 62
7
  6
CONTINUOUS
 10
34.0983125923
 20
29.6224489796
 11
40.0983125923
 21
29.6224489796
  0
LINE
  5
257
100
AcDbEntity
  8
0
100
AcDbLine
 62
7
  6
CONTINUOUS
 10
8.5983125923
 20
10.6426609155
 11
8.849670714
 21
10.9776942063
  0
LINE
  5
258
100
AcDbEntity
  8
0
100
AcDbLine
 62
7
  6
CONTINUOUS
 10
9.6010002575
 20
9.9747408907
 11
10.3512154776
 21
10.9749228244
  0
LINE
  5
259
100
AcDbEntity
  8
0
100
AcDbLine
 62
7
  6
CONTINUOUS
 10
9.5995729051
 20
58.268355715
 11
8.8496321786
 21
59.2680115958
  0
LWPOLYLINE
  5
25A
100
AcDbEntity
  8
0
100
AcDbPolyline
 62
7
  6
CONTINUOUS
 90
6
 70
0
 10
29.3969418046
 20
42.0170814602
 10
29.3259918207
 20
48.2710880178
 10
29.2556296713
 20
53.2938518667
 10
29.1848710888
 20
56.7185924299
 10
29.1142864227
 20
58.215355888
 10
29.1010187325
 20
58.2692955399
  0
LINE
  5
25B
100
AcDbEntity
  8
0
100
AcDbLine
 62
7
  6
CONTINUOUS
 10
29.5983125923
 20
22.8182924172
 11
29.5393891648
 21
28.1217943234
  0
LINE
  5
25C
100
AcDbEntity
  8
0
100
AcDbLine
 62
7
  6
CONTINUOUS
 10
29.5384292082
 20
28.2081968197
 11
29.3969418046
 21
42.0170814602
  0
LINE
  5
25D
100
AcDbEntity
  8
0
100
AcDbLine
 62
7
  6
CONTINUOUS
 10
29.5983125923
 20
8.4724489796
 11
29.5983125923
 21
60.7724489796
  0
LINE
  5
25E
100
AcDbEntity
  8
0
100
AcDbLine
 62
7
  6
CONTINUOUS
 10
11.0999046804
 20
9.9776762552
 11
11.849935383
 21
10.9774092014
  0
LINE
  5
25F
100
AcDbEntity
  8
0
100
AcDbLine
 62
7
  6
CONTINUOUS
 10
11.1016132981
 20
58.2690329612
 11
10.3512402187
 21
59.269378839
  0
LINE
  5
260
100
AcDbEntity
  8
0
100
AcDbLine
 62
7
  6
CONTINUOUS
 10
12.6013963588
 20
58.2693810527
 11
11.8510747463
 21
59.2696837761
  0
LINE
  5
261
100
AcDbEntity
  8
0
100
AcDbLine
 62
7
  6
CONTINUOUS
 10
12.6014605173
 20
9.9746463396
 11
13.3515784026
 21
10.9747114751
  0
LINE
  5
262
100
AcDbEntity
  8
0
100
AcDbLine
 62
7
  6
CONTINUOUS
 10
14.1007555001
 20
9.9751409369
 11
14.8514250633
 21
10.9758916858
  0
LINE
  5
263
100
AcDbEntity
  8
0
100
AcDbLine
 62
7
  6
CONTINUOUS
 10
34.0983125923
 20
39.6224489796
 11
40.0983125923
 21
39.6224489796
  0
LINE
  5
264
100
AcDbEntity
  8
0
100
AcDbLine
 62
7
  6
CONTINUOUS
 10
14.1016200033
 20
58.2686973044
 11
13.3513422622
 21
59.2689126282
  0
LINE
  5
265
100
AcDbEntity
  8
0
100
AcDbLine
 62
7
  6
CONTINUOUS
 10
15.6014854131
 20
58.2703330103
 11
14.8519279825
 21
59.2696571278
  0
LINE
  5
266
100
AcDbEntity
  8
0
100
AcDbLine
 62
7
  6
CONTINUOUS
 10
32.5983125923
 20
5.6224489796
 11
32.5983125923
 21
63.6224489796
  0
LINE
  5
267
100
AcDbEntity
  8
0
100
AcDbLine
 62
7
  6
CONTINUOUS
 10
34.0983125923
 20
63.3351421219
 11
34.0983125923
 21
60.2449721782
  0
LINE
  5
268
100
AcDbEntity
  8
0
100
AcDbLine
 62
7
  6
CONTINUOUS
 10
34.0983125923
 20
55.4580391939
 11
34.0983125923
 21
47.3678692501
  0
LINE
  5
269
100
AcDbEntity
  8
0
100
AcDbLine
 62
7
  6
CONTINUOUS
 10
34.0983125923
 20
39.6224489796
 11
34.0983125923
 21
29.6224489796
  0
LINE
  5
26A
100
AcDbEntity
  8
0
100
AcDbLine
 62
7
  6
CONTINUOUS
 10
34.0983125923
 20
21.8770287091
 11
34.0983125923
 21
13.7868587653
  0
LINE
  5
26B
100
AcDbEntity
  8
0
100
AcDbLine
 62
7
  6
CONTINUOUS
 10
34.0983125923
 20
8.999925781
 11
34.0983125923
 21
5.9097558372
  0
LINE
  5
26C
100
AcDbEntity
  8
0
100
AcDbLine
 62
7
  6
CONTINUOUS
 10
17.101634719
 20
9.975095367
 11
17.8514208676
 21
10.9747179681
  0
LINE
  5
26D
100
AcDbEntity
  8
0
100
AcDbLine
 62
7
  6
CONTINUOUS
 10
15.6016423776
 20
9.9760192743
 11
16.3516507015
 21
10.9758886148
  0
LINE
  5
26E
100
AcDbEntity
  8
0
100
AcDbLine
 62
7
  6
CONTINUOUS
 10
17.1014688718
 20
58.2686954493
 11
16.3506886292
 21
59.2695806
  0
LINE
  5
26F
100
AcDbEntity
  8
0
100
AcDbLine
 62
7
  6
CONTINUOUS
 10
18.6013963588
 20
58.2693810527
 11
17.8514962518
 21
59.2691218377
  0
LINE
  5
270
100
AcDbEntity
  8
0
100
AcDbLine
 62
7
  6
CONTINUOUS
 10
18.6015350173
 20
9.9747456642
 11
19.3515784026
 21
10.9747114751
  0
LINE
  5
271
100
AcDbEntity
  8
0
100
AcDbLine
 62
7
  6
CONTINUOUS
 10
20.1007555001
 20
9.9751409369
 11
20.8514250633
 21
10.9758916858
  0
LINE
  5
272
100
AcDbEntity
  8
0
100
AcDbLine
 62
7
  6
CONTINUOUS
 10
8.8462087386
 20
59.2708707597
 11
8.848871745
 21
59.2690252421
  0
LINE
  5
273
100
AcDbEntity
  8
0
100
AcDbLine
 62
7
  6
CONTINUOUS
 10
20.1016200033
 20
58.2686973044
 11
19.3513422622
 21
59.2689126282
  0
LINE
  5
274
100
AcDbEntity
  8
0
100
AcDbLine
 62
7
  6
CONTINUOUS
 10
21.6014854132
 20
58.2703330102
 11
20.8519279825
 21
59.2696571278
  0
LINE
  5
275
100
AcDbEntity
  8
0
100
AcDbLine
 62
7
  6
CONTINUOUS
 10
23.101634719
 20
9.975095367
 11
23.8514208676
 21
10.9747179681
  0
LINE
  5
276
100
AcDbEntity
  8
0
100
AcDbLine
 62
7
  6
CONTINUOUS
 10
21.6016423776
 20
9.9760192743
 11
22.3516507015
 21
10.9758886148
  0
LINE
  5
277
100
AcDbEntity
  8
0
100
AcDbLine
 62
7
  6
CONTINUOUS
 10
11.0956987592
 20
9.974409787
 11
11.0993029758
 21
9.9768742267
  0
LINE
  5
278
100
AcDbEntity
  8
0
100
AcDbLine
 62
7
  6
CONTINUOUS
 10
9.5980842984
 20
9.9726202033
 11
9.6006825234
 21
9.9743172882
  0
LINE
  5
279
100
AcDbEntity
  8
0
100
AcDbLine
 62
7
  6
CONTINUOUS
 10
34.0983125923
 20
47.3678692501
 11
40.0983125923
 21
47.3678692501
  0
LINE
  5
27A
100
AcDbEntity
  8
0
100
AcDbLine
 62
7
  6
CONTINUOUS
 10
10.3475254053
 20
59.2718585503
 11
10.3510366334
 21
59.2696502458
  0
LINE
  5
27B
100
AcDbEntity
  8
0
100
AcDbLine
 62
7
  6
CONTINUOUS
 10
11.8478511058
 20
59.2721028512
 11
11.8507169135
 21
59.2701608281
  0
LINE
  5
27C
100
AcDbEntity
  8
0
100
AcDbLine
 62
7
  6
CONTINUOUS
 10
23.1014688718
 20
58.2686954493
 11
22.3506886292
 21
59.2695806
  0
LINE
  5
27D
100
AcDbEntity
  8
0
100
AcDbLine
 62
7
  6
CONTINUOUS
 10
40.0983125923
 20
63.6224489796
 11
40.0983125923
 21
5.6224489796
  0
LINE
  5
27E
100
AcDbEntity
  8
0
100
AcDbLine
 62
7
  6
CONTINUOUS
 10
24.6015350173
 20
9.9747456642
 11
25.3515784026
 21
10.9747114751
  0
LINE
  5
27F
100
AcDbEntity
  8
0
100
AcDbLine
 62
7
  6
CONTINUOUS
 10
26.1007555001
 20
9.9751409369
 11
26.8514250633
 21
10.9758916858
  0
LINE
  5
280
100
AcDbEntity
  8
0
100
AcDbLine
 62
7
  6
CONTINUOUS
 10
14.0978649052
 20
9.9731980835
 11
14.100840391
 21
9.9752541091
  0
LINE
  5
281
100
AcDbEntity
  8
0
100
AcDbLine
 62
7
  6
CONTINUOUS
 10
17.0978270659
 20
9.9719488538
 11
17.1008047927
 21
9.9739888968
  0
LINE
  5
282
100
AcDbEntity
  8
0
100
AcDbLine
 62
7
  6
CONTINUOUS
 10
12.597840477
 20
9.9719697227
 11
12.6009784664
 21
9.9740036621
  0
LINE
  5
283
100
AcDbEntity
  8
0
100
AcDbLine
 62
7
  6
CONTINUOUS
 10
15.5978607576
 20
9.9731980545
 11
15.6010702576
 21
9.975256553
  0
LINE
  5
284
100
AcDbEntity
  8
0
100
AcDbLine
 62
7
  6
CONTINUOUS
 10
13.3478614178
 20
59.2713814171
 11
13.3510391886
 21
59.2693166652
  0
LINE
  5
285
100
AcDbEntity
  8
0
100
AcDbLine
 62
7
  6
CONTINUOUS
 10
14.8478327711
 20
59.2730887411
 11
14.8508769282
 21
59.271058418
  0
LINE
  5
286
100
AcDbEntity
  8
0
100
AcDbLine
 62
7
  6
CONTINUOUS
 10
16.3478431743
 20
59.2714095655
 11
16.3508666463
 21
59.2693432798
  0
LINE
  5
287
100
AcDbEntity
  8
0
100
AcDbLine
 62
7
  6
CONTINUOUS
 10
24.6013963588
 20
58.2693810527
 11
23.8514962518
 21
59.2691218377
  0
LINE
  5
288
100
AcDbEntity
  8
0
100
AcDbLine
 62
7
  6
CONTINUOUS
 10
26.1016200033
 20
58.2686973044
 11
25.3513422622
 21
59.2689126282
  0
LINE
  5
289
100
AcDbEntity
  8
0
100
AcDbLine
 62
7
  6
CONTINUOUS
 10
41.5983125923
 20
62.1224104803
 11
41.5983125923
 21
7.1224874789
  0
LINE
  5
28A
100
AcDbEntity
  8
0
100
AcDbLine
 62
7
  6
CONTINUOUS
 10
29.101634719
 20
9.975095367
 11
29.5983125923
 21
10.6372721631
  0
LINE
  5
28B
100
AcDbEntity
  8
0
100
AcDbLine
 62
7
  6
CONTINUOUS
 10
27.6016423776
 20
9.9760192743
 11
28.3516507015
 21
10.9758886148
  0
LINE
  5
28C
100
AcDbEntity
  8
0
100
AcDbLine
 62
7
  6
CONTINUOUS
 10
20.0978649052
 20
9.9731980835
 11
20.100840391
 21
9.9752541091
  0
LINE
  5
28D
100
AcDbEntity
  8
0
100
AcDbLine
 62
7
  6
CONTINUOUS
 10
18.597840477
 20
9.9719697227
 11
18.6009784855
 21
9.9740036875
  0
LINE
  5
28E
100
AcDbEntity
  8
0
100
AcDbLine
 62
7
  6
CONTINUOUS
 10
19.3478614178
 20
59.2713814171
 11
19.3510391886
 21
59.2693166652
  0
LINE
  5
28F
100
AcDbEntity
  8
0
100
AcDbLine
 62
7
  6
CONTINUOUS
 10
17.8478511059
 20
59.2721028512
 11
17.8507170206
 21
59.2701606854
  0
LINE
  5
290
100
AcDbEntity
  8
0
100
AcDbLine
 62
7
  6
CONTINUOUS
 10
27.6014854131
 20
58.2703330103
 11
26.8519279825
 21
59.2696571278
  0
LINE
  5
291
100
AcDbEntity
  8
0
100
AcDbLine
 62
7
  6
CONTINUOUS
 10
29.1014688718
 20
58.2686954493
 11
28.3506886292
 21
59.2695806
  0
LINE
  5
292
100
AcDbEntity
  8
0
100
AcDbLine
 62
7
  6
CONTINUOUS
 10
23.0978270659
 20
9.9719488538
 11
23.1008047927
 21
9.9739888968
  0
LINE
  5
293
100
AcDbEntity
  8
0
100
AcDbLine
 62
7
  6
CONTINUOUS
 10
21.5978607576
 20
9.9731980545
 11
21.6010702576
 21
9.975256553
  0
LINE
  5
294
100
AcDbEntity
  8
0
100
AcDbLine
 62
7
  6
CONTINUOUS
 10
20.8478327711
 20
59.2730887411
 11
20.8508769282
 21
59.271058418
  0
LINE
  5
295
100
AcDbEntity
  8
0
100
AcDbLine
 62
7
  6
CONTINUOUS
 10
23.8478511059
 20
59.2721028512
 11
23.8507170206
 21
59.2701606854
  0
LINE
  5
296
100
AcDbEntity
  8
0
100
AcDbLine
 62
7
  6
CONTINUOUS
 10
22.3478431743
 20
59.2714095655
 11
22.3508666463
 21
59.2693432798
  0
LINE
  5
297
100
AcDbEntity
  8
0
100
AcDbLine
 62
7
  6
CONTINUOUS
 10
26.0978649052
 20
9.9731980835
 11
26.1008403909
 21
9.9752541091
  0
LINE
  5
298
100
AcDbEntity
  8
0
100
AcDbLine
 62
7
  6
CONTINUOUS
 10
24.597840477
 20
9.9719697227
 11
24.6009784855
 21
9.9740036875
  0
LINE
  5
299
100
AcDbEntity
  8
0
100
AcDbLine
 62
7
  6
CONTINUOUS
 10
27.5978607576
 20
9.9731980545
 11
27.6010702576
 21
9.975256553
  0
LINE
  5
29A
100
AcDbEntity
  8
0
100
AcDbLine
 62
7
  6
CONTINUOUS
 10
34.0983125923
 20
55.4580391939
 11
40.0983125923
 21
55.4580391939
  0
LINE
  5
29B
100
AcDbEntity
  8
0
100
AcDbLine
 62
7
  6
CONTINUOUS
 10
25.3478614178
 20
59.2713814171
 11
25.3510391886
 21
59.2693166652
  0
LINE
  5
29C
100
AcDbEntity
  8
0
100
AcDbLine
 62
7
  6
CONTINUOUS
 10
26.8478327711
 20
59.2730887411
 11
26.8508769282
 21
59.271058418
  0
LINE
  5
29D
100
AcDbEntity
  8
0
100
AcDbLine
 62
7
  6
CONTINUOUS
 10
28.3478431743
 20
59.2714095655
 11
28.3508666463
 21
59.2693432798
  0
LINE
  5
29E
100
AcDbEntity
  8
0
100
AcDbLine
 62
7
  6
CONTINUOUS
 10
29.0978270659
 20
9.9719488538
 11
29.1008047927
 21
9.9739888968
  0
LINE
  5
29F
100
AcDbEntity
  8
0
100
AcDbLine
 62
7
  6
CONTINUOUS
 10
34.0983125923
 20
60.2449721782
 11
40.0983125923
 21
60.2449721782
  0
LINE
  5
2A0
100
AcDbEntity
  8
0
100
AcDbLine
 62
7
  6
CONTINUOUS
 10
34.0983125923
 20
63.335142122
 11
40.0983125923
 21
63.335142122
  0
LINE
  5
2A1
100
AcDbEntity
  8
0
100
AcDbLine
 62
7
  6
CONTINUOUS
 10
40.0983125923
 20
63.6224489796
 11
32.5983125923
 21
63.6224489796
  0
ARC
  5
2A2
100
AcDbEntity
  8
0
100
AcDbCircle
 62
7
  6
CONTINUOUS
 10
31.0983125923
 20
8.4724489796
 40
1.5
100
AcDbArc
 50
180.0
 51
360.0
  0
ARC
  5
2A3
100
AcDbEntity
  8
0
100
AcDbCircle
 62
7
  6
CONTINUOUS
 10
31.0983125923
 20
60.7724489796
 40
1.5
100
AcDbArc
 50
0.0
 51
180.0
  0
ARC
  5
2A4
100
AcDbEntity
  8
0
100
AcDbCircle
 62
7
  6
CONTINUOUS
 10
40.0983125923
 20
7.1224489796
 40
1.5
100
AcDbArc
 50
270.0
 51
360.0
  0
ARC
  5
2A5
100
AcDbEntity
  8
0
100
AcDbCircle
 62
7
  6
CONTINUOUS
 10
40.0983125923
 20
62.1224489796
 40
1.5
100
AcDbArc
 50
0.0
 51
90.0
  0
ARC
  5
2A6
100
AcDbEntity
  8
0
100
AcDbCircle
 62
7
  6
CONTINUOUS
 10
40.1917378655
 20
7.3564140989
 40
1.4066245588
100
AcDbArc
 50
350.8674187041
 51
352.0758732919
  0
ARC
  5
2A7
100
AcDbEntity
  8
0
100
AcDbCircle
 62
7
  6
CONTINUOUS
 10
40.1917993415
 20
61.8884861564
 40
1.4065630262
100
AcDbArc
 50
7.924351283
 51
9.1328445403
  0
ARC
  5
2A8
100
AcDbEntity
  8
0
100
AcDbCircle
 62
7
  6
CONTINUOUS
 10
40.1982563166
 20
7.3556016178
 40
1.4000563424
100
AcDbArc
 50
352.072029674
 51
359.982320344
  0
ARC
  5
2A9
100
AcDbEntity
  8
0
100
AcDbCircle
 62
7
  6
CONTINUOUS
 10
40.1983087418
 20
61.8892976055
 40
1.4000039168
100
AcDbArc
 50
0.0176285858
 51
7.9281868668
  0
SPLINE
  5
2AA
100
AcDbEntity
  8
0
100
AcDbSpline
 62
7
  6
CONTINUOUS
 70
0
 71
3
 72
66
 73
62
 74
0
 42
0.0000001
 43
0.0000001
 44
0.0000000001
 40
0.0
 40
0.0
 40
0.0
 40
0.0
 40
0.0001287472
 40
0.0003260879
 40
0.0005947018
 40
0.0009355621
 40
0.0018355096
 40
0.0030275254
 40
0.0045119778
 40
0.0062888504
 40
0.008357684
 40
0.0107177343
 40
0.0133682046
 40
0.0163082696
 40
0.0230535835
 40
0.030937925
 40
0.039933712
 40
0.0500125784
 40
0.0611488737
 40
0.0733199554
 40
0.0865030377
 40
0.1006698986
 40
0.1157874561
 40
0.1487324426
 40
0.1849973688
 40
0.2242275046
 40
0.2660801854
 40
0.3101592365
 40
0.356036284
 40
0.403268335
 40
0.4514175148
 40
0.5000310507
 40
0.5486410785
 40
0.5967940843
 40
0.6440315029
 40
0.6898949167
 40
0.7339549762
 40
0.7758089462
 40
0.8150625104
 40
0.8513103753
 40
0.8842177307
 40
0.9134999048
 40
0.9266963669
 40
0.9388842372
 40
0.950028914
 40
0.9600963874
 40
0.9690640903
 40
0.9769197729
 40
0.9836514796
 40
0.9865916494
 40
0.9892455348
 40
0.9916112798
 40
0.9936870589
 40
0.9954711048
 40
0.9969621338
 40
0.9981596357
 40
0.9990635027
 40
0.999405576
 40
0.9996748106
 40
0.9998720941
 40
1.0
 40
1.0
 40
1.0
 40
1.0
 10
16.3508344393
 20
59.2693860513
 30
0.0
 10
16.35210417
 20
59.267693295
 30
0.0
 10
16.3542778645
 20
59.2627017179
 30
0.0
 10
16.3570377887
 20
59.2533497747
 30
0.0
 10
16.3598435136
 20
59.2403665662
 30
0.0
 10
16.3640379759
 20
59.2159190308
 30
0.0
 10
16.3690164146
 20
59.176224505
 30
0.0
 10
16.3747081729
 20
59.1177210306
 30
0.0
 10
16.3804354848
 20
59.0447469832
 30
0.0
 10
16.3861911978
 20
58.9573308467
 30
0.0
 10
16.3919533713
 20
58.8554968079
 30
0.0
 10
16.397722191
 20
58.7392855447
 30
0.0
 10
16.4034953135
 20
58.6087396078
 30
0.0
 10
16.4115730376
 20
58.4061524761
 30
0.0
 10
16.4215044382
 20
58.1175516806
 30
0.0
 10
16.4329960459
 20
57.7294215132
 30
0.0
 10
16.444521256
 20
57.2864822213
 30
0.0
 10
16.4560693899
 20
56.7900796698
 30
0.0
 10
16.4676303789
 20
56.2414767135
 30
0.0
 10
16.4792017685
 20
55.6418439087
 30
0.0
 10
16.490780566
 20
54.9923934384
 30
0.0
 10
16.502366646
 20
54.2945087457
 30
0.0
 10
16.5182823094
 20
53.2718521077
 30
0.0
 10
16.5379700077
 20
51.8860150731
 30
0.0
 10
16.561019922
 20
50.1038818151
 30
0.0
 10
16.5841102245
 20
48.1753341055
 30
0.0
 10
16.6072144592
 20
46.1183478501
 30
0.0
 10
16.6303296427
 20
43.9521089494
 30
0.0
 10
16.6534506608
 20
41.6974519001
 30
0.0
 10
16.6765851478
 20
39.3758964067
 30
0.0
 10
16.6997254509
 20
37.0093628454
 30
0.0
 10
16.7228662802
 20
34.6201802878
 30
0.0
 10
16.7460053633
 20
32.2309348286
 30
0.0
 10
16.7691398188
 20
29.8643077595
 30
0.0
 10
16.7922702768
 20
27.5428252036
 30
0.0
 10
16.8154012062
 20
25.2886162751
 30
0.0
 10
16.8385199838
 20
23.1228924732
 30
0.0
 10
16.8616206495
 20
21.0658120609
 30
0.0
 10
16.8846912728
 20
19.1371382891
 30
0.0
 10
16.9077482714
 20
17.3555189248
 30
0.0
 10
16.9307754342
 20
15.7378003566
 30
0.0
 10
16.9505293131
 20
14.4989395249
 30
0.0
 10
16.9665232216
 20
13.6006024102
 30
0.0
 10
16.9780895931
 20
13.0003357973
 30
0.0
 10
16.9896450502
 20
12.4515062283
 30
0.0
 10
17.0011990469
 20
11.9556150015
 30
0.0
 10
17.0127399432
 20
11.5137963334
 30
0.0
 10
17.0242448299
 20
11.1268233325
 30
0.0
 10
17.0341608054
 20
10.8389154539
 30
0.0
 10
17.0422147893
 20
10.6364933155
 30
0.0
 10
17.0479786633
 20
10.5057953807
 30
0.0
 10
17.0537451749
 20
10.389319798
 30
0.0
 10
17.0595153781
 20
10.2871600244
 30
0.0
 10
17.0652943556
 20
10.1994044844
 30
0.0
 10
17.0710604781
 20
10.1261162719
 30
0.0
 10
17.0767902408
 20
10.0673526409
 30
0.0
 10
17.0817903947
 20
10.0274849515
 30
0.0
 10
17.0859869551
 20
10.0029423398
 30
0.0
 10
17.0887825673
 20
9.9899265703
 30
0.0
 10
17.0915226637
 20
9.9805752615
 30
0.0
 10
17.0936707884
 20
9.9755876498
 30
0.0
 10
17.0949302933
 20
9.9739045109
 30
0.0
  0
SPLINE
  5
2AB
100
AcDbEntity
  8
0
100
AcDbSpline
 62
7
  6
CONTINUOUS
 70
0
 71
3
 72
65
 73
61
 74
0
 42
0.0000001
 43
0.0000001
 44
0.0000000001
 40
0.0
 40
0.0
 40
0.0
 40
0.0
 40
0.0001254364
 40
0.0003194677
 40
0.0005847382
 40
0.0009221931
 40
0.0018150895
 40
0.0029996809
 40
0.0044763153
 40
0.0062449537
 40
0.0083049135
 40
0.0106551171
 40
0.0132944507
 40
0.0162217833
 40
0.0229357566
 40
0.0307838313
 40
0.0397477153
 40
0.0498084954
 40
0.0609412368
 40
0.0731147328
 40
0.0862973608
 40
0.1155568141
 40
0.1484447249
 40
0.1846663743
 40
0.2238909169
 40
0.265739905
 40
0.3098040739
 40
0.3556616635
 40
0.402884797
 40
0.4510315344
 40
0.4996452699
 40
0.5482597711
 40
0.5964167573
 40
0.6436647258
 40
0.6895556907
 40
0.7336411858
 40
0.7755024111
 40
0.8147529792
 40
0.85103268
 40
0.8839988959
 40
0.9133252547
 40
0.9265269238
 40
0.9387102364
 40
0.9498513344
 40
0.9599268839
 40
0.9689157393
 40
0.9767986973
 40
0.9835569134
 40
0.9865091488
 40
0.989174501
 40
0.9915512757
 40
0.9936378021
 40
0.9954324515
 40
0.9969338227
 40
0.9981408961
 40
0.9990530228
 40
0.9993985666
 40
0.9996707454
 40
0.9998703844
 40
1.0
 40
1.0
 40
1.0
 40
1.0
 10
8.8489033049
 20
59.2689799555
 30
0.0
 10
8.8501390912
 20
59.2673298129
 30
0.0
 10
8.852233091
 20
59.2624204455
 30
0.0
 10
8.8548919693
 20
59.2532124952
 30
0.0
 10
8.8575973303
 20
59.2403764739
 30
0.0
 10
8.8616580851
 20
59.2161377429
 30
0.0
 10
8.8665049353
 20
59.1767246702
 30
0.0
 10
8.8721140485
 20
59.1185831601
 30
0.0
 10
8.8778532415
 20
59.0459990765
 30
0.0
 10
8.8837491423
 20
58.9590050071
 30
0.0
 10
8.8897650079
 20
58.8576316363
 30
0.0
 10
8.8958653616
 20
58.7419310972
 30
0.0
 10
8.9020170884
 20
58.6119598383
 30
0.0
 10
8.9106450915
 20
58.4103076621
 30
0.0
 10
8.9211907654
 20
58.1230551845
 30
0.0
 10
8.9331130653
 20
57.7365815623
 30
0.0
 10
8.9447149761
 20
57.2950708464
 30
0.0
 10
8.9558383588
 20
56.7995484453
 30
0.0
 10
8.966586546
 20
56.2512560431
 30
0.0
 10
8.9772937543
 20
55.6516456689
 30
0.0
 10
8.9924675076
 20
54.754149901
 30
0.0
 10
9.0122204956
 20
53.5162355338
 30
0.0
 10
9.036921108
 20
51.8996987332
 30
0.0
 10
9.0613343892
 20
50.119360488
 30
0.0
 10
9.0840795375
 20
48.1917109876
 30
0.0
 10
9.1054272638
 20
46.1351446804
 30
0.0
 10
9.1274014086
 20
43.9695631209
 30
0.0
 10
9.1511452389
 20
41.715669288
 30
0.0
 10
9.1762753544
 20
39.3946882098
 30
0.0
 10
9.200195754
 20
37.0283935322
 30
0.0
 10
9.2221417165
 20
34.6392113927
 30
0.0
 10
9.2436249591
 20
32.2498567718
 30
0.0
 10
9.266312834
 20
29.8829608326
 30
0.0
 10
9.2905951282
 20
27.5608452639
 30
0.0
 10
9.3156958957
 20
25.3056588733
 30
0.0
 10
9.3387950862
 20
23.1389886933
 30
0.0
 10
9.3601478274
 20
21.0814432396
 30
0.0
 10
9.3819364484
 20
19.1522000448
 30
0.0
 10
9.4052637378
 20
17.3691780545
 30
0.0
 10
9.4297987809
 20
15.7492968031
 30
0.0
 10
9.4508542349
 20
14.5087037499
 30
0.0
 10
9.4667535971
 20
13.6096464848
 30
0.0
 10
9.4776828893
 20
13.0094284708
 30
0.0
 10
9.4883842789
 20
12.4605938249
 30
0.0
 10
9.4991645255
 20
11.964273495
 30
0.0
 10
9.5102052278
 20
11.5215218223
 30
0.0
 10
9.5215411383
 20
11.1333190421
 30
0.0
 10
9.5317132376
 20
10.844341976
 30
0.0
 10
9.5401832122
 20
10.6411175869
 30
0.0
 10
9.5462932021
 20
10.5098692614
 30
0.0
 10
9.5524237344
 20
10.3928674248
 30
0.0
 10
9.5585446767
 20
10.290196975
 30
0.0
 10
9.5646265964
 20
10.2019416436
 30
0.0
 10
9.5706261556
 20
10.1281706025
 30
0.0
 10
9.57653404
 20
10.0689605381
 30
0.0
 10
9.581652145
 20
10.0287559174
 30
0.0
 10
9.5859253254
 20
10.0039822307
 30
0.0
 10
9.5887664794
 20
9.9908292134
 30
0.0
 10
9.5915459042
 20
9.981369402
 30
0.0
 10
9.5937208692
 20
9.9763209036
 30
0.0
 10
9.5949942472
 20
9.9746131073
 30
0.0
  0
SPLINE
  5
2AC
100
AcDbEntity
  8
0
100
AcDbSpline
 62
7
  6
CONTINUOUS
 70
0
 71
3
 72
65
 73
61
 74
0
 42
0.0000001
 43
0.0000001
 44
0.0000000001
 40
0.0
 40
0.0
 40
0.0
 40
0.0
 40
0.0001350167
 40
0.0003390246
 40
0.0006147397
 40
0.0009631677
 40
0.0018796985
 40
0.0030902388
 40
0.0045949614
 40
0.0063926588
 40
0.0084815484
 40
0.0108597589
 40
0.0135253701
 40
0.016476433
 40
0.0232276603
 40
0.0311017767
 40
0.0400882331
 40
0.0501740704
 40
0.061332272
 40
0.0735306302
 40
0.0867366808
 40
0.1160353982
 40
0.1489518313
 40
0.185203871
 40
0.2244551408
 40
0.2663011189
 40
0.3103493052
 40
0.356196784
 40
0.4034123104
 40
0.4515416608
 40
0.5001259366
 40
0.5487113546
 40
0.5968336581
 40
0.6440366913
 40
0.6898872225
 40
0.7339410749
 40
0.77576666
 40
0.8149784333
 40
0.8512234007
 40
0.884158753
 40
0.9134333876
 40
0.9266116033
 40
0.938782696
 40
0.9499210444
 40
0.9600008289
 40
0.9689962349
 40
0.9768826948
 40
0.9836382771
 40
0.9865852723
 40
0.9892415245
 40
0.9916054661
 40
0.9936771217
 40
0.9954566901
 40
0.9969444572
 40
0.998140881
 40
0.9990468097
 40
0.9993913657
 40
0.999664141
 40
0.9998661186
 40
1.0
 40
1.0
 40
1.0
 40
1.0
 10
23.8445965748
 20
10.974382597
 30
0.0
 10
23.8433310097
 20
10.9760946959
 30
0.0
 10
23.8411415804
 20
10.9810572553
 30
0.0
 10
23.8383659374
 20
10.9903253139
 30
0.0
 10
23.8355516753
 20
11.0030982566
 30
0.0
 10
23.8313640404
 20
11.027027057
 30
0.0
 10
23.8264016485
 20
11.0657662628
 30
0.0
 10
23.8207380022
 20
11.1227544753
 30
0.0
 10
23.8150420365
 20
11.1936954874
 30
0.0
 10
23.8093083663
 20
11.2785179563
 30
0.0
 10
23.8035575415
 20
11.3771408831
 30
0.0
 10
23.7977931094
 20
11.489468922
 30
0.0
 10
23.7920193998
 20
11.6154079605
 30
0.0
 10
23.7839454631
 20
11.8102698426
 30
0.0
 10
23.7740081349
 20
12.0872547739
 30
0.0
 10
23.7625092543
 20
12.4594109903
 30
0.0
 10
23.7509853559
 20
12.8841716253
 30
0.0
 10
23.7394482314
 20
13.3607351258
 30
0.0
 10
23.7278967982
 20
13.8879598548
 30
0.0
 10
23.7163330502
 20
14.4643974641
 30
0.0
 10
23.7003467379
 20
15.3268594623
 30
0.0
 10
23.6806081666
 20
16.5160084965
 30
0.0
 10
23.6575919592
 20
18.0685608486
 30
0.0
 10
23.6345480904
 20
19.7780695058
 30
0.0
 10
23.6114895805
 20
21.6283990035
 30
0.0
 10
23.5884010149
 20
23.6016739222
 30
0.0
 10
23.5652948307
 20
25.6789705199
 30
0.0
 10
23.5421767333
 20
27.8409440282
 30
0.0
 10
23.5190582396
 20
30.0672766808
 30
0.0
 10
23.495936953
 20
32.3367679372
 30
0.0
 10
23.4728107371
 20
34.6278619753
 30
0.0
 10
23.4496819149
 20
36.9188448589
 30
0.0
 10
23.4265547198
 20
39.1880459248
 30
0.0
 10
23.4034324505
 20
41.4141185291
 30
0.0
 10
23.3803234626
 20
43.5760326085
 30
0.0
 10
23.3572238971
 20
45.6531451788
 30
0.0
 10
23.334128033
 20
47.6255649149
 30
0.0
 10
23.3110544446
 20
49.4748382244
 30
0.0
 10
23.2880144887
 20
51.1839108721
 30
0.0
 10
23.2650277836
 20
52.736270696
 30
0.0
 10
23.2452796573
 20
53.9248991885
 30
0.0
 10
23.2292787534
 20
54.7861120692
 30
0.0
 10
23.2177126902
 20
55.3613674536
 30
0.0
 10
23.2061596975
 20
55.887753484
 30
0.0
 10
23.194621781
 20
56.364049484
 30
0.0
 10
23.1831053163
 20
56.7890507192
 30
0.0
 10
23.1716132678
 20
57.1616117718
 30
0.0
 10
23.1616790756
 20
57.4387961667
 30
0.0
 10
23.15360004
 20
57.6335146821
 30
0.0
 10
23.1478263163
 20
57.7590165544
 30
0.0
 10
23.1420601719
 20
57.8706993373
 30
0.0
 10
23.136307566
 20
57.9685382178
 30
0.0
 10
23.1305718851
 20
58.0525336927
 30
0.0
 10
23.12487363
 20
58.1226961957
 30
0.0
 10
23.1192096352
 20
58.1790240172
 30
0.0
 10
23.1142470118
 20
58.2173086911
 30
0.0
 10
23.1100610276
 20
58.2409590781
 30
0.0
 10
23.1072469157
 20
58.2535891595
 30
0.0
 10
23.1044718172
 20
58.2627571915
 30
0.0
 10
23.1022820257
 20
58.267664897
 30
0.0
 10
23.1010189548
 20
58.2693565457
 30
0.0
  0
SPLINE
  5
2AD
100
AcDbEntity
  8
0
100
AcDbSpline
 62
7
  6
CONTINUOUS
 70
0
 71
3
 72
15
 73
11
 74
0
 42
0.0000001
 43
0.0000001
 44
0.0000000001
 40
0.0
 40
0.0
 40
0.0
 40
0.0
 40
0.121707421
 40
0.2439804407
 40
0.3672478929
 40
0.4917128004
 40
0.6174046209
 40
0.7441956504
 40
0.8719342407
 40
1.0
 40
1.0
 40
1.0
 40
1.0
 10
41.5805313417
 20
62.1117415669
 30
0.0
 10
41.5670849989
 20
62.1953830274
 30
0.0
 10
41.5247880039
 20
62.3609951348
 30
0.0
 10
41.4172915294
 20
62.5943841852
 30
0.0
 10
41.2686735883
 20
62.8064246055
 30
0.0
 10
41.0832001307
 20
62.9904602571
 30
0.0
 10
40.866325786
 20
63.1405086376
 30
0.0
 10
40.624623478
 20
63.2515987615
 30
0.0
 10
40.3658799731
 20
63.3197486809
 30
0.0
 10
40.1874537574
 20
63.335142122
 30
0.0
 10
40.0983125923
 20
63.335142122
 30
0.0
  0
SPLINE
  5
2AE
100
AcDbEntity
  8
0
100
AcDbSpline
 62
7
  6
CONTINUOUS
 70
0
 71
3
 72
65
 73
61
 74
0
 42
0.0000001
 43
0.0000001
 44
0.0000000001
 40
0.0
 40
0.0
 40
0.0
 40
0.0
 40
0.000132615
 40
0.0003343304
 40
0.0006079928
 40
0.0009545053
 40
0.0018670677
 40
0.0030724931
 40
0.0045699257
 40
0.0063581134
 40
0.0084356321
 40
0.0108011684
 40
0.0134539075
 40
0.0163931002
 40
0.0231277551
 40
0.0309984485
 40
0.0399887854
 40
0.0500728426
 40
0.0612241623
 40
0.0734134232
 40
0.0866080548
 40
0.1158832787
 40
0.148797627
 40
0.1850656334
 40
0.2243106128
 40
0.2661515985
 40
0.3102060153
 40
0.3560683154
 40
0.4032981398
 40
0.4514361016
 40
0.5000344944
 40
0.5486336895
 40
0.5967679496
 40
0.6439916342
 40
0.6898564687
 40
0.7339151711
 40
0.7757503613
 40
0.8149804674
 40
0.8512475869
 40
0.8841748723
 40
0.9134429027
 40
0.9266269664
 40
0.9388057204
 40
0.9499512695
 40
0.9600357749
 40
0.9690316709
 40
0.9769115248
 40
0.9836500603
 40
0.9865876359
 40
0.989236693
 40
0.9915967184
 40
0.9936672283
 40
0.99544778
 40
0.9969378842
 40
0.9981371068
 40
0.9990454036
 40
0.9993907593
 40
0.9996640418
 40
0.9998662214
 40
1.0
 40
1.0
 40
1.0
 40
1.0
 10
13.3447542397
 20
10.9742290862
 30
0.0
 10
13.3434831946
 20
10.9758897171
 30
0.0
 10
13.3412900343
 20
10.9807758196
 30
0.0
 10
13.3385172646
 20
10.9899312564
 30
0.0
 10
13.3357046731
 20
11.0026051869
 30
0.0
 10
13.3315162318
 20
11.0264065687
 30
0.0
 10
13.3265559089
 20
11.064972493
 30
0.0
 10
13.3208927713
 20
11.1217019734
 30
0.0
 10
13.3151947854
 20
11.1922974402
 30
0.0
 10
13.3094587593
 20
11.2766759213
 30
0.0
 10
13.3037054287
 20
11.3747703649
 30
0.0
 10
13.2979378429
 20
11.486517235
 30
0.0
 10
13.2921611652
 20
11.6118676422
 30
0.0
 10
13.2840788629
 20
11.8060804467
 30
0.0
 10
13.2741335034
 20
12.0825670491
 30
0.0
 10
13.2626369243
 20
12.4544754543
 30
0.0
 10
13.2511174431
 20
12.8792225709
 30
0.0
 10
13.2395741538
 20
13.3557185993
 30
0.0
 10
13.2280185559
 20
13.8826720927
 30
0.0
 10
13.2164530249
 20
14.4586873372
 30
0.0
 10
13.2004611492
 20
15.3204697819
 30
0.0
 10
13.1807046411
 20
16.5090552543
 30
0.0
 10
13.1576834136
 20
18.0614823735
 30
0.0
 10
13.1346481966
 20
19.7711399438
 30
0.0
 10
13.1115748473
 20
21.6215745876
 30
0.0
 10
13.0884772852
 20
23.5948032898
 30
0.0
 10
13.0653606851
 20
25.6723883626
 30
0.0
 10
13.0422401689
 20
27.8349560881
 30
0.0
 10
13.0191171318
 20
30.061921572
 30
0.0
 10
12.9959859265
 20
32.3320352337
 30
0.0
 10
12.9728505887
 20
34.6237438364
 30
0.0
 10
12.9497145335
 20
36.915394057
 30
0.0
 10
12.9265810871
 20
39.1853651457
 30
0.0
 10
12.9034565592
 20
41.4122153804
 30
0.0
 10
12.8803409668
 20
43.5747938837
 30
0.0
 10
12.8572266782
 20
45.6523951417
 30
0.0
 10
12.8341263894
 20
47.6253654456
 30
0.0
 10
12.811046853
 20
49.4754600702
 30
0.0
 10
12.7880121486
 20
51.1850731147
 30
0.0
 10
12.7650053625
 20
52.7375770449
 30
0.0
 10
12.7452434641
 20
53.9260863596
 30
0.0
 10
12.7292459714
 20
54.7874228574
 30
0.0
 10
12.7176786239
 20
55.363014649
 30
0.0
 10
12.706123236
 20
55.8897184637
 30
0.0
 10
12.6945815857
 20
56.3662182624
 30
0.0
 10
12.6830619416
 20
56.7912046374
 30
0.0
 10
12.6715721758
 20
57.1634066918
 30
0.0
 10
12.6616291556
 20
57.4400736718
 30
0.0
 10
12.6535435719
 20
57.6342639615
 30
0.0
 10
12.6477669315
 20
57.7594437334
 30
0.0
 10
12.6419993278
 20
57.8709347921
 30
0.0
 10
12.6362449489
 20
57.9687107978
 30
0.0
 10
12.6305073027
 20
58.0527419198
 30
0.0
 10
12.6248072835
 20
58.1230022813
 30
0.0
 10
12.6191421434
 20
58.1794497882
 30
0.0
 10
12.6141796695
 20
58.2178300963
 30
0.0
 10
12.6099927939
 20
58.2415394313
 30
0.0
 10
12.6071790249
 20
58.2541944945
 30
0.0
 10
12.6044047506
 20
58.2633723089
 30
0.0
 10
12.6022153568
 20
58.2682831376
 30
0.0
 10
12.6009507778
 20
58.26997168
 30
0.0
  0
SPLINE
  5
2AF
100
AcDbEntity
  8
0
100
AcDbSpline
 62
7
  6
CONTINUOUS
 70
0
 71
3
 72
15
 73
11
 74
0
 42
0.0000001
 43
0.0000001
 44
0.0000000001
 40
0.0
 40
0.0
 40
0.0
 40
0.0
 40
0.1221388785
 40
0.2448629346
 40
0.3683144994
 40
0.4928119223
 40
0.6183948455
 40
0.7449363862
 40
0.8723093629
 40
1.0
 40
1.0
 40
1.0
 40
1.0
 10
41.5983125923
 20
58.7805821113
 30
0.0
 10
41.5983125923
 20
58.8752078285
 30
0.0
 10
41.5792156609
 20
59.0654416221
 30
0.0
 10
41.4946558436
 20
59.3398529651
 30
0.0
 10
41.3567042273
 20
59.5938858546
 30
0.0
 10
41.1703397867
 20
59.8177102355
 30
0.0
 10
40.9420384933
 20
60.0023881852
 30
0.0
 10
40.6803177591
 20
60.1404348987
 30
0.0
 10
40.3953748413
 20
60.2256865446
 30
0.0
 10
40.1972394718
 20
60.2449721782
 30
0.0
 10
40.0983125923
 20
60.2449721782
 30
0.0
  0
SPLINE
  5
2B0
100
AcDbEntity
  8
0
100
AcDbSpline
 62
7
  6
CONTINUOUS
 70
0
 71
3
 72
65
 73
61
 74
0
 42
0.0000001
 43
0.0000001
 44
0.0000000001
 40
0.0
 40
0.0
 40
0.0
 40
0.0
 40
0.0001337615
 40
0.000335641
 40
0.0006083338
 40
0.0009528518
 40
0.0018590257
 40
0.003056029
 40
0.0045444155
 40
0.006324344
 40
0.008395801
 40
0.0107585839
 40
0.0134116161
 40
0.0163533911
 40
0.0230970349
 40
0.0309770366
 40
0.0399740687
 40
0.0500589309
 40
0.0612016455
 40
0.0733744883
 40
0.0865533467
 40
0.1158281919
 40
0.1487584358
 40
0.1850153032
 40
0.2242367187
 40
0.2660643572
 40
0.3101252989
 40
0.3559840857
 40
0.4031992155
 40
0.451329793
 40
0.4999220535
 40
0.5485162431
 40
0.5966515102
 40
0.6438748056
 40
0.689733046
 40
0.7337818358
 40
0.7756264132
 40
0.8148750683
 40
0.8511320334
 40
0.884049353
 40
0.9133322048
 40
0.9265333236
 40
0.9387297704
 40
0.9498856469
 40
0.9599665346
 40
0.9689503941
 40
0.9768213834
 40
0.9835641474
 40
0.9865086333
 40
0.9891668577
 40
0.9915376002
 40
0.9936196692
 40
0.9954119171
 40
0.9969131608
 40
0.9981222541
 40
0.9990384351
 40
0.9993867628
 40
0.9996622511
 40
0.9998657835
 40
1.0
 40
1.0
 40
1.0
 40
1.0
 10
22.3447498703
 20
10.9752830341
 30
0.0
 10
22.3434860675
 20
10.9769718141
 30
0.0
 10
22.3412956518
 20
10.9818759993
 30
0.0
 10
22.3385201317
 20
10.9910389052
 30
0.0
 10
22.3357053515
 20
11.0036656078
 30
0.0
 10
22.331517834
 20
11.0273180429
 30
0.0
 10
22.3265550212
 20
11.0656158553
 30
0.0
 10
22.3208909633
 20
11.1219673479
 30
0.0
 10
22.3151924586
 20
11.1921555316
 30
0.0
 10
22.3094563519
 20
11.2761645407
 30
0.0
 10
22.3037031929
 20
11.3739890675
 30
0.0
 10
22.2979372448
 20
11.4856012107
 30
0.0
 10
22.2921618178
 20
11.6109533041
 30
0.0
 10
22.2840793475
 20
11.8053528873
 30
0.0
 10
22.2741372559
 20
12.0821684062
 30
0.0
 10
22.2626433106
 20
12.4544702808
 30
0.0
 10
22.2511286077
 20
12.8794816474
 30
0.0
 10
22.2395902277
 20
13.3559592021
 30
0.0
 10
22.2280357091
 20
13.8825294411
 30
0.0
 10
22.2164671999
 20
14.4578997738
 30
0.0
 10
22.2004648162
 20
15.3191662529
 30
0.0
 10
22.1807154462
 20
16.5077449516
 30
0.0
 10
22.1577121601
 20
18.0602376126
 30
0.0
 10
22.1346771695
 20
19.7695944385
 30
0.0
 10
22.1116001711
 20
21.6192667895
 30
0.0
 10
22.0884985037
 20
23.5920114724
 30
0.0
 10
22.0653944793
 20
25.6694286641
 30
0.0
 10
22.0422791693
 20
27.831806966
 30
0.0
 10
22.0191556634
 20
30.0583634654
 30
0.0
 10
21.9960240983
 20
32.3280267389
 30
0.0
 10
21.972890209
 20
34.6194377173
 30
0.0
 10
21.9497588789
 20
36.9109226758
 30
0.0
 10
21.9266323407
 20
39.1808191471
 30
0.0
 10
21.9035088715
 20
41.4075697572
 30
0.0
 10
21.8803911529
 20
43.5698765545
 30
0.0
 10
21.8572768388
 20
45.6473605058
 30
0.0
 10
21.8341836325
 20
47.6206103488
 30
0.0
 10
21.8111201566
 20
49.4709811286
 30
0.0
 10
21.7880740004
 20
51.180565112
 30
0.0
 10
21.7650607022
 20
52.7329816131
 30
0.0
 10
21.745307808
 20
53.9218337411
 30
0.0
 10
21.7293191061
 20
54.7839501146
 30
0.0
 10
21.7177556745
 20
55.3602515322
 30
0.0
 10
21.7062052047
 20
55.8873390883
 30
0.0
 10
21.6946623136
 20
56.3637536922
 30
0.0
 10
21.6831372319
 20
56.7883521182
 30
0.0
 10
21.6716395749
 20
57.1602899794
 30
0.0
 10
21.6617001961
 20
57.4369922463
 30
0.0
 10
21.6536215694
 20
57.6315028267
 30
0.0
 10
21.6478463824
 20
57.757105327
 30
0.0
 10
21.6420803304
 20
57.8690926771
 30
0.0
 10
21.6363275858
 20
57.9674051606
 30
0.0
 10
21.630591654
 20
58.0519797893
 30
0.0
 10
21.624893447
 20
58.1227575414
 30
0.0
 10
21.6192298023
 20
58.1796628246
 30
0.0
 10
21.6142689931
 20
58.2183728826
 30
0.0
 10
21.6100818857
 20
58.2422909036
 30
0.0
 10
21.6072686214
 20
58.255052106
 30
0.0
 10
21.6044945824
 20
58.2642944591
 30
0.0
 10
21.602304799
 20
58.2692381593
 30
0.0
 10
21.6010352939
 20
58.2709316329
 30
0.0
  0
SPLINE
  5
2B1
100
AcDbEntity
  8
0
100
AcDbSpline
 62
7
  6
CONTINUOUS
 70
0
 71
3
 72
15
 73
11
 74
0
 42
0.0000001
 43
0.0000001
 44
0.0000000001
 40
0.0
 40
0.0
 40
0.0
 40
0.0
 40
0.0909504471
 40
0.1879062072
 40
0.2952892591
 40
0.4153653618
 40
0.5481599453
 40
0.6919430958
 40
0.8438980349
 40
1.0
 40
1.0
 40
1.0
 40
1.0
 10
41.5983125923
 20
54.5837006569
 30
0.0
 10
41.5983125923
 20
54.6411625539
 30
0.0
 10
41.5777611194
 20
54.7606637199
 30
0.0
 10
41.4891707317
 20
54.927696521
 30
0.0
 10
41.3481247654
 20
55.0790183066
 30
0.0
 10
41.1606459392
 20
55.2103876417
 30
0.0
 10
40.9331381483
 20
55.3178300722
 30
0.0
 10
40.6736180035
 20
55.397754092
 30
0.0
 10
40.3917536139
 20
55.4469641174
 30
0.0
 10
40.1969367919
 20
55.4580391939
 30
0.0
 10
40.0983125923
 20
55.4580391939
 30
0.0
  0
SPLINE
  5
2B2
100
AcDbEntity
  8
0
100
AcDbSpline
 62
7
  6
CONTINUOUS
 70
0
 71
3
 72
65
 73
61
 74
0
 42
0.0000001
 43
0.0000001
 44
0.0000000001
 40
0.0
 40
0.0
 40
0.0
 40
0.0
 40
0.0001334268
 40
0.0003353212
 40
0.0006086165
 40
0.0009545029
 40
0.0018662799
 40
0.0030736358
 40
0.0045773793
 40
0.0063760295
 40
0.0084676754
 40
0.0108503171
 40
0.0135219055
 40
0.0164803618
 40
0.0232492423
 40
0.0311390653
 40
0.0401316551
 40
0.0502083981
 40
0.0613491751
 40
0.0735334901
 40
0.086737636
 40
0.1160527024
 40
0.1489767035
 40
0.1852112902
 40
0.2244334929
 40
0.2662766043
 40
0.3103232024
 40
0.3561522447
 40
0.4033492832
 40
0.4514637292
 40
0.5000357993
 40
0.5486092877
 40
0.5967211374
 40
0.643913511
 40
0.6897438376
 40
0.7337894678
 40
0.7756298666
 40
0.8148418615
 40
0.8510722343
 40
0.8840010062
 40
0.9133056352
 40
0.9265040788
 40
0.938685393
 40
0.949821568
 40
0.9598947701
 40
0.9688878135
 40
0.9767810808
 40
0.9835516079
 40
0.9865086228
 40
0.9891764179
 40
0.9915533826
 40
0.9936385754
 40
0.9954311111
 40
0.9969301918
 40
0.9981351931
 40
0.9990459746
 40
0.9993915833
 40
0.9996647195
 40
0.9998665548
 40
1.0
 40
1.0
 40
1.0
 40
1.0
 10
20.8445245101
 20
10.9752550967
 30
0.0
 10
20.8432594521
 20
10.9769362517
 30
0.0
 10
20.8410684933
 20
10.9818359238
 30
0.0
 10
20.8382944676
 20
10.9910030331
 30
0.0
 10
20.8354811796
 20
11.0036621406
 30
0.0
 10
20.8312920553
 20
11.0274346337
 30
0.0
 10
20.8263295829
 20
11.0660069979
 30
0.0
 10
20.8206689633
 20
11.1228531366
 30
0.0
 10
20.8149765093
 20
11.1937424797
 30
0.0
 10
20.8092445107
 20
11.278606696
 30
0.0
 10
20.8034950693
 20
11.3773565591
 30
0.0
 10
20.7977317381
 20
11.4898905346
 30
0.0
 10
20.7919591794
 20
11.6161084118
 30
0.0
 10
20.7838870933
 20
11.811456557
 30
0.0
 10
20.7739575441
 20
12.0890799173
 30
0.0
 10
20.7624671697
 20
12.4618528701
 30
0.0
 10
20.7509501158
 20
12.8868072453
 30
0.0
 10
20.7394111843
 20
13.3630407492
 30
0.0
 10
20.7278573927
 20
13.8896163798
 30
0.0
 10
20.7162929768
 20
14.4655174868
 30
0.0
 10
20.7003096998
 20
15.3279706893
 30
0.0
 10
20.6805856422
 20
16.5174461896
 30
0.0
 10
20.6575845717
 20
18.070073364
 30
0.0
 10
20.6345448695
 20
19.7789376983
 30
0.0
 10
20.6114770242
 20
21.6284556861
 30
0.0
 10
20.5884024743
 20
23.6011674072
 30
0.0
 10
20.5653091051
 20
25.6780665935
 30
0.0
 10
20.5421981357
 20
27.8393947975
 30
0.0
 10
20.5190828246
 20
30.0648709822
 30
0.0
 10
20.4959645359
 20
32.3336032665
 30
0.0
 10
20.4728468579
 20
34.6240414297
 30
0.0
 10
20.4497291118
 20
36.9144386492
 30
0.0
 10
20.4266102946
 20
39.1830787894
 30
0.0
 10
20.4034927923
 20
41.4084606969
 30
0.0
 10
20.3803856896
 20
43.5697203672
 30
0.0
 10
20.3572916565
 20
45.6465817599
 30
0.0
 10
20.3342170622
 20
47.619074467
 30
0.0
 10
20.3111470162
 20
49.4683222251
 30
0.0
 10
20.2881049477
 20
51.1770343263
 30
0.0
 10
20.2651155896
 20
52.7295058584
 30
0.0
 10
20.2453838333
 20
53.9188019441
 30
0.0
 10
20.2293966611
 20
54.7809531996
 30
0.0
 10
20.2178351842
 20
55.3566445191
 30
0.0
 10
20.2062809341
 20
55.8830443799
 30
0.0
 10
20.1947409969
 20
56.3591565714
 30
0.0
 10
20.1832240069
 20
56.784116574
 30
0.0
 10
20.1717366985
 20
57.1569770829
 30
0.0
 10
20.1618094208
 20
57.4346581212
 30
0.0
 10
20.1537368257
 20
57.6299496269
 30
0.0
 10
20.1479643014
 20
57.7559952729
 30
0.0
 10
20.142200093
 20
57.8682777973
 30
0.0
 10
20.1364493764
 20
57.9667394116
 30
0.0
 10
20.1307157901
 20
58.0513312191
 30
0.0
 10
20.1250203171
 20
58.122012553
 30
0.0
 10
20.119360617
 20
58.1787317752
 30
0.0
 10
20.1144002834
 20
58.2172466737
 30
0.0
 10
20.1102118466
 20
58.24099639
 30
0.0
 10
20.1073987105
 20
58.2536474437
 30
0.0
 10
20.1046248195
 20
58.2628114315
 30
0.0
 10
20.1024341953
 20
58.2677102722
 30
0.0
 10
20.1011696271
 20
58.2693921574
 30
0.0
  0
SPLINE
  5
2B3
100
AcDbEntity
  8
0
100
AcDbSpline
 62
7
  6
CONTINUOUS
 70
0
 71
3
 72
15
 73
11
 74
0
 42
0.0000001
 43
0.0000001
 44
0.0000000001
 40
0.0
 40
0.0
 40
0.0
 40
0.0
 40
0.0909553571
 40
0.1879130457
 40
0.2952932118
 40
0.4153674028
 40
0.5481616097
 40
0.6919443102
 40
0.8438985728
 40
1.0
 40
1.0
 40
1.0
 40
1.0
 10
41.5983125923
 20
14.6611973023
 30
0.0
 10
41.5983125923
 20
14.6037321167
 30
0.0
 10
41.5777619237
 20
14.4842263336
 30
0.0
 10
41.4891741249
 20
14.3171879641
 30
0.0
 10
41.3481236998
 20
14.1658711369
 30
0.0
 10
41.1606446432
 20
14.034507477
 30
0.0
 10
40.933138293
 20
13.9270644397
 30
0.0
 10
40.6736182232
 20
13.8471399653
 30
0.0
 10
40.3917534606
 20
13.7979323545
 30
0.0
 10
40.196936772
 20
13.7868587653
 30
0.0
 10
40.0983125923
 20
13.7868587653
 30
0.0
  0
SPLINE
  5
2B4
100
AcDbEntity
  8
0
100
AcDbSpline
 62
7
  6
CONTINUOUS
 70
0
 71
3
 72
65
 73
61
 74
0
 42
0.0000001
 43
0.0000001
 44
0.0000000001
 40
0.0
 40
0.0
 40
0.0
 40
0.0
 40
0.0001294463
 40
0.0003287113
 40
0.0006003151
 40
0.0009450497
 40
0.0018546696
 40
0.0030577128
 40
0.0045531048
 40
0.0063394429
 40
0.0084154864
 40
0.0107800985
 40
0.0134320983
 40
0.0163702763
 40
0.0231001863
 40
0.0309580957
 40
0.0399300326
 40
0.0500014361
 40
0.0611477207
 40
0.073333956
 40
0.0865248426
 40
0.1157906054
 40
0.148690428
 40
0.1849325228
 40
0.2241707027
 40
0.2660036486
 40
0.3100461689
 40
0.3558964383
 40
0.4031160755
 40
0.4512500378
 40
0.4998426607
 40
0.548439338
 40
0.5965740102
 40
0.6437957928
 40
0.6896660893
 40
0.7337347877
 40
0.7755794505
 40
0.8148144092
 40
0.8510891428
 40
0.8840399797
 40
0.9133271072
 40
0.9265173308
 40
0.938700803
 40
0.9498519174
 40
0.9599451528
 40
0.9689535498
 40
0.9768487468
 40
0.9836032259
 40
0.9865476646
 40
0.9892029827
 40
0.9915688344
 40
0.9936448977
 40
0.9954308848
 40
0.996926286
 40
0.9981302832
 40
0.999042404
 40
0.9993891765
 40
0.999663471
 40
0.9998661974
 40
1.0
 40
1.0
 40
1.0
 40
1.0
 10
14.8508441002
 20
59.2710987603
 30
0.0
 10
14.8521193363
 20
59.2693957636
 30
0.0
 10
14.8542904993
 20
59.2643534775
 30
0.0
 10
14.8570485196
 20
59.254906672
 30
0.0
 10
14.8598521483
 20
59.2417744811
 30
0.0
 10
14.864044759
 20
59.2170513544
 30
0.0
 10
14.8690201032
 20
59.176949289
 30
0.0
 10
14.87471011
 20
59.11792323
 30
0.0
 10
14.8804351114
 20
59.0444306642
 30
0.0
 10
14.8861883677
 20
58.9565593369
 30
0.0
 10
14.8919479056
 20
58.8543752992
 30
0.0
 10
14.8977135094
 20
58.7379447033
 30
0.0
 10
14.9034833315
 20
58.6073291183
 30
0.0
 10
14.9115517608
 20
58.4050003479
 30
0.0
 10
14.9214812126
 20
58.117117811
 30
0.0
 10
14.9329804021
 20
57.7300669016
 30
0.0
 10
14.9445106932
 20
57.2880759501
 30
0.0
 10
14.9560550993
 20
56.792022537
 30
0.0
 10
14.9676060596
 20
56.2431272604
 30
0.0
 10
14.9791692237
 20
55.6429510967
 30
0.0
 10
14.9951592215
 20
54.744999838
 30
0.0
 10
15.014911849
 20
53.506620937
 30
0.0
 10
15.0379282857
 20
51.8893863456
 30
0.0
 10
15.0609744783
 20
50.1082336541
 30
0.0
 10
15.0840371482
 20
48.1802479612
 30
0.0
 10
15.1071330834
 20
46.1240487665
 30
0.0
 10
15.1302456279
 20
43.959169058
 30
0.0
 10
15.1533666489
 20
41.7057506514
 30
0.0
 10
15.1764889584
 20
39.3850831849
 30
0.0
 10
15.1996158265
 20
37.0193411184
 30
0.0
 10
15.2227480834
 20
34.6309654386
 30
0.0
 10
15.2458820938
 20
32.2425781082
 30
0.0
 10
15.2690139622
 20
29.8767225177
 30
0.0
 10
15.292139427
 20
27.5556789775
 30
0.0
 10
15.315251815
 20
25.3014657654
 30
0.0
 10
15.3383615093
 20
23.1356339825
 30
0.0
 10
15.3614609033
 20
21.0788648985
 30
0.0
 10
15.3845402225
 20
19.1502032864
 30
0.0
 10
15.4075790262
 20
17.3677284513
 30
0.0
 10
15.4305746489
 20
15.7487673493
 30
0.0
 10
15.4503323216
 20
14.5092096533
 30
0.0
 10
15.4663334639
 20
13.6109637076
 30
0.0
 10
15.4779043143
 20
13.0107646171
 30
0.0
 10
15.4894605504
 20
12.4614765912
 30
0.0
 10
15.5009931846
 20
11.9643852059
 30
0.0
 10
15.5125000832
 20
11.5208222239
 30
0.0
 10
15.5239870608
 20
11.1321542991
 30
0.0
 10
15.533953858
 20
10.8431527091
 30
0.0
 10
15.5420678147
 20
10.6402640528
 30
0.0
 10
15.5478582943
 20
10.5094714094
 30
0.0
 10
15.5536269416
 20
10.392965664
 30
0.0
 10
15.5593634553
 20
10.2907654696
 30
0.0
 10
15.5650556581
 20
10.2028956155
 30
0.0
 10
15.5706825907
 20
10.1293856986
 30
0.0
 10
15.5762768683
 20
10.0702931147
 30
0.0
 10
15.5811963411
 20
10.0300936535
 30
0.0
 10
15.5853813437
 20
10.0052474645
 30
0.0
 10
15.5882090041
 20
9.991984487
 30
0.0
 10
15.5910166221
 20
9.9823676079
 30
0.0
 10
15.5932474979
 20
9.9772159752
 30
0.0
 10
15.5945487978
 20
9.9754431745
 30
0.0
  0
SPLINE
  5
2B5
100
AcDbEntity
  8
0
100
AcDbSpline
 62
7
  6
CONTINUOUS
 70
0
 71
3
 72
15
 73
11
 74
0
 42
0.0000001
 43
0.0000001
 44
0.0000000001
 40
0.0
 40
0.0
 40
0.0
 40
0.0
 40
0.1221402876
 40
0.2448649319
 40
0.3683155749
 40
0.4928123574
 40
0.6183952403
 40
0.7449367364
 40
0.8723095073
 40
1.0
 40
1.0
 40
1.0
 40
1.0
 10
41.5983125923
 20
10.4643158479
 30
0.0
 10
41.5983125923
 20
10.3696889693
 30
0.0
 10
41.5792157621
 20
10.1794535154
 30
0.0
 10
41.4946565328
 20
9.9050407925
 30
0.0
 10
41.3567037675
 20
9.6510090289
 30
0.0
 10
41.1703390914
 20
9.427186347
 30
0.0
 10
40.942038552
 20
9.2425081288
 30
0.0
 10
40.68031794
 20
9.1044610276
 30
0.0
 10
40.3953747032
 20
9.0192104328
 30
0.0
 10
40.1972394329
 20
8.999925781
 30
0.0
 10
40.0983125923
 20
8.999925781
 30
0.0
  0
SPLINE
  5
2B6
100
AcDbEntity
  8
0
100
AcDbSpline
 62
7
  6
CONTINUOUS
 70
0
 71
3
 72
67
 73
63
 74
0
 42
0.0000001
 43
0.0000001
 44
0.0000000001
 40
0.0
 40
0.0
 40
0.0
 40
0.0
 40
0.000134544
 40
0.0003385117
 40
0.0006145939
 40
0.0009637393
 40
0.001882503
 40
0.0030959139
 40
0.0046037784
 40
0.0064054689
 40
0.0084996794
 40
0.0108846786
 40
0.0135586673
 40
0.0165198088
 40
0.0232960399
 40
0.0311962162
 40
0.0402003269
 40
0.050288088
 40
0.0614376641
 40
0.0736255128
 40
0.0868277017
 40
0.1010140426
 40
0.1161486061
 40
0.1491130455
 40
0.1853921225
 40
0.2246349638
 40
0.2664778522
 40
0.3105381334
 40
0.356402394
 40
0.4036250685
 40
0.4517556248
 40
0.5003416957
 40
0.5489274124
 40
0.5970478218
 40
0.6442455149
 40
0.690077127
 40
0.7341168503
 40
0.7759497516
 40
0.8151707494
 40
0.8513906754
 40
0.8842750982
 40
0.899374368
 40
0.9135328856
 40
0.9267173151
 40
0.9388957315
 40
0.9500377064
 40
0.9601130992
 40
0.9690959764
 40
0.9769641631
 40
0.9836961536
 40
0.9866314078
 40
0.9892781597
 40
0.9916354668
 40
0.9937024232
 40
0.9954781898
 40
0.9969623067
 40
0.9981549069
 40
0.9990565451
 40
0.9993987408
 40
0.9996690695
 40
0.9998685664
 40
1.0
 40
1.0
 40
1.0
 40
1.0
 10
10.3510308695
 20
59.2696296075
 30
0.0
 10
10.3523481558
 20
59.2678536058
 30
0.0
 10
10.3546149978
 20
59.2626813962
 30
0.0
 10
10.3574767501
 20
59.2530165175
 30
0.0
 10
10.3603653268
 20
59.2396761725
 30
0.0
 10
10.3646427027
 20
59.2146668054
 30
0.0
 10
10.3696565019
 20
59.1741748485
 30
0.0
 10
10.3752978047
 20
59.1146186287
 30
0.0
 10
10.3808728578
 20
59.0404886889
 30
0.0
 10
10.38636424
 20
58.9518477895
 30
0.0
 10
10.3917753964
 20
58.8487630068
 30
0.0
 10
10.39714358
 20
58.7313236515
 30
0.0
 10
10.4025008954
 20
58.599622859
 30
0.0
 10
10.4100157779
 20
58.3957826846
 30
0.0
 10
10.4194395197
 20
58.1060650853
 30
0.0
 10
10.4307624148
 20
57.7170446905
 30
0.0
 10
10.4424793009
 20
57.273589947
 30
0.0
 10
10.4546135027
 20
56.7767255134
 30
0.0
 10
10.4670103942
 20
56.2275286402
 30
0.0
 10
10.4793645807
 20
55.6271338423
 30
0.0
 10
10.4913640604
 20
54.9768139762
 30
0.0
 10
10.5029198601
 20
54.2780504185
 30
0.0
 10
10.5183235222
 20
53.2545184588
 30
0.0
 10
10.5365292352
 20
51.8678998044
 30
0.0
 10
10.5585058681
 20
50.0850831994
 30
0.0
 10
10.5822641036
 20
48.1563617107
 30
0.0
 10
10.6073262347
 20
46.0997639218
 30
0.0
 10
10.6312058086
 20
43.934322722
 30
0.0
 10
10.6529857124
 20
41.6804397545
 30
0.0
 10
10.6745054211
 20
39.3596575634
 30
0.0
 10
10.6972446045
 20
36.9941522713
 30
0.0
 10
10.7215741467
 20
34.6062603478
 30
0.0
 10
10.7465967029
 20
32.2185423884
 30
0.0
 10
10.7696984977
 20
29.8536236725
 30
0.0
 10
10.7909904582
 20
27.5339532679
 30
0.0
 10
10.8128669285
 20
25.2813563643
 30
0.0
 10
10.8363246267
 20
23.116949386
 30
0.0
 10
10.8609684426
 20
21.0612074037
 30
0.0
 10
10.8854668918
 20
19.13399049
 30
0.0
 10
10.9077163851
 20
17.3538237211
 30
0.0
 10
10.9257277651
 20
15.9700700962
 30
0.0
 10
10.9409936275
 20
14.9488886982
 30
0.0
 10
10.9524368721
 20
14.2514526758
 30
0.0
 10
10.9643003437
 20
13.6020346492
 30
0.0
 10
10.9765168447
 20
13.002208961
 30
0.0
 10
10.9888438416
 20
12.4534937719
 30
0.0
 10
11.0010612144
 20
11.9573086198
 30
0.0
 10
11.0129945044
 20
11.5149379165
 30
0.0
 10
11.024554463
 20
11.1275269721
 30
0.0
 10
11.0341146828
 20
10.8394931295
 30
0.0
 10
11.0416733433
 20
10.6372558735
 30
0.0
 10
11.0470327145
 20
10.5068844909
 30
0.0
 10
11.0523804223
 20
10.3907963036
 30
0.0
 10
11.0577516512
 20
10.2890403719
 30
0.0
 10
11.0631867767
 20
10.2016627115
 30
0.0
 10
11.0686916431
 20
10.1286891747
 30
0.0
 10
11.0742517862
 20
10.0701436365
 30
0.0
 10
11.0791877695
 20
10.0303855015
 30
0.0
 10
11.0833965003
 20
10.0058617959
 30
0.0
 10
11.0862364724
 20
9.9927997836
 30
0.0
 10
11.0890490582
 20
9.9833489575
 30
0.0
 10
11.0912783599
 20
9.9782966261
 30
0.0
 10
11.0925735091
 20
9.9765678819
 30
0.0
  0
SPLINE
  5
2B7
100
AcDbEntity
  8
0
100
AcDbSpline
 62
7
  6
CONTINUOUS
 70
0
 71
3
 72
67
 73
63
 74
0
 42
0.0000001
 43
0.0000001
 44
0.0000000001
 40
0.0
 40
0.0
 40
0.0
 40
0.0
 40
0.0001314406
 40
0.0003305256
 40
0.0006002531
 40
0.0009418662
 40
0.0018431808
 40
0.0030378473
 40
0.0045279223
 40
0.0063148826
 40
0.0083978099
 40
0.0107742265
 40
0.0134415854
 40
0.0163973146
 40
0.0231635272
 40
0.0310526164
 40
0.0400449601
 40
0.0501209069
 40
0.0612600113
 40
0.0734409237
 40
0.0866417866
 40
0.100830877
 40
0.1159668211
 40
0.1489143814
 40
0.1851692083
 40
0.2244089924
 40
0.2662781003
 40
0.3103585425
 40
0.3562223386
 40
0.4034508009
 40
0.4515976305
 40
0.5002040047
 40
0.5488076579
 40
0.5969498698
 40
0.6441705413
 40
0.6900182176
 40
0.7340771131
 40
0.7759259773
 40
0.8151486968
 40
0.8513743156
 40
0.8842844618
 40
0.8994031063
 40
0.9135765662
 40
0.92676373
 40
0.9389318366
 40
0.9500561088
 40
0.9601123685
 40
0.9690808234
 40
0.9769452734
 40
0.9836894211
 40
0.9866354278
 40
0.9892937713
 40
0.9916617509
 40
0.9937366979
 40
0.9955160278
 40
0.9969986747
 40
0.9981857443
 40
0.9990788508
 40
0.9994159665
 40
0.9996808231
 40
0.9998745476
 40
1.0
 40
1.0
 40
1.0
 40
1.0
 10
13.3511328268
 20
59.2691911431
 30
0.0
 10
13.3524288896
 20
59.2674628737
 30
0.0
 10
13.3546601777
 20
59.2624186046
 30
0.0
 10
13.3574647649
 20
59.2529818352
 30
0.0
 10
13.3602911444
 20
59.2399435626
 30
0.0
 10
13.3644788231
 20
59.2154407044
 30
0.0
 10
13.3694015611
 20
59.1756611729
 30
0.0
 10
13.3749975277
 20
59.1169908483
 30
0.0
 10
13.3806260423
 20
59.0437085905
 30
0.0
 10
13.3863149053
 20
58.9557997296
 30
0.0
 10
13.3920475525
 20
58.8532993987
 30
0.0
 10
13.3978137122
 20
58.7363120473
 30
0.0
 10
13.403602448
 20
58.6049655625
 30
0.0
 10
13.4117084733
 20
58.4015058406
 30
0.0
 10
13.4216724027
 20
58.1122345745
 30
0.0
 10
13.4331690011
 20
57.7237498783
 30
0.0
 10
13.4446818382
 20
57.2808487252
 30
0.0
 10
13.4562189901
 20
56.7845176782
 30
0.0
 10
13.4677799163
 20
56.2357696672
 30
0.0
 10
13.4793552779
 20
55.6356529779
 30
0.0
 10
13.4909334116
 20
54.9854006575
 30
0.0
 10
13.502512798
 20
54.2865746993
 30
0.0
 10
13.518412126
 20
53.2632353491
 30
0.0
 10
13.538101389
 20
51.8772570407
 30
0.0
 10
13.5611584847
 20
50.095136824
 30
0.0
 10
13.5842432228
 20
48.1663782314
 30
0.0
 10
13.607333877
 20
46.1089956004
 30
0.0
 10
13.6304407369
 20
43.9427397076
 30
0.0
 10
13.6535644085
 20
41.6883971362
 30
0.0
 10
13.676695975
 20
39.3672193516
 30
0.0
 10
13.6998305173
 20
37.0009645882
 30
0.0
 10
13.7229633603
 20
34.6121072029
 30
0.0
 10
13.7460959726
 20
32.223325712
 30
0.0
 10
13.7692292868
 20
29.8573196038
 30
0.0
 10
13.7923598045
 20
27.5366106998
 30
0.0
 10
13.8154854625
 20
25.2830152868
 30
0.0
 10
13.8385930194
 20
23.1177112218
 30
0.0
 10
13.8616831913
 20
21.0612959411
 30
0.0
 10
13.8847632311
 20
19.1336305799
 30
0.0
 10
13.90782076
 20
17.3528858885
 30
0.0
 10
13.9275148494
 20
15.9682870579
 30
0.0
 10
13.9434156675
 20
14.9461039921
 30
0.0
 10
13.9549947869
 20
14.2480444965
 30
0.0
 10
13.9665681282
 20
13.5984847042
 30
0.0
 10
13.9781366042
 20
12.9990473933
 30
0.0
 10
13.9896956342
 20
12.4510772986
 30
0.0
 10
14.0012498517
 20
11.9557068392
 30
0.0
 10
14.0127854862
 20
11.5139277741
 30
0.0
 10
14.024284489
 20
11.1266039318
 30
0.0
 10
14.0341928136
 20
10.8382587822
 30
0.0
 10
14.0422436406
 20
10.6354679932
 30
0.0
 10
14.0480059594
 20
10.5045673719
 30
0.0
 10
14.0537713137
 20
10.3879984221
 30
0.0
 10
14.0595401824
 20
10.2858958291
 30
0.0
 10
14.0653192949
 20
10.1983720829
 30
0.0
 10
14.0710875076
 20
10.1254737444
 30
0.0
 10
14.0768193052
 20
10.0672003542
 30
0.0
 10
14.0818231269
 20
10.0277667149
 30
0.0
 10
14.0860241536
 20
10.0035607822
 30
0.0
 10
14.0888205926
 20
9.9907617737
 30
0.0
 10
14.0915600311
 20
9.9815891715
 30
0.0
 10
14.093712062
 20
9.9767086371
 30
0.0
 10
14.0949702437
 20
9.9750751911
 30
0.0
  0
SPLINE
  5
2B8
100
AcDbEntity
  8
0
100
AcDbSpline
 62
7
  6
CONTINUOUS
 70
0
 71
3
 72
65
 73
61
 74
0
 42
0.0000001
 43
0.0000001
 44
0.0000000001
 40
0.0
 40
0.0
 40
0.0
 40
0.0
 40
0.000132615
 40
0.0003343304
 40
0.0006079928
 40
0.0009545053
 40
0.0018670677
 40
0.0030724931
 40
0.0045699257
 40
0.0063581134
 40
0.0084356321
 40
0.0108011684
 40
0.0134539075
 40
0.0163931002
 40
0.0231277551
 40
0.0309984485
 40
0.0399887854
 40
0.0500728426
 40
0.0612241623
 40
0.0734134232
 40
0.0866080548
 40
0.1158832787
 40
0.148797627
 40
0.1850656334
 40
0.2243106128
 40
0.2661515985
 40
0.3102060153
 40
0.3560683154
 40
0.4032981398
 40
0.4514361016
 40
0.5000344944
 40
0.5486336895
 40
0.5967679496
 40
0.6439916342
 40
0.6898564687
 40
0.7339151711
 40
0.7757503613
 40
0.8149804674
 40
0.8512475869
 40
0.8841748723
 40
0.9134429027
 40
0.9266269664
 40
0.9388057204
 40
0.9499512695
 40
0.9600357749
 40
0.9690316709
 40
0.9769115248
 40
0.9836500603
 40
0.9865876359
 40
0.989236693
 40
0.9915967184
 40
0.9936672283
 40
0.99544778
 40
0.9969378842
 40
0.9981371068
 40
0.9990454036
 40
0.9993907593
 40
0.9996640418
 40
0.9998662214
 40
1.0
 40
1.0
 40
1.0
 40
1.0
 10
19.3447542397
 20
10.9742290862
 30
0.0
 10
19.3434831946
 20
10.9758897171
 30
0.0
 10
19.3412900343
 20
10.9807758196
 30
0.0
 10
19.3385172646
 20
10.9899312564
 30
0.0
 10
19.3357046731
 20
11.0026051869
 30
0.0
 10
19.3315162317
 20
11.0264065687
 30
0.0
 10
19.3265559089
 20
11.064972493
 30
0.0
 10
19.3208927713
 20
11.1217019734
 30
0.0
 10
19.3151947854
 20
11.1922974402
 30
0.0
 10
19.3094587593
 20
11.2766759213
 30
0.0
 10
19.3037054287
 20
11.3747703649
 30
0.0
 10
19.2979378429
 20
11.486517235
 30
0.0
 10
19.2921611651
 20
11.6118676422
 30
0.0
 10
19.2840788629
 20
11.8060804467
 30
0.0
 10
19.2741335034
 20
12.0825670491
 30
0.0
 10
19.2626369243
 20
12.4544754543
 30
0.0
 10
19.2511174431
 20
12.8792225709
 30
0.0
 10
19.2395741538
 20
13.3557185993
 30
0.0
 10
19.2280185559
 20
13.8826720927
 30
0.0
 10
19.2164530249
 20
14.4586873373
 30
0.0
 10
19.2004611492
 20
15.3204697819
 30
0.0
 10
19.1807046411
 20
16.5090552543
 30
0.0
 10
19.1576834136
 20
18.0614823735
 30
0.0
 10
19.1346481966
 20
19.7711399438
 30
0.0
 10
19.1115748473
 20
21.6215745876
 30
0.0
 10
19.0884772852
 20
23.5948032898
 30
0.0
 10
19.0653606851
 20
25.6723883626
 30
0.0
 10
19.0422401689
 20
27.8349560881
 30
0.0
 10
19.0191171318
 20
30.061921572
 30
0.0
 10
18.9959859265
 20
32.3320352337
 30
0.0
 10
18.9728505887
 20
34.6237438364
 30
0.0
 10
18.9497145335
 20
36.915394057
 30
0.0
 10
18.9265810871
 20
39.1853651457
 30
0.0
 10
18.9034565592
 20
41.4122153804
 30
0.0
 10
18.8803409668
 20
43.5747938837
 30
0.0
 10
18.8572266782
 20
45.6523951417
 30
0.0
 10
18.8341263894
 20
47.6253654456
 30
0.0
 10
18.811046853
 20
49.4754600702
 30
0.0
 10
18.7880121486
 20
51.1850731147
 30
0.0
 10
18.7650053625
 20
52.7375770448
 30
0.0
 10
18.7452434641
 20
53.9260863596
 30
0.0
 10
18.7292459714
 20
54.7874228573
 30
0.0
 10
18.7176786239
 20
55.363014649
 30
0.0
 10
18.706123236
 20
55.8897184637
 30
0.0
 10
18.6945815857
 20
56.3662182624
 30
0.0
 10
18.6830619416
 20
56.7912046374
 30
0.0
 10
18.6715721758
 20
57.1634066918
 30
0.0
 10
18.6616291556
 20
57.4400736718
 30
0.0
 10
18.6535435719
 20
57.6342639615
 30
0.0
 10
18.6477669315
 20
57.7594437334
 30
0.0
 10
18.6419993278
 20
57.8709347921
 30
0.0
 10
18.6362449489
 20
57.9687107978
 30
0.0
 10
18.6305073027
 20
58.0527419198
 30
0.0
 10
18.6248072835
 20
58.1230022813
 30
0.0
 10
18.6191421434
 20
58.1794497882
 30
0.0
 10
18.6141796695
 20
58.2178300963
 30
0.0
 10
18.6099927939
 20
58.2415394313
 30
0.0
 10
18.6071790249
 20
58.2541944945
 30
0.0
 10
18.6044047506
 20
58.2633723089
 30
0.0
 10
18.6022153568
 20
58.2682831376
 30
0.0
 10
18.6009507778
 20
58.26997168
 30
0.0
  0
SPLINE
  5
2B9
100
AcDbEntity
  8
0
100
AcDbSpline
 62
7
  6
CONTINUOUS
 70
0
 71
3
 72
15
 73
11
 74
0
 42
0.0000001
 43
0.0000001
 44
0.0000000001
 40
0.0
 40
0.0
 40
0.0
 40
0.0
 40
0.1217090049
 40
0.243981393
 40
0.3672479463
 40
0.4917125732
 40
0.6174045297
 40
0.7441955709
 40
0.8719341675
 40
1.0
 40
1.0
 40
1.0
 40
1.0
 10
41.580531644
 20
7.1331553025
 30
0.0
 10
41.567085506
 20
7.0495126662
 30
0.0
 10
41.5247895861
 20
6.8838994937
 30
0.0
 10
41.4172925821
 20
6.6505104156
 30
0.0
 10
41.2686740826
 20
6.438471837
 30
0.0
 10
41.0832005519
 20
6.254437301
 30
0.0
 10
40.8663265403
 20
6.1043885038
 30
0.0
 10
40.6246239782
 20
5.9932983503
 30
0.0
 10
40.3658801579
 20
5.925149017
 30
0.0
 10
40.1874538356
 20
5.9097558372
 30
0.0
 10
40.0983125923
 20
5.9097558372
 30
0.0
  0
SPLINE
  5
2BA
100
AcDbEntity
  8
0
100
AcDbSpline
 62
7
  6
CONTINUOUS
 70
0
 71
3
 72
67
 73
63
 74
0
 42
0.0000001
 43
0.0000001
 44
0.0000000001
 40
0.0
 40
0.0
 40
0.0
 40
0.0
 40
0.000128023
 40
0.0003246185
 40
0.0005924993
 40
0.0009326504
 40
0.001831282
 40
0.0030221542
 40
0.0045056798
 40
0.0062818582
 40
0.0083499461
 40
0.01070875
 40
0.0133570383
 40
0.0162935605
 40
0.0230261359
 40
0.0308918756
 40
0.0398702806
 40
0.0499402178
 40
0.0610766419
 40
0.0732501295
 40
0.086431001
 40
0.1156948214
 40
0.1486166801
 40
0.1848686551
 40
0.2240937247
 40
0.2659374936
 40
0.3100009945
 40
0.3558626918
 40
0.4030910428
 40
0.4512375927
 40
0.4998451975
 40
0.5484536101
 40
0.5966054197
 40
0.6438425432
 40
0.6897123229
 40
0.7119997006
 40
0.733785068
 40
0.7756449033
 40
0.814893008
 40
0.8511592287
 40
0.8840962188
 40
0.8992152972
 40
0.9133890461
 40
0.9265848825
 40
0.9387717166
 40
0.9499201359
 40
0.9600010312
 40
0.9689898303
 40
0.9768662268
 40
0.9836105236
 40
0.9865535961
 40
0.9892091409
 40
0.9915761071
 40
0.9936534736
 40
0.9954402684
 40
0.996935571
 40
0.9981385651
 40
0.9990488073
 40
0.9993943162
 40
0.9996671267
 40
0.9998681407
 40
1.0
 40
1.0
 40
1.0
 40
1.0
 10
11.8507555868
 20
59.2701057698
 30
0.0
 10
11.8520168054
 20
59.2684214814
 30
0.0
 10
11.8541647356
 20
59.2634437131
 30
0.0
 10
11.8568814105
 20
59.2541175581
 30
0.0
 10
11.8596355772
 20
59.2411596605
 30
0.0
 10
11.8637486333
 20
59.2167443204
 30
0.0
 10
11.8686290839
 20
59.1770901662
 30
0.0
 10
11.874238441
 20
59.1186344331
 30
0.0
 10
11.8799390182
 20
59.0457034704
 30
0.0
 10
11.8857583125
 20
58.9583298556
 30
0.0
 10
11.8916594679
 20
58.8565469962
 30
0.0
 10
11.8976072997
 20
58.7404122033
 30
0.0
 10
11.9035684974
 20
58.6099879703
 30
0.0
 10
11.9118780553
 20
58.4077116491
 30
0.0
 10
11.9219135626
 20
58.1196843247
 30
0.0
 10
11.9332053753
 20
57.7323449843
 30
0.0
 10
11.9444263155
 20
57.290131578
 30
0.0
 10
11.9557355064
 20
56.7941487443
 30
0.0
 10
11.9672148343
 20
56.2456433961
 30
0.0
 10
11.9788299008
 20
55.6459997241
 30
0.0
 10
11.9950744407
 20
54.7484519619
 30
0.0
 10
12.0153082754
 20
53.5099049559
 30
0.0
 10
12.0381974326
 20
51.8921623343
 30
0.0
 10
12.0606654251
 20
50.1106787094
 30
0.0
 10
12.0833016359
 20
48.1825477636
 30
0.0
 10
12.1077025619
 20
46.126039801
 30
0.0
 10
12.1310205485
 20
43.9604336092
 30
0.0
 10
12.1525058625
 20
41.7063047247
 30
0.0
 10
12.1761364539
 20
39.3850856233
 30
0.0
 10
12.2000148351
 20
37.0187355
 30
0.0
 10
12.2231998679
 20
34.6296949242
 30
0.0
 10
12.2459062916
 20
32.2405633565
 30
0.0
 10
12.2686226421
 20
29.8739578843
 30
0.0
 10
12.2918622645
 20
27.5523712224
 30
0.0
 10
12.3121585932
 20
25.6558801187
 30
0.0
 10
12.3278183495
 20
24.1776838795
 30
0.0
 10
12.3424974014
 20
22.7653877877
 30
0.0
 10
12.3605931118
 20
21.0743481222
 30
0.0
 10
12.3847148226
 20
19.1453576285
 30
0.0
 10
12.4082713301
 20
17.3630270182
 30
0.0
 10
12.4275563603
 20
15.977254863
 30
0.0
 10
12.4429840181
 20
14.9545729921
 30
0.0
 10
12.4543162912
 20
14.2563286837
 30
0.0
 10
12.4659424405
 20
13.6062900673
 30
0.0
 10
12.4778628255
 20
13.0059895917
 30
0.0
 10
12.4898198211
 20
12.4568976279
 30
0.0
 10
12.5015580963
 20
11.9603765888
 30
0.0
 10
12.5130070493
 20
11.5176429252
 30
0.0
 10
12.5242916282
 20
11.1297649123
 30
0.0
 10
12.534022176
 20
10.8412521522
 30
0.0
 10
12.5419591097
 20
10.6385410746
 30
0.0
 10
12.5476466085
 20
10.5077432421
 30
0.0
 10
12.5533455977
 20
10.3911895575
 30
0.0
 10
12.5590565785
 20
10.2889338835
 30
0.0
 10
12.5647818551
 20
10.2010320971
 30
0.0
 10
12.5705026627
 20
10.1275332669
 30
0.0
 10
12.5762158606
 20
10.0685006546
 30
0.0
 10
12.5812383487
 20
10.0283815727
 30
0.0
 10
12.5854901153
 20
10.0036240579
 30
0.0
 10
12.5883469306
 20
9.9904413847
 30
0.0
 10
12.5911664702
 20
9.9809177166
 30
0.0
 10
12.5933939436
 20
9.9758276807
 30
0.0
 10
12.5946921754
 20
9.9740923371
 30
0.0
  0
SPLINE
  5
2BB
100
AcDbEntity
  8
0
100
AcDbSpline
 62
7
  6
CONTINUOUS
 70
0
 71
3
 72
64
 73
60
 74
0
 42
0.0000001
 43
0.0000001
 44
0.0000000001
 40
0.0
 40
0.0
 40
0.0
 40
0.0
 40
0.0001357534
 40
0.0003394439
 40
0.0006139512
 40
0.0009603577
 40
0.0018705478
 40
0.0030717786
 40
0.0045643493
 40
0.0063481232
 40
0.0084225905
 40
0.0107868665
 40
0.0134399861
 40
0.0163809232
 40
0.0231218589
 40
0.0309981112
 40
0.0399910751
 40
0.0500760194
 40
0.0612247352
 40
0.0734084555
 40
0.0865969148
 40
0.1158606003
 40
0.1487471125
 40
0.1849639715
 40
0.2241786184
 40
0.2660024178
 40
0.3100303556
 40
0.3558475048
 40
0.4030279404
 40
0.451130763
 40
0.4996967545
 40
0.5963754954
 40
0.6435800881
 40
0.6894270301
 40
0.7334712416
 40
0.7753014812
 40
0.8145343065
 40
0.8508052835
 40
0.8837670174
 40
0.9130869971
 40
0.9262887803
 40
0.9384789873
 40
0.9496325261
 40
0.9597253391
 40
0.9687351202
 40
0.9766413781
 40
0.9834251445
 40
0.9863906129
 40
0.9890691245
 40
0.9914587541
 40
0.9935577869
 40
0.9953646077
 40
0.9968778356
 40
0.9980967369
 40
0.9990211409
 40
0.9993732625
 40
0.9996526663
 40
0.9998605782
 40
1.0
 40
1.0
 40
1.0
 40
1.0
 10
11.8424787498
 20
10.976570644
 30
0.0
 10
11.8411861145
 20
10.9782768751
 30
0.0
 10
11.8389404122
 20
10.9832233778
 30
0.0
 10
11.8361158011
 20
10.9924643821
 30
0.0
 10
11.8332715776
 20
11.0051730667
 30
0.0
 10
11.8290755377
 20
11.0289466003
 30
0.0
 10
11.8241659505
 20
11.0674109563
 30
0.0
 10
11.8186415635
 20
11.1239699872
 30
0.0
 10
11.8131588716
 20
11.1943652226
 30
0.0
 10
11.8077096418
 20
11.2785628112
 30
0.0
 10
11.8023019592
 20
11.3765330664
 30
0.0
 10
11.7969150229
 20
11.4882299324
 30
0.0
 10
11.7915330214
 20
11.61360375
 30
0.0
 10
11.7839825008
 20
11.8079584968
 30
0.0
 10
11.7745145533
 20
12.0846582786
 30
0.0
 10
11.7630505383
 20
12.4567723198
 30
0.0
 10
11.7510270349
 20
12.8816220262
 30
0.0
 10
11.7386910011
 20
13.358083157
 30
0.0
 10
11.7263938667
 20
13.8848730783
 30
0.0
 10
11.7142818334
 20
14.4606159721
 30
0.0
 10
11.6979604395
 20
15.3219727108
 30
0.0
 10
11.6788273197
 20
16.5097779952
 30
0.0
 10
11.6575404973
 20
18.0607065911
 30
0.0
 10
11.6355621186
 20
19.7685484431
 30
0.0
 10
11.6109106182
 20
21.6172926008
 30
0.0
 10
11.5863062695
 20
23.5892148441
 30
0.0
 10
11.5629585561
 20
25.6652691798
 30
0.0
 10
11.5409980029
 20
27.825807596
 30
0.0
 10
11.5197242378
 20
30.0506093666
 30
0.0
 10
11.4966020074
 20
32.3187396097
 30
0.0
 10
11.4632923231
 20
35.3673061074
 30
0.0
 10
11.4319494219
 20
38.4017296993
 30
0.0
 10
11.4030067785
 20
41.3932998978
 30
0.0
 10
11.3814117393
 20
43.5549495917
 30
0.0
 10
11.3572550198
 20
45.631822921
 30
0.0
 10
11.3324313272
 20
47.6043868864
 30
0.0
 10
11.3087257487
 20
49.454384997
 30
0.0
 10
11.2865356387
 20
51.1645504471
 30
0.0
 10
11.265358322
 20
52.7184076553
 30
0.0
 10
11.2462173785
 20
53.9084977096
 30
0.0
 10
11.2294194242
 20
54.7710456852
 30
0.0
 10
11.2170661454
 20
55.3471718451
 30
0.0
 10
11.2047743105
 20
55.8742641614
 30
0.0
 10
11.192719136
 20
56.3511977681
 30
0.0
 10
11.1810087181
 20
56.7769189568
 30
0.0
 10
11.1696870717
 20
57.1504518713
 30
0.0
 10
11.1601802617
 20
57.4286866555
 30
0.0
 10
11.1525821017
 20
57.6245031958
 30
0.0
 10
11.1471838864
 20
57.7510643314
 30
0.0
 10
11.1418127821
 20
57.8639507701
 30
0.0
 10
11.1364356314
 20
57.9630749003
 30
0.0
 10
11.1310187584
 20
58.0483532195
 30
0.0
 10
11.1255453857
 20
58.1197199724
 30
0.0
 10
11.1199934513
 20
58.1771088088
 30
0.0
 10
11.1150227362
 20
58.2161639038
 30
0.0
 10
11.1107347586
 20
58.2403194798
 30
0.0
 10
11.1078148667
 20
58.2532504728
 30
0.0
 10
11.1049090827
 20
58.2626795173
 30
0.0
 10
11.1026006217
 20
58.2677320901
 30
0.0
 10
11.1012801248
 20
58.2694897594
 30
0.0
  0
SPLINE
  5
2BC
100
AcDbEntity
  8
0
100
AcDbSpline
 62
7
  6
CONTINUOUS
 70
0
 71
3
 72
66
 73
62
 74
0
 42
0.0000001
 43
0.0000001
 44
0.0000000001
 40
0.0
 40
0.0
 40
0.0
 40
0.0
 40
0.0001287472
 40
0.0003260879
 40
0.0005947018
 40
0.0009355621
 40
0.0018355096
 40
0.0030275254
 40
0.0045119778
 40
0.0062888504
 40
0.008357684
 40
0.0107177343
 40
0.0133682046
 40
0.0163082696
 40
0.0230535835
 40
0.030937925
 40
0.039933712
 40
0.0500125784
 40
0.0611488737
 40
0.0733199554
 40
0.0865030377
 40
0.1006698986
 40
0.1157874561
 40
0.1487324426
 40
0.1849973688
 40
0.2242275046
 40
0.2660801854
 40
0.3101592365
 40
0.356036284
 40
0.403268335
 40
0.4514175148
 40
0.5000310507
 40
0.5486410785
 40
0.5967940843
 40
0.6440315029
 40
0.6898949167
 40
0.7339549762
 40
0.7758089462
 40
0.8150625104
 40
0.8513103753
 40
0.8842177307
 40
0.9134999048
 40
0.9266963669
 40
0.9388842372
 40
0.950028914
 40
0.9600963874
 40
0.9690640903
 40
0.9769197729
 40
0.9836514796
 40
0.9865916494
 40
0.9892455348
 40
0.9916112798
 40
0.9936870589
 40
0.9954711048
 40
0.9969621338
 40
0.9981596357
 40
0.9990635027
 40
0.999405576
 40
0.9996748106
 40
0.9998720941
 40
1.0
 40
1.0
 40
1.0
 40
1.0
 10
22.3508344393
 20
59.2693860513
 30
0.0
 10
22.35210417
 20
59.267693295
 30
0.0
 10
22.3542778645
 20
59.2627017179
 30
0.0
 10
22.3570377887
 20
59.2533497747
 30
0.0
 10
22.3598435136
 20
59.2403665662
 30
0.0
 10
22.3640379759
 20
59.2159190308
 30
0.0
 10
22.3690164146
 20
59.176224505
 30
0.0
 10
22.3747081729
 20
59.1177210306
 30
0.0
 10
22.3804354848
 20
59.0447469832
 30
0.0
 10
22.3861911978
 20
58.9573308467
 30
0.0
 10
22.3919533713
 20
58.8554968079
 30
0.0
 10
22.397722191
 20
58.7392855447
 30
0.0
 10
22.4034953135
 20
58.6087396078
 30
0.0
 10
22.4115730376
 20
58.4061524761
 30
0.0
 10
22.4215044382
 20
58.1175516806
 30
0.0
 10
22.4329960459
 20
57.7294215132
 30
0.0
 10
22.444521256
 20
57.2864822213
 30
0.0
 10
22.4560693899
 20
56.7900796698
 30
0.0
 10
22.4676303789
 20
56.2414767135
 30
0.0
 10
22.4792017685
 20
55.6418439087
 30
0.0
 10
22.490780566
 20
54.9923934384
 30
0.0
 10
22.502366646
 20
54.2945087457
 30
0.0
 10
22.5182823094
 20
53.2718521077
 30
0.0
 10
22.5379700077
 20
51.8860150731
 30
0.0
 10
22.561019922
 20
50.1038818151
 30
0.0
 10
22.5841102245
 20
48.1753341055
 30
0.0
 10
22.6072144592
 20
46.1183478501
 30
0.0
 10
22.6303296427
 20
43.9521089494
 30
0.0
 10
22.6534506608
 20
41.6974519001
 30
0.0
 10
22.6765851478
 20
39.3758964067
 30
0.0
 10
22.6997254509
 20
37.0093628454
 30
0.0
 10
22.7228662802
 20
34.6201802878
 30
0.0
 10
22.7460053633
 20
32.2309348286
 30
0.0
 10
22.7691398188
 20
29.8643077595
 30
0.0
 10
22.7922702768
 20
27.5428252036
 30
0.0
 10
22.8154012062
 20
25.2886162751
 30
0.0
 10
22.8385199838
 20
23.1228924732
 30
0.0
 10
22.8616206495
 20
21.0658120609
 30
0.0
 10
22.8846912728
 20
19.1371382891
 30
0.0
 10
22.9077482714
 20
17.3555189248
 30
0.0
 10
22.9307754342
 20
15.7378003566
 30
0.0
 10
22.9505293131
 20
14.4989395249
 30
0.0
 10
22.9665232216
 20
13.6006024102
 30
0.0
 10
22.9780895931
 20
13.0003357973
 30
0.0
 10
22.9896450502
 20
12.4515062283
 30
0.0
 10
23.0011990469
 20
11.9556150015
 30
0.0
 10
23.0127399432
 20
11.5137963334
 30
0.0
 10
23.0242448299
 20
11.1268233325
 30
0.0
 10
23.0341608054
 20
10.8389154539
 30
0.0
 10
23.0422147893
 20
10.6364933155
 30
0.0
 10
23.0479786633
 20
10.5057953807
 30
0.0
 10
23.0537451749
 20
10.389319798
 30
0.0
 10
23.0595153781
 20
10.2871600244
 30
0.0
 10
23.0652943556
 20
10.1994044844
 30
0.0
 10
23.0710604781
 20
10.1261162719
 30
0.0
 10
23.0767902408
 20
10.0673526409
 30
0.0
 10
23.0817903947
 20
10.0274849515
 30
0.0
 10
23.0859869551
 20
10.0029423398
 30
0.0
 10
23.0887825673
 20
9.9899265703
 30
0.0
 10
23.0915226637
 20
9.9805752615
 30
0.0
 10
23.0936707884
 20
9.9755876498
 30
0.0
 10
23.0949302933
 20
9.9739045109
 30
0.0
  0
SPLINE
  5
2BD
100
AcDbEntity
  8
0
100
AcDbSpline
 62
7
  6
CONTINUOUS
 70
0
 71
3
 72
65
 73
61
 74
0
 42
0.0000001
 43
0.0000001
 44
0.0000000001
 40
0.0
 40
0.0
 40
0.0
 40
0.0
 40
0.000132615
 40
0.0003343304
 40
0.0006079928
 40
0.0009545053
 40
0.0018670677
 40
0.0030724931
 40
0.0045699257
 40
0.0063581134
 40
0.0084356321
 40
0.0108011684
 40
0.0134539075
 40
0.0163931002
 40
0.0231277551
 40
0.0309984485
 40
0.0399887854
 40
0.0500728426
 40
0.0612241623
 40
0.0734134232
 40
0.0866080548
 40
0.1158832787
 40
0.148797627
 40
0.1850656334
 40
0.2243106128
 40
0.2661515985
 40
0.3102060153
 40
0.3560683154
 40
0.4032981398
 40
0.4514361016
 40
0.5000344944
 40
0.5486336895
 40
0.5967679496
 40
0.6439916342
 40
0.6898564687
 40
0.7339151711
 40
0.7757503613
 40
0.8149804674
 40
0.8512475869
 40
0.8841748723
 40
0.9134429027
 40
0.9266269664
 40
0.9388057204
 40
0.9499512695
 40
0.9600357749
 40
0.9690316709
 40
0.9769115248
 40
0.9836500603
 40
0.9865876359
 40
0.989236693
 40
0.9915967184
 40
0.9936672283
 40
0.99544778
 40
0.9969378842
 40
0.9981371068
 40
0.9990454036
 40
0.9993907593
 40
0.9996640418
 40
0.9998662214
 40
1.0
 40
1.0
 40
1.0
 40
1.0
 10
25.3447542397
 20
10.9742290862
 30
0.0
 10
25.3434831946
 20
10.9758897171
 30
0.0
 10
25.3412900342
 20
10.9807758196
 30
0.0
 10
25.3385172645
 20
10.9899312564
 30
0.0
 10
25.3357046731
 20
11.0026051869
 30
0.0
 10
25.3315162317
 20
11.0264065687
 30
0.0
 10
25.3265559089
 20
11.064972493
 30
0.0
 10
25.3208927712
 20
11.1217019734
 30
0.0
 10
25.3151947854
 20
11.1922974402
 30
0.0
 10
25.3094587593
 20
11.2766759213
 30
0.0
 10
25.3037054287
 20
11.3747703649
 30
0.0
 10
25.2979378429
 20
11.486517235
 30
0.0
 10
25.2921611651
 20
11.6118676422
 30
0.0
 10
25.2840788629
 20
11.8060804467
 30
0.0
 10
25.2741335034
 20
12.0825670491
 30
0.0
 10
25.2626369243
 20
12.4544754543
 30
0.0
 10
25.2511174431
 20
12.8792225709
 30
0.0
 10
25.2395741538
 20
13.3557185993
 30
0.0
 10
25.2280185559
 20
13.8826720927
 30
0.0
 10
25.2164530249
 20
14.4586873373
 30
0.0
 10
25.2004611492
 20
15.3204697819
 30
0.0
 10
25.1807046411
 20
16.5090552543
 30
0.0
 10
25.1576834136
 20
18.0614823735
 30
0.0
 10
25.1346481966
 20
19.7711399438
 30
0.0
 10
25.1115748473
 20
21.6215745877
 30
0.0
 10
25.0884772852
 20
23.5948032898
 30
0.0
 10
25.0653606851
 20
25.6723883626
 30
0.0
 10
25.0422401688
 20
27.8349560881
 30
0.0
 10
25.0191171318
 20
30.061921572
 30
0.0
 10
24.9959859265
 20
32.3320352337
 30
0.0
 10
24.9728505887
 20
34.6237438364
 30
0.0
 10
24.9497145335
 20
36.915394057
 30
0.0
 10
24.9265810871
 20
39.1853651457
 30
0.0
 10
24.9034565592
 20
41.4122153804
 30
0.0
 10
24.8803409668
 20
43.5747938837
 30
0.0
 10
24.8572266782
 20
45.6523951417
 30
0.0
 10
24.8341263894
 20
47.6253654456
 30
0.0
 10
24.811046853
 20
49.4754600702
 30
0.0
 10
24.7880121486
 20
51.1850731147
 30
0.0
 10
24.7650053625
 20
52.7375770449
 30
0.0
 10
24.7452434641
 20
53.9260863596
 30
0.0
 10
24.7292459714
 20
54.7874228574
 30
0.0
 10
24.7176786239
 20
55.363014649
 30
0.0
 10
24.706123236
 20
55.8897184637
 30
0.0
 10
24.6945815857
 20
56.3662182624
 30
0.0
 10
24.6830619416
 20
56.7912046374
 30
0.0
 10
24.6715721758
 20
57.1634066918
 30
0.0
 10
24.6616291556
 20
57.4400736718
 30
0.0
 10
24.6535435719
 20
57.6342639615
 30
0.0
 10
24.6477669315
 20
57.7594437334
 30
0.0
 10
24.6419993278
 20
57.8709347921
 30
0.0
 10
24.6362449489
 20
57.9687107978
 30
0.0
 10
24.6305073027
 20
58.0527419198
 30
0.0
 10
24.6248072835
 20
58.1230022813
 30
0.0
 10
24.6191421434
 20
58.1794497882
 30
0.0
 10
24.6141796695
 20
58.2178300963
 30
0.0
 10
24.6099927939
 20
58.2415394313
 30
0.0
 10
24.6071790249
 20
58.2541944945
 30
0.0
 10
24.6044047506
 20
58.2633723089
 30
0.0
 10
24.6022153568
 20
58.2682831376
 30
0.0
 10
24.6009507778
 20
58.26997168
 30
0.0
  0
SPLINE
  5
2BE
100
AcDbEntity
  8
0
100
AcDbSpline
 62
7
  6
CONTINUOUS
 70
0
 71
3
 72
15
 73
11
 74
0
 42
0.0000001
 43
0.0000001
 44
0.0000000001
 40
0.0
 40
0.0
 40
0.0
 40
0.0
 40
0.0932227355
 40
0.1923586932
 40
0.3012607416
 40
0.4218886353
 40
0.5541941892
 40
0.69655531
 40
0.8463892248
 40
1.0
 40
1.0
 40
1.0
 40
1.0
 10
41.5983125923
 20
46.4438501167
 30
0.0
 10
41.5983125923
 20
46.5037179808
 30
0.0
 10
41.5777949166
 20
46.6279871789
 30
0.0
 10
41.4896476899
 20
46.8029061871
 30
0.0
 10
41.3489179947
 20
46.9627462425
 30
0.0
 10
41.1615151296
 20
47.1024437855
 30
0.0
 10
40.9339054948
 20
47.2172754405
 30
0.0
 10
40.674178531
 20
47.3030121724
 30
0.0
 10
40.3920515127
 20
47.3559372239
 30
0.0
 10
40.1969618
 20
47.3678692501
 30
0.0
 10
40.0983125923
 20
47.3678692501
 30
0.0
  0
SPLINE
  5
2BF
100
AcDbEntity
  8
0
100
AcDbSpline
 62
7
  6
CONTINUOUS
 70
0
 71
3
 72
65
 73
61
 74
0
 42
0.0000001
 43
0.0000001
 44
0.0000000001
 40
0.0
 40
0.0
 40
0.0
 40
0.0
 40
0.0001350167
 40
0.0003390246
 40
0.0006147397
 40
0.0009631677
 40
0.0018796985
 40
0.0030902388
 40
0.0045949614
 40
0.0063926588
 40
0.0084815484
 40
0.0108597589
 40
0.0135253701
 40
0.016476433
 40
0.0232276603
 40
0.0311017767
 40
0.0400882331
 40
0.0501740704
 40
0.061332272
 40
0.0735306302
 40
0.0867366808
 40
0.1160353982
 40
0.1489518313
 40
0.185203871
 40
0.2244551408
 40
0.2663011189
 40
0.3103493052
 40
0.356196784
 40
0.4034123104
 40
0.4515416608
 40
0.5001259366
 40
0.5487113546
 40
0.5968336581
 40
0.6440366913
 40
0.6898872225
 40
0.7339410749
 40
0.77576666
 40
0.8149784333
 40
0.8512234007
 40
0.884158753
 40
0.9134333876
 40
0.9266116033
 40
0.938782696
 40
0.9499210444
 40
0.9600008289
 40
0.9689962349
 40
0.9768826948
 40
0.9836382771
 40
0.9865852723
 40
0.9892415245
 40
0.9916054661
 40
0.9936771217
 40
0.9954566901
 40
0.9969444572
 40
0.998140881
 40
0.9990468097
 40
0.9993913657
 40
0.999664141
 40
0.9998661186
 40
1.0
 40
1.0
 40
1.0
 40
1.0
 10
17.8445965748
 20
10.974382597
 30
0.0
 10
17.8433310097
 20
10.9760946959
 30
0.0
 10
17.8411415804
 20
10.9810572553
 30
0.0
 10
17.8383659374
 20
10.9903253139
 30
0.0
 10
17.8355516753
 20
11.0030982566
 30
0.0
 10
17.8313640404
 20
11.027027057
 30
0.0
 10
17.8264016485
 20
11.0657662628
 30
0.0
 10
17.8207380022
 20
11.1227544753
 30
0.0
 10
17.8150420365
 20
11.1936954874
 30
0.0
 10
17.8093083663
 20
11.2785179563
 30
0.0
 10
17.8035575415
 20
11.3771408831
 30
0.0
 10
17.7977931093
 20
11.489468922
 30
0.0
 10
17.7920193998
 20
11.6154079605
 30
0.0
 10
17.7839454631
 20
11.8102698426
 30
0.0
 10
17.7740081349
 20
12.0872547739
 30
0.0
 10
17.7625092543
 20
12.4594109903
 30
0.0
 10
17.7509853559
 20
12.8841716253
 30
0.0
 10
17.7394482313
 20
13.3607351258
 30
0.0
 10
17.7278967982
 20
13.8879598548
 30
0.0
 10
17.7163330502
 20
14.4643974641
 30
0.0
 10
17.7003467379
 20
15.3268594623
 30
0.0
 10
17.6806081666
 20
16.5160084965
 30
0.0
 10
17.6575919592
 20
18.0685608486
 30
0.0
 10
17.6345480904
 20
19.7780695058
 30
0.0
 10
17.6114895805
 20
21.6283990035
 30
0.0
 10
17.5884010149
 20
23.6016739222
 30
0.0
 10
17.5652948307
 20
25.6789705199
 30
0.0
 10
17.5421767333
 20
27.8409440282
 30
0.0
 10
17.5190582396
 20
30.0672766808
 30
0.0
 10
17.495936953
 20
32.3367679372
 30
0.0
 10
17.4728107371
 20
34.6278619753
 30
0.0
 10
17.4496819149
 20
36.9188448589
 30
0.0
 10
17.4265547198
 20
39.1880459248
 30
0.0
 10
17.4034324505
 20
41.4141185291
 30
0.0
 10
17.3803234626
 20
43.5760326085
 30
0.0
 10
17.3572238971
 20
45.6531451788
 30
0.0
 10
17.334128033
 20
47.6255649149
 30
0.0
 10
17.3110544446
 20
49.4748382244
 30
0.0
 10
17.2880144886
 20
51.1839108721
 30
0.0
 10
17.2650277836
 20
52.736270696
 30
0.0
 10
17.2452796573
 20
53.9248991885
 30
0.0
 10
17.2292787534
 20
54.7861120692
 30
0.0
 10
17.2177126902
 20
55.3613674536
 30
0.0
 10
17.2061596975
 20
55.887753484
 30
0.0
 10
17.194621781
 20
56.364049484
 30
0.0
 10
17.1831053163
 20
56.7890507192
 30
0.0
 10
17.1716132678
 20
57.1616117718
 30
0.0
 10
17.1616790755
 20
57.4387961667
 30
0.0
 10
17.15360004
 20
57.6335146821
 30
0.0
 10
17.1478263163
 20
57.7590165544
 30
0.0
 10
17.1420601719
 20
57.8706993373
 30
0.0
 10
17.136307566
 20
57.9685382178
 30
0.0
 10
17.1305718851
 20
58.0525336927
 30
0.0
 10
17.12487363
 20
58.1226961957
 30
0.0
 10
17.1192096352
 20
58.1790240172
 30
0.0
 10
17.1142470118
 20
58.2173086911
 30
0.0
 10
17.1100610276
 20
58.2409590781
 30
0.0
 10
17.1072469157
 20
58.2535891595
 30
0.0
 10
17.1044718172
 20
58.2627571915
 30
0.0
 10
17.1022820256
 20
58.267664897
 30
0.0
 10
17.1010189548
 20
58.2693565457
 30
0.0
  0
SPLINE
  5
2C0
100
AcDbEntity
  8
0
100
AcDbSpline
 62
7
  6
CONTINUOUS
 70
0
 71
3
 72
66
 73
62
 74
0
 42
0.0000001
 43
0.0000001
 44
0.0000000001
 40
0.0
 40
0.0
 40
0.0
 40
0.0
 40
0.0001287472
 40
0.0003260879
 40
0.0005947018
 40
0.0009355621
 40
0.0018355096
 40
0.0030275254
 40
0.0045119778
 40
0.0062888504
 40
0.008357684
 40
0.0107177343
 40
0.0133682046
 40
0.0163082696
 40
0.0230535835
 40
0.030937925
 40
0.039933712
 40
0.0500125784
 40
0.0611488737
 40
0.0733199554
 40
0.0865030377
 40
0.1006698986
 40
0.1157874561
 40
0.1487324426
 40
0.1849973688
 40
0.2242275046
 40
0.2660801854
 40
0.3101592365
 40
0.356036284
 40
0.403268335
 40
0.4514175148
 40
0.5000310507
 40
0.5486410785
 40
0.5967940843
 40
0.6440315029
 40
0.6898949167
 40
0.7339549762
 40
0.7758089462
 40
0.8150625104
 40
0.8513103753
 40
0.8842177307
 40
0.9134999048
 40
0.9266963669
 40
0.9388842372
 40
0.950028914
 40
0.9600963874
 40
0.9690640903
 40
0.9769197729
 40
0.9836514796
 40
0.9865916494
 40
0.9892455348
 40
0.9916112798
 40
0.9936870589
 40
0.9954711048
 40
0.9969621338
 40
0.9981596357
 40
0.9990635027
 40
0.999405576
 40
0.9996748106
 40
0.9998720941
 40
1.0
 40
1.0
 40
1.0
 40
1.0
 10
28.3508344392
 20
59.2693860513
 30
0.0
 10
28.3521041699
 20
59.267693295
 30
0.0
 10
28.3542778645
 20
59.2627017179
 30
0.0
 10
28.3570377887
 20
59.2533497747
 30
0.0
 10
28.3598435136
 20
59.2403665662
 30
0.0
 10
28.3640379759
 20
59.2159190308
 30
0.0
 10
28.3690164146
 20
59.176224505
 30
0.0
 10
28.3747081729
 20
59.1177210306
 30
0.0
 10
28.3804354848
 20
59.0447469832
 30
0.0
 10
28.3861911978
 20
58.9573308467
 30
0.0
 10
28.3919533713
 20
58.8554968079
 30
0.0
 10
28.397722191
 20
58.7392855447
 30
0.0
 10
28.4034953135
 20
58.6087396078
 30
0.0
 10
28.4115730376
 20
58.4061524761
 30
0.0
 10
28.4215044382
 20
58.1175516806
 30
0.0
 10
28.4329960459
 20
57.7294215132
 30
0.0
 10
28.444521256
 20
57.2864822213
 30
0.0
 10
28.4560693899
 20
56.7900796698
 30
0.0
 10
28.4676303789
 20
56.2414767135
 30
0.0
 10
28.4792017685
 20
55.6418439087
 30
0.0
 10
28.490780566
 20
54.9923934384
 30
0.0
 10
28.502366646
 20
54.2945087457
 30
0.0
 10
28.5182823094
 20
53.2718521077
 30
0.0
 10
28.5379700077
 20
51.8860150731
 30
0.0
 10
28.561019922
 20
50.1038818151
 30
0.0
 10
28.5841102245
 20
48.1753341055
 30
0.0
 10
28.6072144592
 20
46.1183478501
 30
0.0
 10
28.6303296427
 20
43.9521089494
 30
0.0
 10
28.6534506608
 20
41.6974519001
 30
0.0
 10
28.6765851478
 20
39.3758964067
 30
0.0
 10
28.6997254509
 20
37.0093628454
 30
0.0
 10
28.7228662802
 20
34.6201802878
 30
0.0
 10
28.7460053633
 20
32.2309348286
 30
0.0
 10
28.7691398188
 20
29.8643077595
 30
0.0
 10
28.7922702768
 20
27.5428252036
 30
0.0
 10
28.8154012062
 20
25.2886162751
 30
0.0
 10
28.8385199838
 20
23.1228924732
 30
0.0
 10
28.8616206495
 20
21.0658120609
 30
0.0
 10
28.8846912728
 20
19.137138289
 30
0.0
 10
28.9077482714
 20
17.3555189248
 30
0.0
 10
28.9307754342
 20
15.7378003566
 30
0.0
 10
28.9505293131
 20
14.4989395249
 30
0.0
 10
28.9665232216
 20
13.6006024102
 30
0.0
 10
28.9780895931
 20
13.0003357973
 30
0.0
 10
28.9896450502
 20
12.4515062283
 30
0.0
 10
29.0011990469
 20
11.9556150015
 30
0.0
 10
29.0127399432
 20
11.5137963334
 30
0.0
 10
29.0242448299
 20
11.1268233325
 30
0.0
 10
29.0341608054
 20
10.8389154539
 30
0.0
 10
29.0422147893
 20
10.6364933154
 30
0.0
 10
29.0479786633
 20
10.5057953807
 30
0.0
 10
29.0537451749
 20
10.389319798
 30
0.0
 10
29.0595153781
 20
10.2871600244
 30
0.0
 10
29.0652943556
 20
10.1994044844
 30
0.0
 10
29.0710604781
 20
10.1261162719
 30
0.0
 10
29.0767902408
 20
10.0673526409
 30
0.0
 10
29.0817903947
 20
10.0274849515
 30
0.0
 10
29.0859869551
 20
10.0029423398
 30
0.0
 10
29.0887825673
 20
9.9899265703
 30
0.0
 10
29.0915226637
 20
9.9805752615
 30
0.0
 10
29.0936707884
 20
9.9755876498
 30
0.0
 10
29.0949302933
 20
9.9739045109
 30
0.0
  0
SPLINE
  5
2C1
100
AcDbEntity
  8
0
100
AcDbSpline
 62
7
  6
CONTINUOUS
 70
0
 71
3
 72
65
 73
61
 74
0
 42
0.0000001
 43
0.0000001
 44
0.0000000001
 40
0.0
 40
0.0
 40
0.0
 40
0.0
 40
0.0001334268
 40
0.0003353212
 40
0.0006086165
 40
0.0009545029
 40
0.0018662799
 40
0.0030736358
 40
0.0045773793
 40
0.0063760295
 40
0.0084676754
 40
0.0108503171
 40
0.0135219055
 40
0.0164803618
 40
0.0232492423
 40
0.0311390653
 40
0.0401316551
 40
0.0502083981
 40
0.0613491751
 40
0.0735334901
 40
0.086737636
 40
0.1160527024
 40
0.1489767035
 40
0.1852112902
 40
0.2244334929
 40
0.2662766043
 40
0.3103232024
 40
0.3561522447
 40
0.4033492832
 40
0.4514637292
 40
0.5000357993
 40
0.5486092877
 40
0.5967211374
 40
0.643913511
 40
0.6897438376
 40
0.7337894678
 40
0.7756298666
 40
0.8148418615
 40
0.8510722343
 40
0.8840010062
 40
0.9133056352
 40
0.9265040788
 40
0.938685393
 40
0.949821568
 40
0.9598947701
 40
0.9688878135
 40
0.9767810808
 40
0.9835516079
 40
0.9865086228
 40
0.9891764179
 40
0.9915533826
 40
0.9936385754
 40
0.9954311111
 40
0.9969301918
 40
0.9981351931
 40
0.9990459746
 40
0.9993915833
 40
0.9996647195
 40
0.9998665548
 40
1.0
 40
1.0
 40
1.0
 40
1.0
 10
26.8445245101
 20
10.9752550967
 30
0.0
 10
26.8432594521
 20
10.9769362517
 30
0.0
 10
26.8410684933
 20
10.9818359238
 30
0.0
 10
26.8382944676
 20
10.9910030331
 30
0.0
 10
26.8354811796
 20
11.0036621406
 30
0.0
 10
26.8312920552
 20
11.0274346337
 30
0.0
 10
26.8263295829
 20
11.0660069979
 30
0.0
 10
26.8206689633
 20
11.1228531366
 30
0.0
 10
26.8149765092
 20
11.1937424797
 30
0.0
 10
26.8092445107
 20
11.278606696
 30
0.0
 10
26.8034950693
 20
11.3773565591
 30
0.0
 10
26.7977317381
 20
11.4898905346
 30
0.0
 10
26.7919591793
 20
11.6161084118
 30
0.0
 10
26.7838870932
 20
11.811456557
 30
0.0
 10
26.7739575441
 20
12.0890799173
 30
0.0
 10
26.7624671697
 20
12.4618528701
 30
0.0
 10
26.7509501158
 20
12.8868072453
 30
0.0
 10
26.7394111843
 20
13.3630407492
 30
0.0
 10
26.7278573927
 20
13.8896163798
 30
0.0
 10
26.7162929767
 20
14.4655174868
 30
0.0
 10
26.7003096998
 20
15.3279706893
 30
0.0
 10
26.6805856422
 20
16.5174461896
 30
0.0
 10
26.6575845717
 20
18.070073364
 30
0.0
 10
26.6345448695
 20
19.7789376983
 30
0.0
 10
26.6114770242
 20
21.6284556861
 30
0.0
 10
26.5884024743
 20
23.6011674072
 30
0.0
 10
26.5653091051
 20
25.6780665935
 30
0.0
 10
26.5421981357
 20
27.8393947975
 30
0.0
 10
26.5190828246
 20
30.0648709822
 30
0.0
 10
26.4959645359
 20
32.3336032665
 30
0.0
 10
26.4728468579
 20
34.6240414297
 30
0.0
 10
26.4497291118
 20
36.9144386492
 30
0.0
 10
26.4266102946
 20
39.1830787894
 30
0.0
 10
26.4034927923
 20
41.4084606969
 30
0.0
 10
26.3803856896
 20
43.5697203672
 30
0.0
 10
26.3572916565
 20
45.6465817599
 30
0.0
 10
26.3342170622
 20
47.619074467
 30
0.0
 10
26.3111470161
 20
49.4683222251
 30
0.0
 10
26.2881049477
 20
51.1770343263
 30
0.0
 10
26.2651155896
 20
52.7295058584
 30
0.0
 10
26.2453838333
 20
53.9188019441
 30
0.0
 10
26.2293966611
 20
54.7809531996
 30
0.0
 10
26.2178351841
 20
55.3566445191
 30
0.0
 10
26.2062809341
 20
55.8830443799
 30
0.0
 10
26.1947409968
 20
56.3591565714
 30
0.0
 10
26.1832240069
 20
56.784116574
 30
0.0
 10
26.1717366985
 20
57.1569770829
 30
0.0
 10
26.1618094207
 20
57.4346581212
 30
0.0
 10
26.1537368257
 20
57.6299496269
 30
0.0
 10
26.1479643014
 20
57.7559952729
 30
0.0
 10
26.142200093
 20
57.8682777974
 30
0.0
 10
26.1364493764
 20
57.9667394117
 30
0.0
 10
26.1307157901
 20
58.0513312191
 30
0.0
 10
26.125020317
 20
58.122012553
 30
0.0
 10
26.119360617
 20
58.1787317752
 30
0.0
 10
26.1144002834
 20
58.2172466737
 30
0.0
 10
26.1102118466
 20
58.2409963901
 30
0.0
 10
26.1073987105
 20
58.2536474437
 30
0.0
 10
26.1046248194
 20
58.2628114315
 30
0.0
 10
26.1024341952
 20
58.2677102723
 30
0.0
 10
26.1011696271
 20
58.2693921574
 30
0.0
  0
SPLINE
  5
2C2
100
AcDbEntity
  8
0
100
AcDbSpline
 62
7
  6
CONTINUOUS
 70
0
 71
3
 72
66
 73
62
 74
0
 42
0.0000001
 43
0.0000001
 44
0.0000000001
 40
0.0
 40
0.0
 40
0.0
 40
0.0
 40
0.0001318268
 40
0.0003331107
 40
0.0006064931
 40
0.0009529411
 40
0.0018665192
 40
0.0030752275
 40
0.0045783001
 40
0.0063743689
 40
0.0084619467
 40
0.0108396157
 40
0.0135059532
 40
0.0164594071
 40
0.0232194155
 40
0.0311025154
 40
0.0400916017
 40
0.0501671751
 40
0.0613071493
 40
0.0734893246
 40
0.0866882436
 40
0.1160083075
 40
0.1489672888
 40
0.1852385029
 40
0.2244788863
 40
0.266327724
 40
0.3104018464
 40
0.3562792576
 40
0.4035145089
 40
0.4516594248
 40
0.500262096
 40
0.5488641365
 40
0.5970007619
 40
0.6442152367
 40
0.6900665714
 40
0.734125896
 40
0.7759733442
 40
0.8151981115
 40
0.8514211164
 40
0.8843155208
 40
0.8994211062
 40
0.9135842075
 40
0.9267717242
 40
0.9389514002
 40
0.9500912455
 40
0.9601617008
 40
0.9691359105
 40
0.976991047
 40
0.9837131455
 40
0.9866457984
 40
0.9892908712
 40
0.9916469328
 40
0.9937130096
 40
0.9954883889
 40
0.9969724357
 40
0.9981646676
 40
0.9990649557
 40
0.9994058706
 40
0.9996744114
 40
0.999871559
 40
1.0
 40
1.0
 40
1.0
 40
1.0
 10
10.345035659
 20
10.9746553346
 30
0.0
 10
10.3437910163
 20
10.9763202828
 30
0.0
 10
10.3416394468
 20
10.9811988229
 30
0.0
 10
10.3388810936
 20
10.9903337645
 30
0.0
 10
10.3360518798
 20
11.0029902296
 30
0.0
 10
10.331789053
 20
11.0267883763
 30
0.0
 10
10.3266549714
 20
11.0653970199
 30
0.0
 10
10.3207063187
 20
11.1222534487
 30
0.0
 10
10.3146563494
 20
11.1930836693
 30
0.0
 10
10.3085350868
 20
11.2778057648
 30
0.0
 10
10.3023965663
 20
11.3763494831
 30
0.0
 10
10.2962701473
 20
11.4886395773
 30
0.0
 10
10.2901861749
 20
11.6146035467
 30
0.0
 10
10.2817866483
 20
11.8096376443
 30
0.0
 10
10.2716767719
 20
12.0869323043
 30
0.0
 10
10.2603032556
 20
12.4594106764
 30
0.0
 10
10.249256298
 20
12.884201185
 30
0.0
 10
10.2384464314
 20
13.3603689201
 30
0.0
 10
10.2276672358
 20
13.8868998317
 30
0.0
 10
10.2167171833
 20
14.4626881005
 30
0.0
 10
10.2009797081
 20
15.3251144029
 30
0.0
 10
10.179809593
 20
16.5151210191
 30
0.0
 10
10.1553406186
 20
18.0689459067
 30
0.0
 10
10.1320823761
 20
19.7792363325
 30
0.0
 10
10.1101936524
 20
21.6297370386
 30
0.0
 10
10.0889337538
 20
23.6032943358
 30
0.0
 10
10.0656682513
 20
25.6814936856
 30
0.0
 10
10.0406989779
 20
27.8446162343
 30
0.0
 10
10.0164887081
 20
30.0719429316
 30
0.0
 10
9.9937088444
 20
32.3422609272
 30
0.0
 10
9.9721791959
 20
34.6341443627
 30
0.0
 10
9.9504806124
 20
36.9258957957
 30
0.0
 10
9.9261791966
 20
39.1957298388
 30
0.0
 10
9.9013534269
 20
41.4221798479
 30
0.0
 10
9.8776538093
 20
43.5843444774
 30
0.0
 10
9.8554236041
 20
45.6618886067
 30
0.0
 10
9.8341853417
 20
47.6349446042
 30
0.0
 10
9.811662432
 20
49.4844100428
 30
0.0
 10
9.7868648259
 20
51.1926537643
 30
0.0
 10
9.7660343227
 20
52.520583454
 30
0.0
 10
9.7498692476
 20
53.5006855782
 30
0.0
 10
9.7385104576
 20
54.1700712753
 30
0.0
 10
9.7274684465
 20
54.7933176135
 30
0.0
 10
9.7166125385
 20
55.3688864087
 30
0.0
 10
9.7058810674
 20
55.8952961915
 30
0.0
 10
9.6948975681
 20
56.3711428368
 30
0.0
 10
9.6834145039
 20
56.795165709
 30
0.0
 10
9.6714137284
 20
57.1663508636
 30
0.0
 10
9.6607939446
 20
57.4422584437
 30
0.0
 10
9.6521710858
 20
57.6360202706
 30
0.0
 10
9.6460388971
 20
57.7609764852
 30
0.0
 10
9.6399752414
 20
57.8722531873
 30
0.0
 10
9.6339955425
 20
57.9697985187
 30
0.0
 10
9.6281079287
 20
58.0535691934
 30
0.0
 10
9.6223390652
 20
58.1235334392
 30
0.0
 10
9.6166886431
 20
58.1796465948
 30
0.0
 10
9.6118098359
 20
58.2177267039
 30
0.0
 10
9.6077432712
 20
58.2411799058
 30
0.0
 10
9.6050387286
 20
58.2536301079
 30
0.0
 10
9.6023894581
 20
58.2625923648
 30
0.0
 10
9.6003090335
 20
58.2673749723
 30
0.0
 10
9.5990936403
 20
58.2689951231
 30
0.0
  0
SPLINE
  5
2C3
100
AcDbEntity
  8
0
100
AcDbSpline
 62
7
  6
CONTINUOUS
 70
0
 71
3
 72
26
 73
22
 74
0
 42
0.0000001
 43
0.0000001
 44
0.0000000001
 40
0.0
 40
0.0
 40
0.0
 40
0.0
 40
0.0004611501
 40
0.0014195932
 40
0.0050408014
 40
0.0109820101
 40
0.019245475
 40
0.029823414
 40
0.0427045124
 40
0.0578629615
 40
0.0752607871
 40
0.1166197734
 40
0.1664643596
 40
0.2243663628
 40
0.2898065727
 40
0.3622361088
 40
0.4409588479
 40
0.5252280848
 40
0.614262639
 40
0.8032075545
 40
1.0
 40
1.0
 40
1.0
 40
1.0
 10
41.5983125923
 20
39.6531532767
 30
0.0
 10
41.5983125923
 20
39.6529225483
 30
0.0
 10
41.597619468
 20
39.6524112657
 30
0.0
 10
41.5953436641
 20
39.6516913983
 30
0.0
 10
41.5900236617
 20
39.6507003256
 30
0.0
 10
41.5812465851
 20
39.6496466462
 30
0.0
 10
41.5688653525
 20
39.6484847452
 30
0.0
 10
41.5530510343
 20
39.6472980444
 30
0.0
 10
41.53376323
 20
39.646071776
 30
0.0
 10
41.5110652134
 20
39.644822701
 30
0.0
 10
41.4741258015
 20
39.6430254423
 30
0.0
 10
41.4198339465
 20
39.6408074973
 30
0.0
 10
41.3452746821
 20
39.6382563768
 30
0.0
 10
41.2586599949
 20
39.6357378193
 30
0.0
 10
41.1607390275
 20
39.633301649
 30
0.0
 10
41.05239491
 20
39.6310021238
 30
0.0
 10
40.9346246541
 20
39.6288854248
 30
0.0
 10
40.8085414209
 20
39.6270014292
 30
0.0
 10
40.627309491
 20
39.624816842
 30
0.0
 10
40.3897716687
 20
39.6229526439
 30
0.0
 10
40.1967742921
 20
39.6224489796
 30
0.0
 10
40.0983125923
 20
39.6224489796
 30
0.0
  0
SPLINE
  5
2C4
100
AcDbEntity
  8
0
100
AcDbSpline
 62
7
  6
CONTINUOUS
 70
0
 71
3
 72
65
 73
61
 74
0
 42
0.0000001
 43
0.0000001
 44
0.0000000001
 40
0.0
 40
0.0
 40
0.0
 40
0.0
 40
0.0001294463
 40
0.0003287113
 40
0.0006003151
 40
0.0009450497
 40
0.0018546696
 40
0.0030577128
 40
0.0045531048
 40
0.0063394429
 40
0.0084154864
 40
0.0107800985
 40
0.0134320983
 40
0.0163702763
 40
0.0231001863
 40
0.0309580957
 40
0.0399300326
 40
0.0500014361
 40
0.0611477207
 40
0.073333956
 40
0.0865248426
 40
0.1157906054
 40
0.148690428
 40
0.1849325228
 40
0.2241707027
 40
0.2660036486
 40
0.3100461689
 40
0.3558964383
 40
0.4031160755
 40
0.4512500378
 40
0.4998426607
 40
0.548439338
 40
0.5965740102
 40
0.6437957928
 40
0.6896660893
 40
0.7337347877
 40
0.7755794505
 40
0.8148144092
 40
0.8510891428
 40
0.8840399797
 40
0.9133271072
 40
0.9265173308
 40
0.938700803
 40
0.9498519174
 40
0.9599451528
 40
0.9689535498
 40
0.9768487468
 40
0.9836032259
 40
0.9865476646
 40
0.9892029827
 40
0.9915688344
 40
0.9936448977
 40
0.9954308848
 40
0.996926286
 40
0.9981302832
 40
0.999042404
 40
0.9993891765
 40
0.999663471
 40
0.9998661974
 40
1.0
 40
1.0
 40
1.0
 40
1.0
 10
20.8508441002
 20
59.2710987603
 30
0.0
 10
20.8521193363
 20
59.2693957636
 30
0.0
 10
20.8542904993
 20
59.2643534775
 30
0.0
 10
20.8570485196
 20
59.254906672
 30
0.0
 10
20.8598521483
 20
59.2417744811
 30
0.0
 10
20.864044759
 20
59.2170513544
 30
0.0
 10
20.8690201032
 20
59.176949289
 30
0.0
 10
20.87471011
 20
59.11792323
 30
0.0
 10
20.8804351114
 20
59.0444306642
 30
0.0
 10
20.8861883677
 20
58.9565593369
 30
0.0
 10
20.8919479056
 20
58.8543752992
 30
0.0
 10
20.8977135094
 20
58.7379447033
 30
0.0
 10
20.9034833315
 20
58.6073291183
 30
0.0
 10
20.9115517608
 20
58.4050003479
 30
0.0
 10
20.9214812126
 20
58.117117811
 30
0.0
 10
20.9329804021
 20
57.7300669016
 30
0.0
 10
20.9445106932
 20
57.2880759501
 30
0.0
 10
20.9560550993
 20
56.792022537
 30
0.0
 10
20.9676060596
 20
56.2431272604
 30
0.0
 10
20.9791692237
 20
55.6429510967
 30
0.0
 10
20.9951592215
 20
54.744999838
 30
0.0
 10
21.014911849
 20
53.506620937
 30
0.0
 10
21.0379282857
 20
51.8893863456
 30
0.0
 10
21.0609744783
 20
50.1082336541
 30
0.0
 10
21.0840371482
 20
48.1802479612
 30
0.0
 10
21.1071330834
 20
46.1240487665
 30
0.0
 10
21.1302456279
 20
43.959169058
 30
0.0
 10
21.1533666489
 20
41.7057506514
 30
0.0
 10
21.1764889584
 20
39.3850831849
 30
0.0
 10
21.1996158265
 20
37.0193411184
 30
0.0
 10
21.2227480834
 20
34.6309654386
 30
0.0
 10
21.2458820938
 20
32.2425781082
 30
0.0
 10
21.2690139622
 20
29.8767225177
 30
0.0
 10
21.292139427
 20
27.5556789775
 30
0.0
 10
21.315251815
 20
25.3014657654
 30
0.0
 10
21.3383615093
 20
23.1356339825
 30
0.0
 10
21.3614609033
 20
21.0788648985
 30
0.0
 10
21.3845402225
 20
19.1502032864
 30
0.0
 10
21.4075790262
 20
17.3677284513
 30
0.0
 10
21.4305746489
 20
15.7487673493
 30
0.0
 10
21.4503323216
 20
14.5092096533
 30
0.0
 10
21.4663334639
 20
13.6109637076
 30
0.0
 10
21.4779043143
 20
13.0107646171
 30
0.0
 10
21.4894605504
 20
12.4614765912
 30
0.0
 10
21.5009931846
 20
11.9643852059
 30
0.0
 10
21.5125000832
 20
11.5208222239
 30
0.0
 10
21.5239870608
 20
11.1321542991
 30
0.0
 10
21.533953858
 20
10.8431527091
 30
0.0
 10
21.5420678147
 20
10.6402640529
 30
0.0
 10
21.5478582943
 20
10.5094714094
 30
0.0
 10
21.5536269416
 20
10.392965664
 30
0.0
 10
21.5593634553
 20
10.2907654696
 30
0.0
 10
21.5650556581
 20
10.2028956155
 30
0.0
 10
21.5706825907
 20
10.1293856986
 30
0.0
 10
21.5762768683
 20
10.0702931147
 30
0.0
 10
21.5811963411
 20
10.0300936535
 30
0.0
 10
21.5853813437
 20
10.0052474645
 30
0.0
 10
21.5882090041
 20
9.991984487
 30
0.0
 10
21.5910166221
 20
9.9823676079
 30
0.0
 10
21.5932474979
 20
9.9772159752
 30
0.0
 10
21.5945487978
 20
9.9754431745
 30
0.0
  0
SPLINE
  5
2C5
100
AcDbEntity
  8
0
100
AcDbSpline
 62
7
  6
CONTINUOUS
 70
0
 71
3
 72
65
 73
61
 74
0
 42
0.0000001
 43
0.0000001
 44
0.0000000001
 40
0.0
 40
0.0
 40
0.0
 40
0.0
 40
0.0001337615
 40
0.000335641
 40
0.0006083338
 40
0.0009528518
 40
0.0018590257
 40
0.003056029
 40
0.0045444155
 40
0.006324344
 40
0.008395801
 40
0.0107585839
 40
0.0134116161
 40
0.0163533911
 40
0.0230970349
 40
0.0309770366
 40
0.0399740687
 40
0.0500589309
 40
0.0612016455
 40
0.0733744883
 40
0.0865533467
 40
0.1158281919
 40
0.1487584358
 40
0.1850153032
 40
0.2242367187
 40
0.2660643572
 40
0.3101252989
 40
0.3559840857
 40
0.4031992155
 40
0.451329793
 40
0.4999220535
 40
0.5485162431
 40
0.5966515102
 40
0.6438748056
 40
0.689733046
 40
0.7337818358
 40
0.7756264132
 40
0.8148750683
 40
0.8511320334
 40
0.884049353
 40
0.9133322048
 40
0.9265333236
 40
0.9387297704
 40
0.9498856469
 40
0.9599665346
 40
0.9689503941
 40
0.9768213834
 40
0.9835641474
 40
0.9865086333
 40
0.9891668577
 40
0.9915376002
 40
0.9936196692
 40
0.9954119171
 40
0.9969131608
 40
0.9981222541
 40
0.9990384351
 40
0.9993867628
 40
0.9996622511
 40
0.9998657835
 40
1.0
 40
1.0
 40
1.0
 40
1.0
 10
16.3447498702
 20
10.9752830341
 30
0.0
 10
16.3434860675
 20
10.9769718141
 30
0.0
 10
16.3412956518
 20
10.9818759993
 30
0.0
 10
16.3385201317
 20
10.9910389052
 30
0.0
 10
16.3357053514
 20
11.0036656078
 30
0.0
 10
16.331517834
 20
11.0273180429
 30
0.0
 10
16.3265550212
 20
11.0656158553
 30
0.0
 10
16.3208909633
 20
11.1219673479
 30
0.0
 10
16.3151924585
 20
11.1921555316
 30
0.0
 10
16.3094563519
 20
11.2761645407
 30
0.0
 10
16.3037031928
 20
11.3739890675
 30
0.0
 10
16.2979372447
 20
11.4856012107
 30
0.0
 10
16.2921618178
 20
11.6109533041
 30
0.0
 10
16.2840793475
 20
11.8053528873
 30
0.0
 10
16.2741372559
 20
12.0821684062
 30
0.0
 10
16.2626433105
 20
12.4544702808
 30
0.0
 10
16.2511286077
 20
12.8794816474
 30
0.0
 10
16.2395902276
 20
13.3559592021
 30
0.0
 10
16.2280357091
 20
13.8825294411
 30
0.0
 10
16.2164671999
 20
14.4578997738
 30
0.0
 10
16.2004648162
 20
15.3191662529
 30
0.0
 10
16.1807154462
 20
16.5077449516
 30
0.0
 10
16.1577121601
 20
18.0602376126
 30
0.0
 10
16.1346771695
 20
19.7695944385
 30
0.0
 10
16.1116001711
 20
21.6192667895
 30
0.0
 10
16.0884985037
 20
23.5920114724
 30
0.0
 10
16.0653944793
 20
25.6694286641
 30
0.0
 10
16.0422791693
 20
27.831806966
 30
0.0
 10
16.0191556634
 20
30.0583634654
 30
0.0
 10
15.9960240982
 20
32.3280267389
 30
0.0
 10
15.972890209
 20
34.6194377173
 30
0.0
 10
15.9497588789
 20
36.9109226758
 30
0.0
 10
15.9266323407
 20
39.180819147
 30
0.0
 10
15.9035088715
 20
41.4075697572
 30
0.0
 10
15.8803911529
 20
43.5698765545
 30
0.0
 10
15.8572768388
 20
45.6473605058
 30
0.0
 10
15.8341836325
 20
47.6206103488
 30
0.0
 10
15.8111201566
 20
49.4709811286
 30
0.0
 10
15.7880740004
 20
51.180565112
 30
0.0
 10
15.7650607022
 20
52.7329816131
 30
0.0
 10
15.745307808
 20
53.9218337411
 30
0.0
 10
15.7293191061
 20
54.7839501146
 30
0.0
 10
15.7177556745
 20
55.3602515322
 30
0.0
 10
15.7062052047
 20
55.8873390883
 30
0.0
 10
15.6946623136
 20
56.3637536922
 30
0.0
 10
15.6831372319
 20
56.7883521182
 30
0.0
 10
15.6716395749
 20
57.1602899794
 30
0.0
 10
15.6617001961
 20
57.4369922463
 30
0.0
 10
15.6536215694
 20
57.6315028267
 30
0.0
 10
15.6478463824
 20
57.757105327
 30
0.0
 10
15.6420803304
 20
57.8690926771
 30
0.0
 10
15.6363275858
 20
57.9674051606
 30
0.0
 10
15.630591654
 20
58.0519797893
 30
0.0
 10
15.624893447
 20
58.1227575414
 30
0.0
 10
15.6192298023
 20
58.1796628246
 30
0.0
 10
15.6142689931
 20
58.2183728826
 30
0.0
 10
15.6100818857
 20
58.2422909036
 30
0.0
 10
15.6072686214
 20
58.255052106
 30
0.0
 10
15.6044945824
 20
58.2642944591
 30
0.0
 10
15.602304799
 20
58.2692381593
 30
0.0
 10
15.6010352939
 20
58.2709316329
 30
0.0
  0
SPLINE
  5
2C6
100
AcDbEntity
  8
0
100
AcDbSpline
 62
7
  6
CONTINUOUS
 70
0
 71
3
 72
65
 73
61
 74
0
 42
0.0000001
 43
0.0000001
 44
0.0000000001
 40
0.0
 40
0.0
 40
0.0
 40
0.0
 40
0.0001337615
 40
0.000335641
 40
0.0006083338
 40
0.0009528518
 40
0.0018590257
 40
0.003056029
 40
0.0045444155
 40
0.006324344
 40
0.008395801
 40
0.0107585839
 40
0.0134116161
 40
0.0163533911
 40
0.0230970349
 40
0.0309770366
 40
0.0399740687
 40
0.0500589309
 40
0.0612016455
 40
0.0733744883
 40
0.0865533467
 40
0.1158281919
 40
0.1487584358
 40
0.1850153032
 40
0.2242367187
 40
0.2660643572
 40
0.3101252989
 40
0.3559840857
 40
0.4031992155
 40
0.451329793
 40
0.4999220535
 40
0.5485162431
 40
0.5966515102
 40
0.6438748056
 40
0.689733046
 40
0.7337818358
 40
0.7756264132
 40
0.8148750683
 40
0.8511320334
 40
0.884049353
 40
0.9133322048
 40
0.9265333236
 40
0.9387297704
 40
0.9498856469
 40
0.9599665346
 40
0.9689503941
 40
0.9768213834
 40
0.9835641474
 40
0.9865086333
 40
0.9891668577
 40
0.9915376002
 40
0.9936196692
 40
0.9954119171
 40
0.9969131608
 40
0.9981222541
 40
0.9990384351
 40
0.9993867628
 40
0.9996622511
 40
0.9998657835
 40
1.0
 40
1.0
 40
1.0
 40
1.0
 10
28.3447498703
 20
10.9752830341
 30
0.0
 10
28.3434860675
 20
10.9769718141
 30
0.0
 10
28.3412956518
 20
10.9818759993
 30
0.0
 10
28.3385201317
 20
10.9910389052
 30
0.0
 10
28.3357053515
 20
11.0036656078
 30
0.0
 10
28.331517834
 20
11.0273180429
 30
0.0
 10
28.3265550212
 20
11.0656158553
 30
0.0
 10
28.3208909633
 20
11.1219673479
 30
0.0
 10
28.3151924586
 20
11.1921555316
 30
0.0
 10
28.3094563519
 20
11.2761645407
 30
0.0
 10
28.3037031928
 20
11.3739890675
 30
0.0
 10
28.2979372447
 20
11.4856012107
 30
0.0
 10
28.2921618178
 20
11.6109533041
 30
0.0
 10
28.2840793475
 20
11.8053528873
 30
0.0
 10
28.2741372559
 20
12.0821684062
 30
0.0
 10
28.2626433105
 20
12.4544702808
 30
0.0
 10
28.2511286077
 20
12.8794816474
 30
0.0
 10
28.2395902276
 20
13.3559592021
 30
0.0
 10
28.2280357091
 20
13.8825294411
 30
0.0
 10
28.2164671999
 20
14.4578997738
 30
0.0
 10
28.2004648162
 20
15.3191662529
 30
0.0
 10
28.1807154462
 20
16.5077449516
 30
0.0
 10
28.1577121601
 20
18.0602376126
 30
0.0
 10
28.1346771695
 20
19.7695944385
 30
0.0
 10
28.1116001711
 20
21.6192667895
 30
0.0
 10
28.0884985037
 20
23.5920114724
 30
0.0
 10
28.0653944793
 20
25.6694286641
 30
0.0
 10
28.0422791693
 20
27.8318069661
 30
0.0
 10
28.0191556634
 20
30.0583634654
 30
0.0
 10
27.9960240982
 20
32.3280267389
 30
0.0
 10
27.972890209
 20
34.6194377173
 30
0.0
 10
27.9497588789
 20
36.9109226758
 30
0.0
 10
27.9266323407
 20
39.1808191471
 30
0.0
 10
27.9035088715
 20
41.4075697572
 30
0.0
 10
27.8803911529
 20
43.5698765545
 30
0.0
 10
27.8572768388
 20
45.6473605058
 30
0.0
 10
27.8341836325
 20
47.6206103488
 30
0.0
 10
27.8111201566
 20
49.4709811286
 30
0.0
 10
27.7880740004
 20
51.180565112
 30
0.0
 10
27.7650607022
 20
52.7329816131
 30
0.0
 10
27.7453078079
 20
53.9218337411
 30
0.0
 10
27.7293191061
 20
54.7839501146
 30
0.0
 10
27.7177556745
 20
55.3602515322
 30
0.0
 10
27.7062052047
 20
55.8873390883
 30
0.0
 10
27.6946623136
 20
56.3637536922
 30
0.0
 10
27.6831372319
 20
56.7883521182
 30
0.0
 10
27.6716395749
 20
57.1602899794
 30
0.0
 10
27.6617001961
 20
57.4369922463
 30
0.0
 10
27.6536215694
 20
57.6315028267
 30
0.0
 10
27.6478463824
 20
57.757105327
 30
0.0
 10
27.6420803304
 20
57.8690926771
 30
0.0
 10
27.6363275858
 20
57.9674051606
 30
0.0
 10
27.630591654
 20
58.0519797893
 30
0.0
 10
27.624893447
 20
58.1227575414
 30
0.0
 10
27.6192298023
 20
58.1796628246
 30
0.0
 10
27.6142689931
 20
58.2183728826
 30
0.0
 10
27.6100818857
 20
58.2422909036
 30
0.0
 10
27.6072686214
 20
58.255052106
 30
0.0
 10
27.6044945824
 20
58.2642944591
 30
0.0
 10
27.602304799
 20
58.2692381593
 30
0.0
 10
27.6010352939
 20
58.2709316329
 30
0.0
  0
SPLINE
  5
2C7
100
AcDbEntity
  8
0
100
AcDbSpline
 62
7
  6
CONTINUOUS
 70
0
 71
3
 72
30
 73
26
 74
0
 42
0.0000001
 43
0.0000001
 44
0.0000000001
 40
0.0
 40
0.0
 40
0.0
 40
0.0
 40
0.000774949
 40
0.0020387751
 40
0.0038082858
 40
0.0060888556
 40
0.0088826837
 40
0.0121907219
 40
0.0203498261
 40
0.0305647225
 40
0.0428308689
 40
0.0571407915
 40
0.0734854016
 40
0.0918509951
 40
0.1122216314
 40
0.1588721289
 40
0.2131978382
 40
0.2749520876
 40
0.343862726
 40
0.4196490323
 40
0.5020056665
 40
0.5906124841
 40
0.6851278073
 40
0.7851609169
 40
1.0
 40
1.0
 40
1.0
 40
1.0
 10
8.8422864597
 20
10.9767516402
 30
0.0
 10
8.8404728006
 20
10.9792100494
 30
0.0
 10
8.8376185812
 20
10.9869034429
 30
0.0
 10
8.8340036927
 20
11.0014017148
 30
0.0
 10
8.8303947061
 20
11.022086874
 30
0.0
 10
8.8267419151
 20
11.0488060846
 30
0.0
 10
8.8231031266
 20
11.0816589291
 30
0.0
 10
8.8178935995
 20
11.1376361836
 30
0.0
 10
8.8116689265
 20
11.2228930245
 30
0.0
 10
8.8045993604
 20
11.3434770048
 30
0.0
 10
8.797509566
 20
11.488343692
 30
0.0
 10
8.7903008973
 20
11.6573932365
 30
0.0
 10
8.7828945411
 20
11.8504997844
 30
0.0
 10
8.7752602937
 20
12.0675064719
 30
0.0
 10
8.7642139067
 20
12.4039385242
 30
0.0
 10
8.750114655
 20
12.8821080209
 30
0.0
 10
8.7338257158
 20
13.523421728
 30
0.0
 10
8.7179416918
 20
14.252523337
 30
0.0
 10
8.7026010705
 20
15.0662553858
 30
0.0
 10
8.687937721
 20
15.9612306704
 30
0.0
 10
8.6736104349
 20
16.9338668243
 30
0.0
 10
8.6593385215
 20
17.9803448353
 30
0.0
 10
8.6442822276
 20
19.0965030779
 30
0.0
 10
8.6222885858
 20
20.7102480355
 30
0.0
 10
8.6060407389
 20
21.9514372497
 30
0.0
 10
8.5959330714
 20
22.7983194803
 30
0.0
  0
LINE
  5
2C8
100
AcDbEntity
  8
0
100
AcDbLine
 62
7
  6
CONTINUOUS
 10
29.5393758085
 20
28.1179933343
 11
29.5384292082
 21
28.2081968197
  0
SPLINE
  5
2C9
100
AcDbEntity
  8
0
100
AcDbSpline
 62
7
  6
CONTINUOUS
 70
0
 71
3
 72
67
 73
63
 74
0
 42
0.0000001
 43
0.0000001
 44
0.0000000001
 40
0.0
 40
0.0
 40
0.0
 40
0.0
 40
0.0001314406
 40
0.0003305256
 40
0.0006002531
 40
0.0009418662
 40
0.0018431808
 40
0.0030378473
 40
0.0045279223
 40
0.0063148826
 40
0.0083978099
 40
0.0107742265
 40
0.0134415854
 40
0.0163973146
 40
0.0231635272
 40
0.0310526164
 40
0.0400449601
 40
0.0501209069
 40
0.0612600113
 40
0.0734409237
 40
0.0866417866
 40
0.100830877
 40
0.1159668211
 40
0.1489143814
 40
0.1851692083
 40
0.2244089924
 40
0.2662781003
 40
0.3103585425
 40
0.3562223386
 40
0.4034508009
 40
0.4515976305
 40
0.5002040047
 40
0.5488076579
 40
0.5969498698
 40
0.6441705413
 40
0.6900182176
 40
0.7340771131
 40
0.7759259773
 40
0.8151486968
 40
0.8513743156
 40
0.8842844618
 40
0.8994031063
 40
0.9135765662
 40
0.92676373
 40
0.9389318366
 40
0.9500561088
 40
0.9601123685
 40
0.9690808234
 40
0.9769452734
 40
0.9836894211
 40
0.9866354278
 40
0.9892937713
 40
0.9916617509
 40
0.9937366979
 40
0.9955160278
 40
0.9969986747
 40
0.9981857443
 40
0.9990788508
 40
0.9994159665
 40
0.9996808231
 40
0.9998745476
 40
1.0
 40
1.0
 40
1.0
 40
1.0
 10
19.3511328268
 20
59.2691911431
 30
0.0
 10
19.3524288896
 20
59.2674628737
 30
0.0
 10
19.3546601777
 20
59.2624186046
 30
0.0
 10
19.3574647649
 20
59.2529818352
 30
0.0
 10
19.3602911444
 20
59.2399435626
 30
0.0
 10
19.3644788231
 20
59.2154407044
 30
0.0
 10
19.3694015611
 20
59.1756611729
 30
0.0
 10
19.3749975277
 20
59.1169908483
 30
0.0
 10
19.3806260423
 20
59.0437085905
 30
0.0
 10
19.3863149053
 20
58.9557997296
 30
0.0
 10
19.3920475525
 20
58.8532993987
 30
0.0
 10
19.3978137122
 20
58.7363120473
 30
0.0
 10
19.403602448
 20
58.6049655625
 30
0.0
 10
19.4117084733
 20
58.4015058406
 30
0.0
 10
19.4216724027
 20
58.1122345745
 30
0.0
 10
19.4331690011
 20
57.7237498783
 30
0.0
 10
19.4446818382
 20
57.2808487252
 30
0.0
 10
19.4562189901
 20
56.7845176782
 30
0.0
 10
19.4677799163
 20
56.2357696672
 30
0.0
 10
19.4793552779
 20
55.6356529779
 30
0.0
 10
19.4909334116
 20
54.9854006575
 30
0.0
 10
19.502512798
 20
54.2865746993
 30
0.0
 10
19.518412126
 20
53.2632353491
 30
0.0
 10
19.538101389
 20
51.8772570407
 30
0.0
 10
19.5611584847
 20
50.095136824
 30
0.0
 10
19.5842432228
 20
48.1663782314
 30
0.0
 10
19.607333877
 20
46.1089956004
 30
0.0
 10
19.6304407369
 20
43.9427397076
 30
0.0
 10
19.6535644085
 20
41.6883971362
 30
0.0
 10
19.676695975
 20
39.3672193516
 30
0.0
 10
19.6998305173
 20
37.0009645882
 30
0.0
 10
19.7229633602
 20
34.6121072029
 30
0.0
 10
19.7460959726
 20
32.223325712
 30
0.0
 10
19.7692292868
 20
29.8573196038
 30
0.0
 10
19.7923598045
 20
27.5366106998
 30
0.0
 10
19.8154854625
 20
25.2830152868
 30
0.0
 10
19.8385930194
 20
23.1177112218
 30
0.0
 10
19.8616831913
 20
21.0612959411
 30
0.0
 10
19.8847632311
 20
19.1336305799
 30
0.0
 10
19.90782076
 20
17.3528858885
 30
0.0
 10
19.9275148494
 20
15.9682870579
 30
0.0
 10
19.9434156675
 20
14.9461039921
 30
0.0
 10
19.9549947869
 20
14.2480444965
 30
0.0
 10
19.9665681282
 20
13.5984847042
 30
0.0
 10
19.9781366042
 20
12.9990473933
 30
0.0
 10
19.9896956342
 20
12.4510772986
 30
0.0
 10
20.0012498517
 20
11.9557068392
 30
0.0
 10
20.0127854862
 20
11.5139277741
 30
0.0
 10
20.024284489
 20
11.1266039318
 30
0.0
 10
20.0341928136
 20
10.8382587822
 30
0.0
 10
20.0422436406
 20
10.6354679932
 30
0.0
 10
20.0480059594
 20
10.5045673719
 30
0.0
 10
20.0537713137
 20
10.3879984221
 30
0.0
 10
20.0595401824
 20
10.2858958291
 30
0.0
 10
20.0653192949
 20
10.1983720829
 30
0.0
 10
20.0710875076
 20
10.1254737444
 30
0.0
 10
20.0768193052
 20
10.0672003542
 30
0.0
 10
20.0818231269
 20
10.0277667149
 30
0.0
 10
20.0860241536
 20
10.0035607822
 30
0.0
 10
20.0888205926
 20
9.9907617737
 30
0.0
 10
20.0915600311
 20
9.9815891715
 30
0.0
 10
20.093712062
 20
9.9767086371
 30
0.0
 10
20.0949702437
 20
9.9750751911
 30
0.0
  0
SPLINE
  5
2CA
100
AcDbEntity
  8
0
100
AcDbSpline
 62
7
  6
CONTINUOUS
 70
0
 71
3
 72
65
 73
61
 74
0
 42
0.0000001
 43
0.0000001
 44
0.0000000001
 40
0.0
 40
0.0
 40
0.0
 40
0.0
 40
0.0001334268
 40
0.0003353212
 40
0.0006086165
 40
0.0009545029
 40
0.0018662799
 40
0.0030736358
 40
0.0045773793
 40
0.0063760295
 40
0.0084676754
 40
0.0108503171
 40
0.0135219055
 40
0.0164803618
 40
0.0232492423
 40
0.0311390653
 40
0.0401316551
 40
0.0502083981
 40
0.0613491751
 40
0.0735334901
 40
0.086737636
 40
0.1160527024
 40
0.1489767035
 40
0.1852112902
 40
0.2244334929
 40
0.2662766043
 40
0.3103232024
 40
0.3561522447
 40
0.4033492832
 40
0.4514637292
 40
0.5000357993
 40
0.5486092877
 40
0.5967211374
 40
0.643913511
 40
0.6897438376
 40
0.7337894678
 40
0.7756298666
 40
0.8148418615
 40
0.8510722343
 40
0.8840010062
 40
0.9133056352
 40
0.9265040788
 40
0.938685393
 40
0.949821568
 40
0.9598947701
 40
0.9688878135
 40
0.9767810808
 40
0.9835516079
 40
0.9865086228
 40
0.9891764179
 40
0.9915533826
 40
0.9936385754
 40
0.9954311111
 40
0.9969301918
 40
0.9981351931
 40
0.9990459746
 40
0.9993915833
 40
0.9996647195
 40
0.9998665548
 40
1.0
 40
1.0
 40
1.0
 40
1.0
 10
14.8445245101
 20
10.9752550967
 30
0.0
 10
14.8432594521
 20
10.9769362517
 30
0.0
 10
14.8410684933
 20
10.9818359238
 30
0.0
 10
14.8382944676
 20
10.9910030331
 30
0.0
 10
14.8354811796
 20
11.0036621406
 30
0.0
 10
14.8312920553
 20
11.0274346337
 30
0.0
 10
14.8263295829
 20
11.0660069979
 30
0.0
 10
14.8206689633
 20
11.1228531366
 30
0.0
 10
14.8149765093
 20
11.1937424797
 30
0.0
 10
14.8092445107
 20
11.278606696
 30
0.0
 10
14.8034950693
 20
11.3773565591
 30
0.0
 10
14.7977317381
 20
11.4898905346
 30
0.0
 10
14.7919591794
 20
11.6161084118
 30
0.0
 10
14.7838870933
 20
11.811456557
 30
0.0
 10
14.7739575441
 20
12.0890799173
 30
0.0
 10
14.7624671697
 20
12.4618528701
 30
0.0
 10
14.7509501158
 20
12.8868072453
 30
0.0
 10
14.7394111843
 20
13.3630407492
 30
0.0
 10
14.7278573927
 20
13.8896163798
 30
0.0
 10
14.7162929768
 20
14.4655174868
 30
0.0
 10
14.7003096998
 20
15.3279706893
 30
0.0
 10
14.6805856422
 20
16.5174461896
 30
0.0
 10
14.6575845717
 20
18.070073364
 30
0.0
 10
14.6345448695
 20
19.7789376983
 30
0.0
 10
14.6114770242
 20
21.6284556861
 30
0.0
 10
14.5884024743
 20
23.6011674072
 30
0.0
 10
14.5653091051
 20
25.6780665935
 30
0.0
 10
14.5421981357
 20
27.8393947975
 30
0.0
 10
14.5190828246
 20
30.0648709822
 30
0.0
 10
14.4959645359
 20
32.3336032665
 30
0.0
 10
14.4728468579
 20
34.6240414296
 30
0.0
 10
14.4497291118
 20
36.9144386492
 30
0.0
 10
14.4266102946
 20
39.1830787894
 30
0.0
 10
14.4034927923
 20
41.4084606969
 30
0.0
 10
14.3803856896
 20
43.5697203672
 30
0.0
 10
14.3572916565
 20
45.6465817599
 30
0.0
 10
14.3342170622
 20
47.619074467
 30
0.0
 10
14.3111470162
 20
49.4683222251
 30
0.0
 10
14.2881049477
 20
51.1770343263
 30
0.0
 10
14.2651155896
 20
52.7295058584
 30
0.0
 10
14.2453838333
 20
53.9188019441
 30
0.0
 10
14.2293966611
 20
54.7809531996
 30
0.0
 10
14.2178351842
 20
55.3566445191
 30
0.0
 10
14.2062809341
 20
55.8830443799
 30
0.0
 10
14.1947409969
 20
56.3591565714
 30
0.0
 10
14.1832240069
 20
56.784116574
 30
0.0
 10
14.1717366985
 20
57.1569770829
 30
0.0
 10
14.1618094208
 20
57.4346581212
 30
0.0
 10
14.1537368257
 20
57.6299496269
 30
0.0
 10
14.1479643014
 20
57.7559952729
 30
0.0
 10
14.142200093
 20
57.8682777973
 30
0.0
 10
14.1364493764
 20
57.9667394116
 30
0.0
 10
14.1307157901
 20
58.0513312191
 30
0.0
 10
14.1250203171
 20
58.122012553
 30
0.0
 10
14.119360617
 20
58.1787317752
 30
0.0
 10
14.1144002834
 20
58.2172466737
 30
0.0
 10
14.1102118466
 20
58.24099639
 30
0.0
 10
14.1073987105
 20
58.2536474437
 30
0.0
 10
14.1046248195
 20
58.2628114315
 30
0.0
 10
14.1024341953
 20
58.2677102722
 30
0.0
 10
14.1011696271
 20
58.2693921574
 30
0.0
  0
SPLINE
  5
2CB
100
AcDbEntity
  8
0
100
AcDbSpline
 62
7
  6
CONTINUOUS
 70
0
 71
3
 72
65
 73
61
 74
0
 42
0.0000001
 43
0.0000001
 44
0.0000000001
 40
0.0
 40
0.0
 40
0.0
 40
0.0
 40
0.0001294463
 40
0.0003287113
 40
0.0006003151
 40
0.0009450497
 40
0.0018546696
 40
0.0030577128
 40
0.0045531048
 40
0.0063394429
 40
0.0084154864
 40
0.0107800985
 40
0.0134320983
 40
0.0163702763
 40
0.0231001863
 40
0.0309580957
 40
0.0399300326
 40
0.0500014361
 40
0.0611477207
 40
0.073333956
 40
0.0865248426
 40
0.1157906054
 40
0.148690428
 40
0.1849325228
 40
0.2241707027
 40
0.2660036486
 40
0.3100461689
 40
0.3558964383
 40
0.4031160755
 40
0.4512500378
 40
0.4998426607
 40
0.548439338
 40
0.5965740102
 40
0.6437957928
 40
0.6896660893
 40
0.7337347877
 40
0.7755794505
 40
0.8148144092
 40
0.8510891428
 40
0.8840399797
 40
0.9133271072
 40
0.9265173308
 40
0.938700803
 40
0.9498519174
 40
0.9599451528
 40
0.9689535498
 40
0.9768487468
 40
0.9836032259
 40
0.9865476646
 40
0.9892029827
 40
0.9915688344
 40
0.9936448977
 40
0.9954308848
 40
0.996926286
 40
0.9981302832
 40
0.999042404
 40
0.9993891765
 40
0.999663471
 40
0.9998661974
 40
1.0
 40
1.0
 40
1.0
 40
1.0
 10
26.8508441002
 20
59.2710987603
 30
0.0
 10
26.8521193362
 20
59.2693957637
 30
0.0
 10
26.8542904993
 20
59.2643534775
 30
0.0
 10
26.8570485196
 20
59.254906672
 30
0.0
 10
26.8598521483
 20
59.2417744811
 30
0.0
 10
26.864044759
 20
59.2170513544
 30
0.0
 10
26.8690201032
 20
59.176949289
 30
0.0
 10
26.87471011
 20
59.11792323
 30
0.0
 10
26.8804351113
 20
59.0444306642
 30
0.0
 10
26.8861883677
 20
58.9565593369
 30
0.0
 10
26.8919479056
 20
58.8543752992
 30
0.0
 10
26.8977135094
 20
58.7379447033
 30
0.0
 10
26.9034833315
 20
58.6073291183
 30
0.0
 10
26.9115517608
 20
58.4050003479
 30
0.0
 10
26.9214812126
 20
58.117117811
 30
0.0
 10
26.932980402
 20
57.7300669016
 30
0.0
 10
26.9445106932
 20
57.2880759501
 30
0.0
 10
26.9560550993
 20
56.792022537
 30
0.0
 10
26.9676060596
 20
56.2431272604
 30
0.0
 10
26.9791692237
 20
55.6429510967
 30
0.0
 10
26.9951592215
 20
54.744999838
 30
0.0
 10
27.014911849
 20
53.506620937
 30
0.0
 10
27.0379282857
 20
51.8893863456
 30
0.0
 10
27.0609744783
 20
50.1082336541
 30
0.0
 10
27.0840371482
 20
48.1802479612
 30
0.0
 10
27.1071330834
 20
46.1240487665
 30
0.0
 10
27.1302456279
 20
43.959169058
 30
0.0
 10
27.1533666489
 20
41.7057506514
 30
0.0
 10
27.1764889584
 20
39.3850831849
 30
0.0
 10
27.1996158265
 20
37.0193411184
 30
0.0
 10
27.2227480834
 20
34.6309654386
 30
0.0
 10
27.2458820938
 20
32.2425781082
 30
0.0
 10
27.2690139622
 20
29.8767225177
 30
0.0
 10
27.292139427
 20
27.5556789775
 30
0.0
 10
27.315251815
 20
25.3014657654
 30
0.0
 10
27.3383615093
 20
23.1356339825
 30
0.0
 10
27.3614609033
 20
21.0788648985
 30
0.0
 10
27.3845402225
 20
19.1502032864
 30
0.0
 10
27.4075790262
 20
17.3677284513
 30
0.0
 10
27.4305746489
 20
15.7487673493
 30
0.0
 10
27.4503323215
 20
14.5092096533
 30
0.0
 10
27.4663334639
 20
13.6109637076
 30
0.0
 10
27.4779043143
 20
13.0107646171
 30
0.0
 10
27.4894605504
 20
12.4614765912
 30
0.0
 10
27.5009931846
 20
11.9643852059
 30
0.0
 10
27.5125000832
 20
11.5208222239
 30
0.0
 10
27.5239870608
 20
11.1321542991
 30
0.0
 10
27.533953858
 20
10.8431527091
 30
0.0
 10
27.5420678147
 20
10.6402640529
 30
0.0
 10
27.5478582943
 20
10.5094714094
 30
0.0
 10
27.5536269416
 20
10.392965664
 30
0.0
 10
27.5593634553
 20
10.2907654696
 30
0.0
 10
27.5650556581
 20
10.2028956155
 30
0.0
 10
27.5706825907
 20
10.1293856986
 30
0.0
 10
27.5762768683
 20
10.0702931147
 30
0.0
 10
27.5811963411
 20
10.0300936535
 30
0.0
 10
27.5853813437
 20
10.0052474645
 30
0.0
 10
27.588209004
 20
9.991984487
 30
0.0
 10
27.5910166221
 20
9.9823676079
 30
0.0
 10
27.5932474979
 20
9.9772159752
 30
0.0
 10
27.5945487978
 20
9.9754431745
 30
0.0
  0
SPLINE
  5
2CC
100
AcDbEntity
  8
0
100
AcDbSpline
 62
7
  6
CONTINUOUS
 70
0
 71
3
 72
26
 73
22
 74
0
 42
0.0000001
 43
0.0000001
 44
0.0000000001
 40
0.0
 40
0.0
 40
0.0
 40
0.0
 40
0.0004609946
 40
0.0014192255
 40
0.0050400351
 40
0.0109809081
 40
0.0192441109
 40
0.0298218674
 40
0.0427028672
 40
0.0578612915
 40
0.0752591402
 40
0.1166182485
 40
0.1664629903
 40
0.2243651627
 40
0.2898055354
 40
0.3622352152
 40
0.4409580843
 40
0.5252274385
 40
0.6142620953
 40
0.8032072695
 40
1.0
 40
1.0
 40
1.0
 40
1.0
 10
41.5983125923
 20
29.5917446824
 30
0.0
 10
41.5983125923
 20
29.5919753328
 30
0.0
 10
41.5976193962
 20
29.5924863295
 30
0.0
 10
41.5953435137
 20
29.5932045531
 30
0.0
 10
41.5900234965
 20
29.594192915
 30
0.0
 10
41.5812464788
 20
29.595242632
 30
0.0
 10
41.5688652811
 20
29.5964004858
 30
0.0
 10
41.5530510042
 20
29.5975836762
 30
0.0
 10
41.5337632555
 20
29.5988079117
 30
0.0
 10
41.5110652967
 20
29.6000565055
 30
0.0
 10
41.4741259228
 20
29.6018547224
 30
0.0
 10
41.4198341398
 20
29.6040762274
 30
0.0
 10
41.3452749012
 20
29.6066318414
 30
0.0
 10
41.2586601909
 20
29.6091540925
 30
0.0
 10
41.1607391715
 20
29.6115926084
 30
0.0
 10
41.0523949816
 20
29.6138923189
 30
0.0
 10
40.9346246708
 20
29.6160081319
 30
0.0
 10
40.808541421
 20
29.6178914428
 30
0.0
 10
40.6273095001
 20
29.6200765184
 30
0.0
 10
40.3897716945
 20
29.621943259
 30
0.0
 10
40.1967743035
 20
29.6224489796
 30
0.0
 10
40.0983125923
 20
29.6224489796
 30
0.0
  0
SPLINE
  5
2CD
100
AcDbEntity
  8
0
100
AcDbSpline
 62
7
  6
CONTINUOUS
 70
0
 71
3
 72
67
 73
63
 74
0
 42
0.0000001
 43
0.0000001
 44
0.0000000001
 40
0.0
 40
0.0
 40
0.0
 40
0.0
 40
0.0001282625
 40
0.0003249854
 40
0.0005929027
 40
0.0009330164
 40
0.0018314079
 40
0.0030219029
 40
0.0045050079
 40
0.0062808077
 40
0.0083485779
 40
0.0107071007
 40
0.0133551201
 40
0.0162913615
 40
0.0230232476
 40
0.0308880752
 40
0.0398653918
 40
0.049934119
 40
0.0610692401
 40
0.073241326
 40
0.0864206897
 40
0.1156811882
 40
0.1485993936
 40
0.1848474837
 40
0.2240684938
 40
0.2659081099
 40
0.3099674678
 40
0.3558251172
 40
0.4030496061
 40
0.4511925758
 40
0.4997969727
 40
0.5484026344
 40
0.5965522335
 40
0.6437877747
 40
0.6896566626
 40
0.711943872
 40
0.7337292653
 40
0.7755897691
 40
0.8148393908
 40
0.8511080122
 40
0.8840483235
 40
0.8991694031
 40
0.9133453688
 40
0.9265436359
 40
0.9387331208
 40
0.9498844407
 40
0.959968511
 40
0.9689607019
 40
0.976840611
 40
0.9835884553
 40
0.9865333438
 40
0.9891907904
 40
0.9915597892
 40
0.9936393629
 40
0.9954285809
 40
0.9969264896
 40
0.9981321139
 40
0.9990448425
 40
0.9993914913
 40
0.9996653497
 40
0.9998673067
 40
1.0
 40
1.0
 40
1.0
 40
1.0
 10
17.8507666332
 20
59.2700910402
 30
0.0
 10
17.8520301858
 20
59.2684035831
 30
0.0
 10
17.8541834154
 20
59.2634217337
 30
0.0
 10
17.8569041273
 20
59.254089533
 30
0.0
 10
17.8596601396
 20
59.2411300145
 30
0.0
 10
17.8637722766
 20
59.216718469
 30
0.0
 10
17.8686473035
 20
59.1770745365
 30
0.0
 10
17.8742475463
 20
59.1186351236
 30
0.0
 10
17.8799387487
 20
59.0457229205
 30
0.0
 10
17.8857518
 20
58.9583673963
 30
0.0
 10
17.8916501638
 20
58.8566005861
 30
0.0
 10
17.8975976266
 20
58.7404801869
 30
0.0
 10
17.9035601218
 20
58.6100698277
 30
0.0
 10
17.9118726748
 20
58.4078142306
 30
0.0
 10
17.9219111728
 20
58.1198182721
 30
0.0
 10
17.9332023504
 20
57.7325235584
 30
0.0
 10
17.9444212567
 20
57.2903633705
 30
0.0
 10
17.9557285961
 20
56.7944402442
 30
0.0
 10
17.9672071596
 20
56.2459998347
 30
0.0
 10
17.9788217947
 20
55.6464260567
 30
0.0
 10
17.995065567
 20
54.7489816937
 30
0.0
 10
18.0152979741
 20
53.510575461
 30
0.0
 10
18.0381860366
 20
51.8930131044
 30
0.0
 10
18.0606528701
 20
50.111722044
 30
0.0
 10
18.0832870635
 20
48.1837920203
 30
0.0
 10
18.107685553
 20
46.1274893577
 30
0.0
 10
18.1310043169
 20
43.9620884303
 30
0.0
 10
18.1524878064
 20
41.7081600997
 30
0.0
 10
18.1761153092
 20
39.3871323631
 30
0.0
 10
18.1999929174
 20
37.0209598685
 30
0.0
 10
18.2231770239
 20
34.6320786806
 30
0.0
 10
18.2458823565
 20
32.243083986
 30
0.0
 10
18.2685970612
 20
29.876588639
 30
0.0
 10
18.2918341131
 20
27.5550814842
 30
0.0
 10
18.3121289151
 20
25.6586358679
 30
0.0
 10
18.3277893495
 20
24.1804582469
 30
0.0
 10
18.3424686474
 20
22.7681550536
 30
0.0
 10
18.3605613806
 20
21.0770808552
 30
0.0
 10
18.3846800509
 20
19.1480170476
 30
0.0
 10
18.4082372541
 20
17.3655694058
 30
0.0
 10
18.4275218102
 20
15.9796718109
 30
0.0
 10
18.4429479805
 20
14.9568671067
 30
0.0
 10
18.4542789563
 20
14.2585142481
 30
0.0
 10
18.4659036229
 20
13.6083563415
 30
0.0
 10
18.4778235733
 20
13.0079252949
 30
0.0
 10
18.4897801989
 20
12.4586904653
 30
0.0
 10
18.5015167856
 20
11.9620142825
 30
0.0
 10
18.5129629049
 20
11.5191153128
 30
0.0
 10
18.524246894
 20
11.1310658401
 30
0.0
 10
18.5339837017
 20
10.8424076282
 30
0.0
 10
18.5419270762
 20
10.6395775226
 30
0.0
 10
18.5476177554
 20
10.5086853757
 30
0.0
 10
18.5533167179
 20
10.392030764
 30
0.0
 10
18.5590229554
 20
10.2896652782
 30
0.0
 10
18.5647366169
 20
10.2016436841
 30
0.0
 10
18.5704387668
 20
10.1280172818
 30
0.0
 10
18.5761334657
 20
10.0688554497
 30
0.0
 10
18.5811442334
 20
10.0286313701
 30
0.0
 10
18.5853933974
 20
10.0037953996
 30
0.0
 10
18.5882533151
 20
9.9905608575
 30
0.0
 10
18.5910805449
 20
9.9809907312
 30
0.0
 10
18.5933177187
 20
9.9758731639
 30
0.0
 10
18.5946217424
 20
9.9741250397
 30
0.0
  0
SPLINE
  5
2CE
100
AcDbEntity
  8
0
100
AcDbSpline
 62
7
  6
CONTINUOUS
 70
0
 71
3
 72
67
 73
63
 74
0
 42
0.0000001
 43
0.0000001
 44
0.0000000001
 40
0.0
 40
0.0
 40
0.0
 40
0.0
 40
0.0001282625
 40
0.0003249854
 40
0.0005929027
 40
0.0009330164
 40
0.0018314079
 40
0.0030219029
 40
0.0045050079
 40
0.0062808077
 40
0.0083485779
 40
0.0107071007
 40
0.0133551201
 40
0.0162913615
 40
0.0230232476
 40
0.0308880752
 40
0.0398653918
 40
0.049934119
 40
0.0610692401
 40
0.073241326
 40
0.0864206897
 40
0.1156811882
 40
0.1485993936
 40
0.1848474837
 40
0.2240684938
 40
0.2659081099
 40
0.3099674678
 40
0.3558251172
 40
0.4030496061
 40
0.4511925758
 40
0.4997969727
 40
0.5484026344
 40
0.5965522335
 40
0.6437877747
 40
0.6896566626
 40
0.711943872
 40
0.7337292653
 40
0.7755897691
 40
0.8148393908
 40
0.8511080122
 40
0.8840483235
 40
0.8991694031
 40
0.9133453688
 40
0.9265436359
 40
0.9387331208
 40
0.9498844407
 40
0.959968511
 40
0.9689607019
 40
0.976840611
 40
0.9835884553
 40
0.9865333438
 40
0.9891907904
 40
0.9915597892
 40
0.9936393629
 40
0.9954285809
 40
0.9969264896
 40
0.9981321139
 40
0.9990448425
 40
0.9993914913
 40
0.9996653497
 40
0.9998673067
 40
1.0
 40
1.0
 40
1.0
 40
1.0
 10
23.8507666332
 20
59.2700910401
 30
0.0
 10
23.8520301858
 20
59.2684035831
 30
0.0
 10
23.8541834154
 20
59.2634217337
 30
0.0
 10
23.8569041273
 20
59.254089533
 30
0.0
 10
23.8596601396
 20
59.2411300145
 30
0.0
 10
23.8637722766
 20
59.216718469
 30
0.0
 10
23.8686473035
 20
59.1770745365
 30
0.0
 10
23.8742475463
 20
59.1186351236
 30
0.0
 10
23.8799387487
 20
59.0457229205
 30
0.0
 10
23.8857518
 20
58.9583673963
 30
0.0
 10
23.8916501638
 20
58.8566005861
 30
0.0
 10
23.8975976266
 20
58.7404801869
 30
0.0
 10
23.9035601218
 20
58.6100698277
 30
0.0
 10
23.9118726748
 20
58.4078142306
 30
0.0
 10
23.9219111728
 20
58.1198182721
 30
0.0
 10
23.9332023503
 20
57.7325235584
 30
0.0
 10
23.9444212567
 20
57.2903633705
 30
0.0
 10
23.9557285961
 20
56.7944402442
 30
0.0
 10
23.9672071596
 20
56.2459998347
 30
0.0
 10
23.9788217947
 20
55.6464260568
 30
0.0
 10
23.995065567
 20
54.7489816937
 30
0.0
 10
24.0152979741
 20
53.510575461
 30
0.0
 10
24.0381860366
 20
51.8930131045
 30
0.0
 10
24.0606528701
 20
50.111722044
 30
0.0
 10
24.0832870635
 20
48.1837920203
 30
0.0
 10
24.107685553
 20
46.1274893577
 30
0.0
 10
24.1310043169
 20
43.9620884303
 30
0.0
 10
24.1524878063
 20
41.7081600997
 30
0.0
 10
24.1761153092
 20
39.3871323631
 30
0.0
 10
24.1999929174
 20
37.0209598685
 30
0.0
 10
24.2231770238
 20
34.6320786806
 30
0.0
 10
24.2458823565
 20
32.243083986
 30
0.0
 10
24.2685970612
 20
29.876588639
 30
0.0
 10
24.2918341131
 20
27.5550814843
 30
0.0
 10
24.3121289151
 20
25.6586358679
 30
0.0
 10
24.3277893495
 20
24.1804582469
 30
0.0
 10
24.3424686474
 20
22.7681550536
 30
0.0
 10
24.3605613806
 20
21.0770808552
 30
0.0
 10
24.3846800509
 20
19.1480170477
 30
0.0
 10
24.4082372541
 20
17.3655694058
 30
0.0
 10
24.4275218102
 20
15.979671811
 30
0.0
 10
24.4429479805
 20
14.9568671067
 30
0.0
 10
24.4542789563
 20
14.2585142481
 30
0.0
 10
24.4659036229
 20
13.6083563415
 30
0.0
 10
24.4778235733
 20
13.0079252949
 30
0.0
 10
24.4897801989
 20
12.4586904653
 30
0.0
 10
24.5015167856
 20
11.9620142825
 30
0.0
 10
24.5129629049
 20
11.5191153128
 30
0.0
 10
24.524246894
 20
11.1310658401
 30
0.0
 10
24.5339837017
 20
10.8424076282
 30
0.0
 10
24.5419270762
 20
10.6395775226
 30
0.0
 10
24.5476177554
 20
10.5086853757
 30
0.0
 10
24.5533167179
 20
10.392030764
 30
0.0
 10
24.5590229553
 20
10.2896652782
 30
0.0
 10
24.5647366169
 20
10.2016436841
 30
0.0
 10
24.5704387668
 20
10.1280172818
 30
0.0
 10
24.5761334657
 20
10.0688554497
 30
0.0
 10
24.5811442334
 20
10.0286313701
 30
0.0
 10
24.5853933974
 20
10.0037953996
 30
0.0
 10
24.5882533151
 20
9.9905608575
 30
0.0
 10
24.5910805449
 20
9.9809907312
 30
0.0
 10
24.5933177187
 20
9.9758731639
 30
0.0
 10
24.5946217424
 20
9.9741250397
 30
0.0
  0
SPLINE
  5
2CF
100
AcDbEntity
  8
0
100
AcDbSpline
 62
7
  6
CONTINUOUS
 70
0
 71
3
 72
15
 73
11
 74
0
 42
0.0000001
 43
0.0000001
 44
0.0000000001
 40
0.0
 40
0.0
 40
0.0
 40
0.0
 40
0.0932274207
 40
0.192365254
 40
0.3012645518
 40
0.4218905649
 40
0.5541957492
 40
0.6965564986
 40
0.8463897609
 40
1.0
 40
1.0
 40
1.0
 40
1.0
 10
41.5983125923
 20
22.8010478425
 30
0.0
 10
41.5983125923
 20
22.7411767897
 30
0.0
 10
41.5777956296
 20
22.6169030767
 30
0.0
 10
41.4896505736
 20
22.4419789636
 30
0.0
 10
41.3489166192
 20
22.282143532
 30
0.0
 10
41.1615136128
 20
22.1424512374
 30
0.0
 10
40.9339056144
 20
22.0276186705
 30
0.0
 10
40.6741787726
 20
21.9418813182
 30
0.0
 10
40.3920513021
 20
21.888958867
 30
0.0
 10
40.1969617522
 20
21.8770287091
 30
0.0
 10
40.0983125923
 20
21.8770287091
 30
0.0
  0
SPLINE
  5
2D0
100
AcDbEntity
  8
0
100
AcDbSpline
 62
7
  6
CONTINUOUS
 70
0
 71
3
 72
67
 73
63
 74
0
 42
0.0000001
 43
0.0000001
 44
0.0000000001
 40
0.0
 40
0.0
 40
0.0
 40
0.0
 40
0.0001314406
 40
0.0003305256
 40
0.0006002531
 40
0.0009418662
 40
0.0018431808
 40
0.0030378473
 40
0.0045279223
 40
0.0063148826
 40
0.0083978099
 40
0.0107742265
 40
0.0134415854
 40
0.0163973146
 40
0.0231635272
 40
0.0310526164
 40
0.0400449601
 40
0.0501209069
 40
0.0612600113
 40
0.0734409237
 40
0.0866417866
 40
0.100830877
 40
0.1159668211
 40
0.1489143814
 40
0.1851692083
 40
0.2244089924
 40
0.2662781003
 40
0.3103585425
 40
0.3562223386
 40
0.4034508009
 40
0.4515976305
 40
0.5002040047
 40
0.5488076579
 40
0.5969498698
 40
0.6441705413
 40
0.6900182176
 40
0.7340771131
 40
0.7759259773
 40
0.8151486968
 40
0.8513743156
 40
0.8842844618
 40
0.8994031063
 40
0.9135765662
 40
0.92676373
 40
0.9389318366
 40
0.9500561088
 40
0.9601123685
 40
0.9690808234
 40
0.9769452734
 40
0.9836894211
 40
0.9866354278
 40
0.9892937713
 40
0.9916617509
 40
0.9937366979
 40
0.9955160278
 40
0.9969986747
 40
0.9981857443
 40
0.9990788508
 40
0.9994159665
 40
0.9996808231
 40
0.9998745476
 40
1.0
 40
1.0
 40
1.0
 40
1.0
 10
25.3511328268
 20
59.2691911431
 30
0.0
 10
25.3524288896
 20
59.2674628737
 30
0.0
 10
25.3546601777
 20
59.2624186046
 30
0.0
 10
25.3574647649
 20
59.2529818352
 30
0.0
 10
25.3602911444
 20
59.2399435626
 30
0.0
 10
25.3644788231
 20
59.2154407044
 30
0.0
 10
25.3694015611
 20
59.1756611729
 30
0.0
 10
25.3749975277
 20
59.1169908483
 30
0.0
 10
25.3806260423
 20
59.0437085905
 30
0.0
 10
25.3863149053
 20
58.9557997296
 30
0.0
 10
25.3920475524
 20
58.8532993987
 30
0.0
 10
25.3978137122
 20
58.7363120473
 30
0.0
 10
25.403602448
 20
58.6049655625
 30
0.0
 10
25.4117084733
 20
58.4015058406
 30
0.0
 10
25.4216724027
 20
58.1122345745
 30
0.0
 10
25.4331690011
 20
57.7237498783
 30
0.0
 10
25.4446818381
 20
57.2808487252
 30
0.0
 10
25.4562189901
 20
56.7845176782
 30
0.0
 10
25.4677799162
 20
56.2357696672
 30
0.0
 10
25.4793552778
 20
55.6356529779
 30
0.0
 10
25.4909334116
 20
54.9854006575
 30
0.0
 10
25.5025127979
 20
54.2865746993
 30
0.0
 10
25.5184121259
 20
53.2632353491
 30
0.0
 10
25.538101389
 20
51.8772570407
 30
0.0
 10
25.5611584847
 20
50.0951368241
 30
0.0
 10
25.5842432228
 20
48.1663782314
 30
0.0
 10
25.607333877
 20
46.1089956004
 30
0.0
 10
25.6304407369
 20
43.9427397076
 30
0.0
 10
25.6535644085
 20
41.6883971362
 30
0.0
 10
25.676695975
 20
39.3672193516
 30
0.0
 10
25.6998305173
 20
37.0009645882
 30
0.0
 10
25.7229633602
 20
34.6121072029
 30
0.0
 10
25.7460959726
 20
32.223325712
 30
0.0
 10
25.7692292868
 20
29.8573196039
 30
0.0
 10
25.7923598045
 20
27.5366106998
 30
0.0
 10
25.8154854625
 20
25.2830152868
 30
0.0
 10
25.8385930194
 20
23.1177112218
 30
0.0
 10
25.8616831913
 20
21.0612959411
 30
0.0
 10
25.8847632311
 20
19.13363058
 30
0.0
 10
25.90782076
 20
17.3528858885
 30
0.0
 10
25.9275148494
 20
15.9682870579
 30
0.0
 10
25.9434156675
 20
14.9461039921
 30
0.0
 10
25.9549947869
 20
14.2480444965
 30
0.0
 10
25.9665681282
 20
13.5984847042
 30
0.0
 10
25.9781366042
 20
12.9990473933
 30
0.0
 10
25.9896956342
 20
12.4510772986
 30
0.0
 10
26.0012498517
 20
11.9557068393
 30
0.0
 10
26.0127854862
 20
11.5139277741
 30
0.0
 10
26.024284489
 20
11.1266039318
 30
0.0
 10
26.0341928136
 20
10.8382587822
 30
0.0
 10
26.0422436405
 20
10.6354679932
 30
0.0
 10
26.0480059593
 20
10.5045673719
 30
0.0
 10
26.0537713137
 20
10.3879984221
 30
0.0
 10
26.0595401824
 20
10.2858958291
 30
0.0
 10
26.0653192949
 20
10.1983720829
 30
0.0
 10
26.0710875076
 20
10.1254737444
 30
0.0
 10
26.0768193052
 20
10.0672003542
 30
0.0
 10
26.0818231269
 20
10.0277667149
 30
0.0
 10
26.0860241536
 20
10.0035607822
 30
0.0
 10
26.0888205925
 20
9.9907617737
 30
0.0
 10
26.0915600311
 20
9.9815891715
 30
0.0
 10
26.093712062
 20
9.9767086371
 30
0.0
 10
26.0949702437
 20
9.9750751911
 30
0.0
  0
ENDSEC
  0
SECTION
  2
OBJECTS
  0
DICTIONARY
  5
C
100
AcDbDictionary
280
0
281
1
  3
ACAD_GROUP
350
D
  3
ACAD_MLINESTYLE
350
17
  3
ACAD_LAYOUT
350
1A
  3
ACAD_PLOTSETTINGS
350
19
  3
ACAD_PLOTSTYLENAME
350
E
  0
DICTIONARY
  5
D
102
{ACAD_REACTORS
330
C
102
}
100
AcDbDictionary
280
0
281
1
  0
ACDBDICTIONARYWDFLT
  5
E
102
{ACAD_REACTORS
330
C
102
}
100
AcDbDictionary
281
1
  3
Normal
350
F
100
AcDbDictionaryWithDefault
340
F
  0
DICTIONARY
  5
17
102
{ACAD_REACTORS
330
C
102
}
100
AcDbDictionary
280
0
281
1
  3
Standard
350
18
  0
DICTIONARY
  5
19
102
{ACAD_REACTORS
330
C
102
}
100
AcDbDictionary
281
1
  0
DICTIONARY
  5
1A
102
{ACAD_REACTORS
330
C
102
}
100
AcDbDictionary
281
1
  3
Model
350
2D1
  3
Layout1
350
2D2
  0
ACDBPLACEHOLDER
  5
F
102
{ACAD_REACTORS
330
E
102
}
  0
MLINESTYLE
  5
18
102
{ACAD_REACTORS
330
17
102
}
100
AcDbMlineStyle
  2
STANDARD
 70
0
  3

 62
256
 51
90.0
 52
90.0
 71
2
 49
0.5
 62
256
  6
BYLAYER
 49
-0.5
 62
256
  6
BYLAYER
  0
LAYOUT
  5
2D1
102
{ACAD_REACTORS
330
1A
102
}
100
AcDbPlotSettings
  1

  2
none_device
  4

  6

 40
0.0
 41
0.0
 42
0.0
 43
0.0
 44
210.0
 45
297.0
 46
0.0
 47
0.0
 48
0.0
 49
0.0
140
0.0
141
0.0
142
1.0
143
1.0
 70
1024
 72
1
 73
0
 74
0
  7

 75
0
147
1.0
148
0.0
149
0.0
100
AcDbLayout
  1
Model
 70
0
 71
0
 10
0.0
 20
0.0
 11
210.0
 21
297.0
 12
0.0
 22
0.0
 32
0.0
 14
0.0
 24
0.0
 34
0.0
 15
0.0
 25
0.0
 35
0.0
146
0.0
 13
0.0
 23
0.0
 33
0.0
 16
1.0
 26
0.0
 36
0.0
 17
0.0
 27
1.0
 37
0.0
 76
0
330
210
345
0
346
0
  0
LAYOUT
  5
2D2
102
{ACAD_REACTORS
330
1A
102
}
100
AcDbPlotSettings
  1

  2
none_device
  4

  6

 40
0.0
 41
0.0
 42
0.0
 43
0.0
 44
210.0
 45
297.0
 46
0.0
 47
0.0
 48
0.0
 49
0.0
140
0.0
141
0.0
142
1.0
143
1.0
 70
0
 72
1
 73
0
 74
0
  7

 75
0
147
1.0
148
0.0
149
0.0
100
AcDbLayout
  1
Layout1
 70
0
 71
1
 10
0.0
 20
0.0
 11
210.0
 21
297.0
 12
0.0
 22
0.0
 32
0.0
 14
0.0
 24
0.0
 34
0.0
 15
0.0
 25
0.0
 35
0.0
146
0.0
 13
0.0
 23
0.0
 33
0.0
 16
1.0
 26
0.0
 36
0.0
 17
0.0
 27
1.0
 37
0.0
 76
0
330
211
345
0
346
0
  0
ENDSEC
  0
EOF
