999
DXF file: C:\Users\sesa63760\Dev\_Creo\CAD\MCADID0005533_3D-CAD\drw0001_1.dxf
999
Pro/ENGINEER 2019471 by Parametric Technology Corporation
  0
SECTION
  2
HEADER
  9
$ACADVER
  1
AC1024
  9
$DWGCODEPAGE
  3
ANSI_1252
  9
$EXTMAX
 10
80.7248869275
 20
114.1680543689
 30
0.0
  9
$EXTMIN
 10
0.0
 20
0.0
 30
0.0
  9
$LIMMIN
 10
0.0
 20
0.0
  9
$LIMMAX
 10
80.7248869275
 20
114.1680543689
  9
$VIEWCTR
 10
40.3624434637
 20
57.0840271844
  9
$VIEWSIZE
 40
114.1680543689
  9
$CLAYER
  8
0
  9
$LTSCALE
 40
7.4420657663
  9
$CELTYPE
  6
BYLAYER
  9
$DIMSCALE
 40
1.0
  9
$DIMASZ
 40
0.9610105587
  9
$DIMEXO
 40
1.0
  9
$DIMDLI
 40
5.1417908931
  9
$DIMEXE
 40
1.0
  9
$DIMCEN
 40
1.2177925799
  9
$DIMLFAC
 40
1.0
  9
$DIMBLK
  1
_FILLED
  9
$DIMALT
 70
0
  9
$DIMALTF
 40
0.0393700787
  9
$DIMTXT
 40
1.3454147821
  9
$DIMTOL
 70
1
  9
$DIMLIM
 70
0
  9
$DIMTFAC
 40
1.0
  9
$DIMTP
 40
0.01
  9
$DIMTM
 40
0.01
  9
$DIMGAP
 40
0.625
  9
$DIMDSEP
 70
46
  9
$AUNITS
 70
0
  9
$PDMODE
 70
3
  9
$PDSIZE
 40
0.3125
  9
$HANDSEED
  5
355
  9
$TILEMODE
 70
1
  9
$MEASUREMENT
 70
1
  9
$INSUNITS
 70
4
  0
ENDSEC
  0
SECTION
  2
CLASSES
  0
CLASS
  1
ACDBDICTIONARYWDFLT
  2
AcDbDictionaryWithDefault
  3
AutoCAD 2000
 90
0
 91
1
280
0
281
0
  0
CLASS
  1
ACDBPLACEHOLDER
  2
AcDbPlaceHolder
  3
AutoCAD 2000
 90
0
 91
1
280
0
281
0
  0
CLASS
  1
LAYOUT
  2
AcDbLayout
  3
AutoCAD 2000
 90
0
 91
0
280
0
281
0
  0
ENDSEC
  0
SECTION
  2
TABLES
  0
TABLE
  2
VPORT
  5
8
100
AcDbSymbolTable
 70
2
  0
VPORT
  5
1F4
100
AcDbSymbolTableRecord
100
AcDbViewportTableRecord
  2
*ACTIVE
 70
0
 10
0.0
 20
0.0
 11
1.0
 21
1.0
 12
40.3624434637
 22
57.0840271844
 13
0.0
 23
0.0
 14
1.0
 24
1.0
 15
0.0
 25
0.0
 16
0.0
 26
0.0
 36
1.0
 17
0.0
 27
0.0
 37
0.0
 40
114.1680543689
 41
0.7070707071
 42
50.0
 43
0.0
 44
0.0
 50
0.0
 51
0.0
 71
0
 72
100
 73
1
 74
1
 75
0
 76
0
 77
0
 78
0
  0
ENDTAB
  0
TABLE
  2
LTYPE
  5
5
100
AcDbSymbolTable
 70
6
  0
LTYPE
  5
14
100
AcDbSymbolTableRecord
100
AcDbLinetypeTableRecord
  2
BYBLOCK
 70
0
  3

 72
65
 73
0
 40
0.0
  0
LTYPE
  5
15
100
AcDbSymbolTableRecord
100
AcDbLinetypeTableRecord
  2
BYLAYER
 70
0
  3

 72
65
 73
0
 40
0.0
  0
LTYPE
  5
16
100
AcDbSymbolTableRecord
100
AcDbLinetypeTableRecord
  2
CONTINUOUS
 70
64
  3
Solid line
 72
65
 73
0
 40
0.0
  0
LTYPE
  5
1F5
100
AcDbSymbolTableRecord
100
AcDbLinetypeTableRecord
  2
CENTER
 70
64
  3
____ _ ____ _ ____ _ ____ _ ____ _ ____ _ ____
 72
65
 73
4
 40
0.6
 49
0.375
 74
0
 49
-0.075
 74
0
 49
0.075
 74
0
 49
-0.075
 74
0
  0
LTYPE
  5
1F6
100
AcDbSymbolTableRecord
100
AcDbLinetypeTableRecord
  2
HIDDEN
 70
64
  3
- - - - - - - - - - - - - - - - - - - -
 72
65
 73
2
 40
0.2
 49
0.1
 74
0
 49
-0.1
 74
0
  0
LTYPE
  5
1F7
100
AcDbSymbolTableRecord
100
AcDbLinetypeTableRecord
  2
PHANTOM
 70
64
  3
_____ _ _ _____ _ _ _____ _ _ _____
 72
65
 73
6
 40
0.8
 49
0.45
 74
0
 49
-0.05
 74
0
 49
0.1
 74
0
 49
-0.05
 74
0
 49
0.1
 74
0
 49
-0.05
 74
0
  0
LTYPE
  5
1F8
100
AcDbSymbolTableRecord
100
AcDbLinetypeTableRecord
  2
DOT
 70
64
  3
. . . . . . . . . . . . . . . . . . . .
 72
65
 73
2
 40
0.2
 49
0.1
 74
0
 49
-0.1
 74
0
  0
LTYPE
  5
1F9
100
AcDbSymbolTableRecord
100
AcDbLinetypeTableRecord
  2
DASHED
 70
64
  3
- - - - - - - - - - - - - - - - - - - -
 72
65
 73
2
 40
0.2
 49
0.1
 74
0
 49
-0.1
 74
0
  0
ENDTAB
  0
TABLE
  2
LAYER
  5
2
100
AcDbSymbolTable
 70
36
  0
LAYER
  5
10
100
AcDbSymbolTableRecord
100
AcDbLayerTableRecord
  2
0
 70
0
 62
7
  6
CONTINUOUS
370
-3
390
F
  0
LAYER
  5
1FA
100
AcDbSymbolTableRecord
100
AcDbLayerTableRecord
  2
DEFAULT_1
 70
0
 62
7
  6
CENTER
370
-3
390
F
  0
LAYER
  5
1FB
100
AcDbSymbolTableRecord
100
AcDbLayerTableRecord
  2
DEFAULT_2
 70
0
 62
7
  6
HIDDEN
370
-3
390
F
  0
LAYER
  5
1FC
100
AcDbSymbolTableRecord
100
AcDbLayerTableRecord
  2
DEFAULT_3
 70
0
 62
7
  6
PHANTOM
370
-3
390
F
  0
LAYER
  5
1FD
100
AcDbSymbolTableRecord
100
AcDbLayerTableRecord
  2
00_COMPONENTS
 70
0
 62
7
  6
CONTINUOUS
370
-3
390
F
  0
LAYER
  5
1FE
100
AcDbSymbolTableRecord
100
AcDbLayerTableRecord
  2
01_1_DEFAULT_DATUMS
 70
0
 62
7
  6
CONTINUOUS
370
-3
390
F
  0
LAYER
  5
1FF
100
AcDbSymbolTableRecord
100
AcDbLayerTableRecord
  2
01_PLANES
 70
0
 62
7
  6
CONTINUOUS
370
-3
390
F
  0
LAYER
  5
200
100
AcDbSymbolTableRecord
100
AcDbLayerTableRecord
  2
02_COORD_SYS
 70
0
 62
7
  6
CONTINUOUS
370
-3
390
F
  0
LAYER
  5
201
100
AcDbSymbolTableRecord
100
AcDbLayerTableRecord
  2
03_AXES
 70
0
 62
7
  6
CONTINUOUS
370
-3
390
F
  0
LAYER
  5
202
100
AcDbSymbolTableRecord
100
AcDbLayerTableRecord
  2
04_POINTS
 70
0
 62
7
  6
CONTINUOUS
370
-3
390
F
  0
LAYER
  5
203
100
AcDbSymbolTableRecord
100
AcDbLayerTableRecord
  2
05_CURVES
 70
0
 62
7
  6
CONTINUOUS
370
-3
390
F
  0
LAYER
  5
204
100
AcDbSymbolTableRecord
100
AcDbLayerTableRecord
  2
06_SURFS
 70
0
 62
7
  6
CONTINUOUS
370
-3
390
F
  0
LAYER
  5
205
100
AcDbSymbolTableRecord
100
AcDbLayerTableRecord
  2
07_COSMETICS
 70
0
 62
7
  6
CONTINUOUS
370
-3
390
F
  0
LAYER
  5
206
100
AcDbSymbolTableRecord
100
AcDbLayerTableRecord
  2
10_NOTES
 70
0
 62
7
  6
CONTINUOUS
370
-3
390
F
  0
LAYER
  5
207
100
AcDbSymbolTableRecord
100
AcDbLayerTableRecord
  2
11_NOTES_PUB
 70
0
 62
7
  6
CONTINUOUS
370
-3
390
F
  0
LAYER
  5
208
100
AcDbSymbolTableRecord
100
AcDbLayerTableRecord
  2
13_REF_GTOL
 70
0
 62
7
  6
CONTINUOUS
370
-3
390
F
  0
LAYER
  5
209
100
AcDbSymbolTableRecord
100
AcDbLayerTableRecord
  2
16_MISC
 70
0
 62
7
  6
CONTINUOUS
370
-3
390
F
  0
LAYER
  5
20A
100
AcDbSymbolTableRecord
100
AcDbLayerTableRecord
  2
17_NO_PRINT
 70
0
 62
7
  6
CONTINUOUS
370
-3
390
F
  0
LAYER
  5
20B
100
AcDbSymbolTableRecord
100
AcDbLayerTableRecord
  2
18_DATUM_CAMS_JOINTS
 70
0
 62
7
  6
CONTINUOUS
370
-3
390
F
  0
LAYER
  5
20C
100
AcDbSymbolTableRecord
100
AcDbLayerTableRecord
  2
19_DATUM_FUNCTIONAL
 70
0
 62
7
  6
CONTINUOUS
370
-3
390
F
  0
LAYER
  5
20D
100
AcDbSymbolTableRecord
100
AcDbLayerTableRecord
  2
20_DATUM_KINEMATIC_SCHEME
 70
0
 62
7
  6
CONTINUOUS
370
-3
390
F
  0
ENDTAB
  0
TABLE
  2
STYLE
  5
3
100
AcDbSymbolTable
 70
1
  0
STYLE
  5
11
100
AcDbSymbolTableRecord
100
AcDbTextStyleTableRecord
  2
STANDARD
 70
0
 40
0.0
 41
1.0
 50
0.0
 71
0
 42
0.2
  3
ARIAL.TTF
  4

  0
STYLE
  5
20E
100
AcDbSymbolTableRecord
100
AcDbTextStyleTableRecord
  2
TEXTSTYLE_1
 70
0
 40
0.0
 41
0.8
 50
0.0
 71
0
 42
0.2
  3
gdt
  4

  0
ENDTAB
  0
TABLE
  2
VIEW
  5
6
100
AcDbSymbolTable
 70
0
  0
ENDTAB
  0
TABLE
  2
UCS
  5
7
100
AcDbSymbolTable
 70
0
  0
ENDTAB
  0
TABLE
  2
APPID
  5
9
100
AcDbSymbolTable
 70
1
  0
APPID
  5
20F
100
AcDbSymbolTableRecord
100
AcDbRegAppTableRecord
  2
ACAD
 70
0
  0
ENDTAB
  0
TABLE
  2
BLOCK_RECORD
  5
1
100
AcDbSymbolTable
 70
0
  0
BLOCK_RECORD
  5
210
100
AcDbSymbolTableRecord
100
AcDbBlockTableRecord
  2
*Model_Space
  0
BLOCK_RECORD
  5
211
100
AcDbSymbolTableRecord
100
AcDbBlockTableRecord
  2
*Paper_Space
  0
BLOCK_RECORD
  5
212
100
AcDbSymbolTableRecord
100
AcDbBlockTableRecord
  2
_FILLED
  0
ENDTAB
  0
TABLE
  2
DIMSTYLE
  5
A
100
AcDbSymbolTable
 70
1
100
AcDbDimStyleTable
 71
0
  0
DIMSTYLE
105
213
100
AcDbSymbolTableRecord
100
AcDbDimStyleTableRecord
  2
STANDARD
 70
0
  3

  4

 40
1.0
 41
0.9610105587
 42
1.0
 43
0.38
 44
1.0
 45
0.0
 46
0.0
 47
0.01
 48
0.01
140
1.3454147821
141
0.09
142
0.0
143
25.4
144
1.0
145
0.0
146
1.0
147
0.625
 71
1
 72
0
 73
0
 74
0
 75
0
 76
0
 77
1
 78
8
 79
2
170
0
171
1
172
0
173
0
174
0
175
0
176
0
177
0
178
0
270
2
179
2
271
2
272
2
273
2
274
2
275
0
280
0
281
0
282
0
283
1
284
8
285
0
286
0
287
3
288
0
340
11
278
46
341
212
342
212
343
212
344
212
  0
ENDTAB
  0
ENDSEC
  0
SECTION
  2
BLOCKS
  0
BLOCK
  5
20
100
AcDbEntity
  8
0
100
AcDbBlockBegin
  2
*Model_Space
 70
0
 10
0.0
 20
0.0
 30
0.0
  3
*Model_Space
  1

  0
ENDBLK
  5
21
100
AcDbEntity
  8
0
100
AcDbBlockEnd
  0
BLOCK
  5
1C
100
AcDbEntity
  8
0
100
AcDbBlockBegin
  2
*Paper_Space
 70
0
 10
0.0
 20
0.0
 30
0.0
  3
*Paper_Space
  1

  0
ENDBLK
  5
1D
100
AcDbEntity
  8
0
100
AcDbBlockEnd
  0
BLOCK
  5
214
100
AcDbEntity
  8
0
100
AcDbBlockBegin
  2
_FILLED
 70
64
 10
0.0
 20
0.0
  3
_FILLED
  1

  0
SOLID
  5
215
100
AcDbEntity
  8
0
  6
BYBLOCK
 62
0
100
AcDbTrace
 10
0.0
 20
0.0
 11
-1.0
 21
0.25
 12
-1.0
 22
-0.25
 13
-1.0
 23
-0.25
  0
ENDBLK
  5
216
100
AcDbEntity
  8
0
  6
BYBLOCK
 62
0
100
AcDbBlockEnd
  0
ENDSEC
  0
SECTION
  2
ENTITIES
  0
LWPOLYLINE
  5
217
100
AcDbEntity
  8
0
100
AcDbPolyline
 62
7
  6
BYLAYER
 90
3
 70
0
 10
24.6063481899
 20
58.8783996922
 10
24.6557931153
 20
59.9536202384
 10
25.8174805658
 20
62.5789032295
  0
LWPOLYLINE
  5
218
100
AcDbEntity
  8
0
100
AcDbPolyline
 62
7
  6
BYLAYER
 90
3
 70
0
 10
25.738238866
 20
62.6408591944
 10
24.6216145655
 20
60.1718389567
 10
24.556027246
 20
58.897483292
  0
LINE
  5
219
100
AcDbEntity
  8
0
100
AcDbLine
 62
7
  6
BYLAYER
 10
25.8890299532
 20
62.9292174845
 11
25.8821125537
 21
62.9206514668
  0
LWPOLYLINE
  5
21A
100
AcDbEntity
  8
0
100
AcDbPolyline
 62
7
  6
BYLAYER
 90
3
 70
0
 10
27.7271557364
 20
57.4990854503
 10
27.4738692259
 20
56.7444002314
 10
27.4368103506
 20
55.6280378652
  0
LINE
  5
21B
100
AcDbEntity
  8
0
100
AcDbLine
 62
7
  6
BYLAYER
 10
25.8894211602
 20
62.9287340143
 11
25.8821126179
 21
62.9206516374
  0
LWPOLYLINE
  5
21C
100
AcDbEntity
  8
0
100
AcDbPolyline
 62
7
  6
BYLAYER
 90
3
 70
0
 10
38.602380797
 20
71.7161698726
 10
37.5754399694
 20
70.9206649235
 10
36.9549266586
 20
69.8726818776
  0
LINE
  5
21D
100
AcDbEntity
  8
0
100
AcDbLine
 62
7
  6
BYLAYER
 10
9.5253113257
 20
52.6577719964
 11
19.3126945469
 21
58.7349055116
  0
LINE
  5
21E
100
AcDbEntity
  8
0
100
AcDbLine
 62
7
  6
BYLAYER
 10
21.0627018328
 20
59.7453015771
 11
11.2753186116
 21
53.6681680619
  0
LINE
  5
21F
100
AcDbEntity
  8
0
100
AcDbLine
 62
7
  6
BYLAYER
 10
29.9508396073
 20
65.7261213147
 11
38.7766557147
 21
70.9511821596
  0
LINE
  5
220
100
AcDbEntity
  8
0
100
AcDbLine
 62
7
  6
BYLAYER
 10
38.8190666971
 20
70.9759785079
 11
38.7766434963
 21
70.9511749261
  0
LINE
  5
221
100
AcDbEntity
  8
0
100
AcDbLine
 62
7
  6
BYLAYER
 10
29.9929103529
 20
65.7507188265
 11
29.9508399272
 21
65.7261215042
  0
LINE
  5
222
100
AcDbEntity
  8
0
100
AcDbLine
 62
7
  6
BYLAYER
 10
45.5928628017
 20
75.7521024485
 11
38.6023807978
 21
71.716169873
  0
LINE
  5
223
100
AcDbEntity
  8
0
100
AcDbLine
 62
7
  6
BYLAYER
 10
27.2280604419
 20
64.0823006527
 11
29.5805665591
 21
65.4405125853
  0
LINE
  5
224
100
AcDbEntity
  8
0
100
AcDbLine
 62
7
  6
BYLAYER
 10
56.9000331073
 20
78.4519221815
 11
56.9327966728
 21
78.4650031656
  0
LINE
  5
225
100
AcDbEntity
  8
0
100
AcDbLine
 62
7
  6
BYLAYER
 10
27.7115589598
 20
57.5149767103
 11
27.7043982938
 21
57.4973730925
  0
LINE
  5
226
100
AcDbEntity
  8
0
100
AcDbLine
 62
7
  6
BYLAYER
 10
27.8073302942
 20
57.4721633472
 11
27.7996737691
 21
57.4540745904
  0
LINE
  5
227
100
AcDbEntity
  8
0
100
AcDbLine
 62
7
  6
BYLAYER
 10
28.837766245
 20
64.642877038
 11
31.1902733809
 21
66.0010895588
  0
LINE
  5
228
100
AcDbEntity
  8
0
100
AcDbLine
 62
7
  6
BYLAYER
 10
31.251624812
 20
66.0102972321
 11
28.899117676
 21
64.6520847114
  0
LINE
  5
229
100
AcDbEntity
  8
0
100
AcDbLine
 62
7
  6
BYLAYER
 10
19.3126945469
 20
58.7349055116
 11
21.092043311
 21
59.7628748802
  0
LINE
  5
22A
100
AcDbEntity
  8
0
100
AcDbLine
 62
7
  6
BYLAYER
 10
11.2753186116
 20
53.6681680619
 11
9.5253113257
 21
52.6577719964
  0
LINE
  5
22B
100
AcDbEntity
  8
0
100
AcDbLine
 62
7
  6
BYLAYER
 10
11.1638425969
 20
53.0878956715
 11
9.413835311
 21
52.0774996061
  0
LINE
  5
22C
100
AcDbEntity
  8
0
100
AcDbLine
 62
7
  6
BYLAYER
 10
56.8999939872
 20
78.4519901249
 11
52.030630316
 21
75.6406784799
  0
LINE
  5
22D
100
AcDbEntity
  8
0
100
AcDbLine
 62
7
  6
BYLAYER
 10
52.0366668087
 20
75.6382381441
 11
56.9327966728
 21
78.4650031656
  0
LINE
  5
22E
100
AcDbEntity
  8
0
100
AcDbLine
 62
7
  6
BYLAYER
 10
58.825480557
 20
79.0292916513
 11
58.8103505906
 21
79.0217011255
  0
LINE
  5
22F
100
AcDbEntity
  8
0
100
AcDbLine
 62
7
  6
BYLAYER
 10
60.098267464
 20
79.7641311283
 11
60.0837828413
 21
79.7570065747
  0
LWPOLYLINE
  5
230
100
AcDbEntity
  8
0
100
AcDbPolyline
 62
7
  6
BYLAYER
 90
3
 70
0
 10
50.427929768
 20
46.5293873799
 10
51.6500574244
 20
46.5428477212
 10
52.8523170052
 20
47.034409026
  0
LINE
  5
231
100
AcDbEntity
  8
0
100
AcDbLine
 62
7
  6
BYLAYER
 10
33.0626265563
 20
45.6526602099
 11
25.7602267643
 21
58.3007174546
  0
LINE
  5
232
100
AcDbEntity
  8
0
100
AcDbLine
 62
7
  6
BYLAYER
 10
27.7991242105
 20
57.7135205513
 11
27.8617044298
 21
57.6051290336
  0
LINE
  5
233
100
AcDbEntity
  8
0
100
AcDbLine
 62
7
  6
BYLAYER
 10
27.911704926
 20
57.6339969938
 11
27.8295711171
 21
57.7762561341
  0
LINE
  5
234
100
AcDbEntity
  8
0
100
AcDbLine
 62
7
  6
BYLAYER
 10
27.7814139775
 20
57.7565328395
 11
27.7991242105
 21
57.7135205513
  0
LINE
  5
235
100
AcDbEntity
  8
0
100
AcDbLine
 62
7
  6
BYLAYER
 10
25.8182015447
 20
62.5771175445
 11
25.8285691234
 21
62.5514396353
  0
LINE
  5
236
100
AcDbEntity
  8
0
100
AcDbLine
 62
7
  6
BYLAYER
 10
25.8757362739
 20
62.5786754404
 11
25.8566245154
 21
62.6260368141
  0
LINE
  5
237
100
AcDbEntity
  8
0
100
AcDbLine
 62
7
  6
BYLAYER
 10
58.8103101331
 20
79.0217711526
 11
60.098267464
 21
79.7641311283
  0
LINE
  5
238
100
AcDbEntity
  8
0
100
AcDbLine
 62
7
  6
BYLAYER
 10
52.8961711236
 20
75.3189139189
 11
58.6944225887
 21
78.6665159806
  0
LINE
  5
239
100
AcDbEntity
  8
0
100
AcDbLine
 62
7
  6
BYLAYER
 10
54.7892465427
 20
75.1975840375
 11
53.9734520813
 21
74.726587697
  0
LINE
  5
23A
100
AcDbEntity
  8
0
100
AcDbLine
 62
7
  6
BYLAYER
 10
61.6474466599
 20
79.1571440859
 11
62.9202335669
 21
79.8919835629
  0
LINE
  5
23B
100
AcDbEntity
  8
0
100
AcDbLine
 62
7
  6
BYLAYER
 10
34.4016473398
 20
50.2961039698
 11
30.3516304781
 21
57.3109000051
  0
LINE
  5
23C
100
AcDbEntity
  8
0
100
AcDbLine
 62
7
  6
BYLAYER
 10
30.7295831909
 20
59.4506267568
 11
30.8117169998
 21
59.3083676165
  0
LINE
  5
23D
100
AcDbEntity
  8
0
100
AcDbLine
 62
7
  6
BYLAYER
 10
30.8817068419
 20
59.3026132062
 11
30.7991367006
 21
59.4456280921
  0
LINE
  5
23E
100
AcDbEntity
  8
0
100
AcDbLine
 62
7
  6
BYLAYER
 10
28.756634345
 20
64.3004129981
 11
28.7622045747
 21
64.2866161668
  0
LINE
  5
23F
100
AcDbEntity
  8
0
100
AcDbLine
 62
7
  6
BYLAYER
 10
28.8285816136
 20
64.2835471759
 11
28.8182165353
 21
64.3092188923
  0
LINE
  5
240
100
AcDbEntity
  8
0
100
AcDbLine
 62
7
  6
BYLAYER
 10
32.5510126544
 20
41.7629780985
 11
33.1263744114
 21
45.3031013093
  0
LINE
  5
241
100
AcDbEntity
  8
0
100
AcDbLine
 62
7
  6
BYLAYER
 10
27.7997741046
 20
57.4541325188
 11
27.8131748362
 21
57.4618703863
  0
LINE
  5
242
100
AcDbEntity
  8
0
100
AcDbLine
 62
7
  6
BYLAYER
 10
30.7131869101
 20
59.1362410091
 11
30.7997866004
 21
59.1862400628
  0
LINE
  5
243
100
AcDbEntity
  8
0
100
AcDbLine
 62
7
  6
BYLAYER
 10
56.7836913625
 20
72.6088722221
 11
56.7072049458
 21
72.5647130324
  0
LINE
  5
244
100
AcDbEntity
  8
0
100
AcDbLine
 62
7
  6
BYLAYER
 10
27.3366832852
 20
55.5702298221
 11
30.3516304781
 21
57.3109000051
  0
LINE
  5
245
100
AcDbEntity
  8
0
100
AcDbLine
 62
7
  6
BYLAYER
 10
66.9798070944
 20
77.5482407165
 11
65.7070201874
 21
76.8134012395
  0
LINE
  5
246
100
AcDbEntity
  8
0
100
AcDbLine
 62
7
  6
BYLAYER
 10
58.007366504
 20
72.368030648
 11
58.8488200703
 21
72.8538411911
  0
LINE
  5
247
100
AcDbEntity
  8
0
100
AcDbLine
 62
7
  6
BYLAYER
 10
64.8572398221
 20
75.1084922853
 11
59.0589883569
 21
71.7608902235
  0
LINE
  5
248
100
AcDbEntity
  8
0
100
AcDbLine
 62
7
  6
BYLAYER
 10
25.4798963736
 20
58.5471172753
 11
22.1263560623
 21
59.8189062391
  0
LINE
  5
249
100
AcDbEntity
  8
0
100
AcDbLine
 62
7
  6
BYLAYER
 10
31.2016243158
 20
65.981429272
 11
31.1902733809
 21
66.0010895588
  0
LINE
  5
24A
100
AcDbEntity
  8
0
100
AcDbLine
 62
7
  6
BYLAYER
 10
60.8206142728
 20
69.5252730325
 11
66.618865738
 21
72.8728750942
  0
LINE
  5
24B
100
AcDbEntity
  8
0
100
AcDbLine
 62
7
  6
BYLAYER
 10
60.9273477581
 20
69.2080841103
 11
66.7255992232
 21
72.555686172
  0
LINE
  5
24C
100
AcDbEntity
  8
0
100
AcDbLine
 62
7
  6
BYLAYER
 10
68.5289862903
 20
73.4270967428
 11
69.8017731973
 21
74.1619362198
  0
LINE
  5
24D
100
AcDbEntity
  8
0
100
AcDbLine
 62
7
  6
BYLAYER
 10
66.7255992254
 20
72.1732867083
 11
60.9273477602
 21
68.8256846465
  0
LINE
  5
24E
100
AcDbEntity
  8
0
100
AcDbLine
 62
7
  6
BYLAYER
 10
68.6270014997
 20
73.1232866877
 11
69.9946749455
 21
73.9129086064
  0
LINE
  5
24F
100
AcDbEntity
  8
0
100
AcDbLine
 62
7
  6
BYLAYER
 10
70.8897337788
 20
72.934959184
 11
68.6270014997
 21
71.6285778917
  0
LINE
  5
250
100
AcDbEntity
  8
0
100
AcDbLine
 62
7
  6
BYLAYER
 10
34.4016473398
 20
50.2961039698
 11
31.3867001469
 21
48.5554337868
  0
LWPOLYLINE
  5
251
100
AcDbEntity
  8
0
100
AcDbPolyline
 62
7
  6
BYLAYER
 90
5
 70
0
 10
43.3804421842
 20
58.021598576
 10
40.9843385369
 20
61.4151492787
 10
38.1675497631
 20
64.0982061491
 10
35.2058027739
 20
65.8081328869
 10
32.3890140002
 20
66.3775499492
  0
LINE
  5
252
100
AcDbEntity
  8
0
100
AcDbLine
 62
7
  6
BYLAYER
 10
68.6433186181
 20
67.6810036727
 11
72.0918203115
 21
69.6719851691
  0
LWPOLYLINE
  5
253
100
AcDbEntity
  8
0
100
AcDbPolyline
 62
7
  6
BYLAYER
 90
3
 70
0
 10
36.9283912374
 20
64.3294486679
 10
35.031600151
 20
65.4245367381
 10
34.4810509044
 20
65.53616032
  0
LWPOLYLINE
  5
254
100
AcDbEntity
  8
0
100
AcDbPolyline
 62
7
  6
BYLAYER
 90
5
 70
0
 10
45.2865163041
 20
46.1035141536
 10
45.6172378059
 20
47.0897762697
 10
45.6172378059
 20
50.4264977097
 10
44.724686431
 20
54.1188287004
 10
43.0202098704
 20
57.8136166012
  0
LINE
  5
255
100
AcDbEntity
  8
0
100
AcDbLine
 62
7
  6
BYLAYER
 10
59.7149028173
 20
75.473391893
 11
58.3109790996
 21
73.3280074224
  0
LINE
  5
256
100
AcDbEntity
  8
0
100
AcDbLine
 62
7
  6
BYLAYER
 10
61.9707470022
 20
62.5904127294
 11
62.511293384
 21
62.9024954656
  0
LINE
  5
257
100
AcDbEntity
  8
0
100
AcDbLine
 62
7
  6
BYLAYER
 10
63.1887123138
 20
63.1712285539
 11
65.0582993994
 21
64.2506287179
  0
LINE
  5
258
100
AcDbEntity
  8
0
100
AcDbLine
 62
7
  6
BYLAYER
 10
66.8203930817
 20
65.2679679071
 11
68.9869637789
 21
66.5188306157
  0
LINE
  5
259
100
AcDbEntity
  8
0
100
AcDbLine
 62
7
  6
BYLAYER
 10
68.7762174843
 20
66.2322341532
 11
71.3847164743
 21
67.7382427576
  0
LINE
  5
25A
100
AcDbEntity
  8
0
100
AcDbLine
 62
7
  6
BYLAYER
 10
68.7762174843
 20
65.2014802585
 11
71.1459931827
 21
66.5696627289
  0
LINE
  5
25B
100
AcDbEntity
  8
0
100
AcDbLine
 62
7
  6
BYLAYER
 10
71.3847164743
 20
66.4318388902
 11
68.7762174843
 21
64.9258302858
  0
LINE
  5
25C
100
AcDbEntity
  8
0
100
AcDbLine
 62
7
  6
BYLAYER
 10
28.817493056
 20
64.3110107703
 11
28.8313709203
 21
64.3095204042
  0
LINE
  5
25D
100
AcDbEntity
  8
0
100
AcDbLine
 62
7
  6
BYLAYER
 10
21.2575656584
 20
35.6143179044
 11
19.5075583725
 21
34.6039218389
  0
LINE
  5
25E
100
AcDbEntity
  8
0
100
AcDbLine
 62
7
  6
BYLAYER
 10
70.0399951437
 20
63.6958625011
 11
69.8290880324
 21
63.5740959505
  0
LINE
  5
25F
100
AcDbEntity
  8
0
100
AcDbLine
 62
7
  6
BYLAYER
 10
20.0586312173
 20
34.4360146442
 11
21.8086385032
 21
35.4464107097
  0
LINE
  5
260
100
AcDbEntity
  8
0
100
AcDbLine
 62
7
  6
BYLAYER
 10
63.2424094465
 20
59.3630637182
 11
68.7762174843
 21
62.5579902074
  0
LINE
  5
261
100
AcDbEntity
  8
0
100
AcDbLine
 62
7
  6
BYLAYER
 10
68.9869637789
 20
62.43631853
 11
63.1887123138
 21
59.0887164683
  0
LINE
  5
262
100
AcDbEntity
  8
0
100
AcDbLine
 62
7
  6
BYLAYER
 10
30.2054334206
 20
39.868232943
 11
31.985330622
 21
40.8952527553
  0
LINE
  5
263
100
AcDbEntity
  8
0
100
AcDbLine
 62
7
  6
BYLAYER
 10
70.8365505701
 20
63.2359814152
 11
70.6256434589
 21
63.1142148646
  0
LINE
  5
264
100
AcDbEntity
  8
0
100
AcDbLine
 62
7
  6
BYLAYER
 10
63.0490305824
 20
58.5978083984
 11
68.8472820476
 21
61.9454104601
  0
LINE
  5
265
100
AcDbEntity
  8
0
100
AcDbLine
 62
7
  6
BYLAYER
 10
69.2176359662
 20
61.7315913628
 11
63.4193845011
 21
58.383989301
  0
LINE
  5
266
100
AcDbEntity
  8
0
100
AcDbLine
 62
7
  6
BYLAYER
 10
70.9708191483
 20
62.4183072553
 11
71.6837455464
 21
62.8299130462
  0
LINE
  5
267
100
AcDbEntity
  8
0
100
AcDbLine
 62
7
  6
BYLAYER
 10
21.8086385032
 20
35.4464107097
 11
31.9554407065
 21
40.8786290085
  0
LINE
  5
268
100
AcDbEntity
  8
0
100
AcDbLine
 62
7
  6
BYLAYER
 10
30.2054334206
 20
39.868232943
 11
20.0586312173
 21
34.4360146442
  0
LINE
  5
269
100
AcDbEntity
  8
0
100
AcDbLine
 62
7
  6
BYLAYER
 10
28.817493056
 20
64.3110107703
 11
28.8300672078
 21
64.3127157109
  0
LINE
  5
26A
100
AcDbEntity
  8
0
100
AcDbLine
 62
7
  6
BYLAYER
 10
62.7609917797
 20
56.6698714415
 11
61.9425752722
 21
57.142373743
  0
LINE
  5
26B
100
AcDbEntity
  8
0
100
AcDbLine
 62
7
  6
BYLAYER
 10
59.7348709802
 20
75.8604445431
 11
59.7159562966
 21
75.7986957541
  0
LINE
  5
26C
100
AcDbEntity
  8
0
100
AcDbLine
 62
7
  6
BYLAYER
 10
59.734859733
 20
75.5355947829
 11
59.7149028173
 21
75.473391893
  0
LINE
  5
26D
100
AcDbEntity
  8
0
100
AcDbLine
 62
7
  6
BYLAYER
 10
69.850615673
 20
60.7161038325
 11
72.2547687196
 21
62.1041339556
  0
LINE
  5
26E
100
AcDbEntity
  8
0
100
AcDbLine
 62
7
  6
BYLAYER
 10
69.8290880324
 20
60.7064049642
 11
62.7485301344
 21
56.6157139218
  0
LINE
  5
26F
100
AcDbEntity
  8
0
100
AcDbLine
 62
7
  6
BYLAYER
 10
32.3890140002
 20
66.3775499492
 11
29.9929103529
 21
65.7507188265
  0
LINE
  5
270
100
AcDbEntity
  8
0
100
AcDbLine
 62
7
  6
BYLAYER
 10
72.233241079
 20
66.3560424064
 11
71.3847164743
 21
66.4318388902
  0
LINE
  5
271
100
AcDbEntity
  8
0
100
AcDbLine
 62
7
  6
BYLAYER
 10
71.1459931827
 20
66.5696627289
 11
71.9945177873
 21
66.4938662451
  0
LINE
  5
272
100
AcDbEntity
  8
0
100
AcDbLine
 62
7
  6
BYLAYER
 10
63.4193845011
 20
58.383989301
 11
63.0490305824
 21
58.5978083984
  0
LINE
  5
273
100
AcDbEntity
  8
0
100
AcDbLine
 62
7
  6
BYLAYER
 10
42.905622218
 20
42.3609672902
 11
40.5531161008
 21
41.0027553576
  0
LINE
  5
274
100
AcDbEntity
  8
0
100
AcDbLine
 62
7
  6
BYLAYER
 10
59.8427990099
 20
51.0703416019
 11
52.852317006
 21
47.0344090265
  0
LINE
  5
275
100
AcDbEntity
  8
0
100
AcDbLine
 62
7
  6
BYLAYER
 10
43.3379892681
 20
42.5387602668
 11
43.3804421842
 21
42.5629622272
  0
LINE
  5
276
100
AcDbEntity
  8
0
100
AcDbLine
 62
7
  6
BYLAYER
 10
52.2756890686
 20
47.5694128023
 11
52.3184979574
 21
47.5938176968
  0
LINE
  5
277
100
AcDbEntity
  8
0
100
AcDbLine
 62
7
  6
BYLAYER
 10
43.3379889447
 20
42.5387600847
 11
52.2756687976
 21
47.5694013927
  0
LINE
  5
278
100
AcDbEntity
  8
0
100
AcDbLine
 62
7
  6
BYLAYER
 10
58.7274653476
 20
78.8386567759
 11
58.7274653476
 21
78.6474391665
  0
LINE
  5
279
100
AcDbEntity
  8
0
100
AcDbLine
 62
7
  6
BYLAYER
 10
71.3847164743
 20
67.7382427576
 11
72.233241079
 21
68.7938252106
  0
LINE
  5
27A
100
AcDbEntity
  8
0
100
AcDbLine
 62
7
  6
BYLAYER
 10
69.2176359662
 20
61.7315913628
 11
68.8472820476
 21
61.9454104601
  0
LINE
  5
27B
100
AcDbEntity
  8
0
100
AcDbLine
 62
7
  6
BYLAYER
 10
68.9869637789
 20
62.43631853
 11
68.7762174843
 21
62.5579902074
  0
LINE
  5
27C
100
AcDbEntity
  8
0
100
AcDbLine
 62
7
  6
BYLAYER
 10
59.7159562966
 20
75.7986956413
 11
59.7159562966
 21
75.4750017511
  0
LINE
  5
27D
100
AcDbEntity
  8
0
100
AcDbLine
 62
7
  6
BYLAYER
 10
59.7348709802
 20
75.5355947702
 11
59.7348709802
 21
75.8604385444
  0
LINE
  5
27E
100
AcDbEntity
  8
0
100
AcDbLine
 62
7
  6
BYLAYER
 10
60.9273477602
 20
68.8256846465
 11
60.9273477581
 21
69.2080841103
  0
LINE
  5
27F
100
AcDbEntity
  8
0
100
AcDbLine
 62
7
  6
BYLAYER
 10
66.6096467871
 20
65.3896395844
 11
66.8203930817
 21
65.2679679071
  0
LINE
  5
280
100
AcDbEntity
  8
0
100
AcDbLine
 62
7
  6
BYLAYER
 10
70.6256434589
 20
63.1142148646
 11
69.8290880324
 21
63.5740959505
  0
LINE
  5
281
100
AcDbEntity
  8
0
100
AcDbLine
 62
7
  6
BYLAYER
 10
70.0399951437
 20
63.6958625011
 11
70.8365505701
 21
63.2359814152
  0
LINE
  5
282
100
AcDbEntity
  8
0
100
AcDbLine
 62
7
  6
BYLAYER
 10
70.1639430839
 20
63.7078336744
 11
71.1444444522
 21
63.1417537519
  0
LINE
  5
283
100
AcDbEntity
  8
0
100
AcDbLine
 62
7
  6
BYLAYER
 10
71.1628953157
 20
63.1306302385
 11
72.5027677503
 21
62.3570110464
  0
LINE
  5
284
100
AcDbEntity
  8
0
100
AcDbLine
 62
7
  6
BYLAYER
 10
71.162816718
 20
63.1306756159
 11
71.1444308166
 21
63.1417615868
  0
LINE
  5
285
100
AcDbEntity
  8
0
100
AcDbLine
 62
7
  6
BYLAYER
 10
62.511293384
 20
56.8140316161
 11
62.511293384
 21
58.3833019729
  0
LINE
  5
286
100
AcDbEntity
  8
0
100
AcDbLine
 62
7
  6
BYLAYER
 10
62.511293384
 20
59.9294955642
 11
62.511293384
 21
62.9024954656
  0
LINE
  5
287
100
AcDbEntity
  8
0
100
AcDbLine
 62
7
  6
BYLAYER
 10
63.2000023648
 20
60.5837600671
 11
62.8577051425
 21
58.539795698
  0
LWPOLYLINE
  5
288
100
AcDbEntity
  8
0
100
AcDbPolyline
 62
7
  6
BYLAYER
 90
4
 70
0
 10
62.7609916375
 20
56.6698713563
 10
62.0768219578
 20
53.6964840944
 10
60.5701635413
 20
51.5864048728
 10
59.842746696
 20
51.0704321881
  0
LINE
  5
289
100
AcDbEntity
  8
0
100
AcDbLine
 62
7
  6
BYLAYER
 10
59.0589883569
 20
71.7608902235
 11
58.007366504
 21
72.368030648
  0
LINE
  5
28A
100
AcDbEntity
  8
0
100
AcDbLine
 62
7
  6
BYLAYER
 10
71.3847164743
 20
66.4318388902
 11
71.1459931827
 21
66.5696627289
  0
LINE
  5
28B
100
AcDbEntity
  8
0
100
AcDbLine
 62
7
  6
BYLAYER
 10
72.233241079
 20
66.3560424064
 11
71.9945177873
 21
66.4938662451
  0
LINE
  5
28C
100
AcDbEntity
  8
0
100
AcDbLine
 62
7
  6
BYLAYER
 10
60.1808696137
 20
69.2504473541
 11
60.0864975248
 21
69.3887197754
  0
LINE
  5
28D
100
AcDbEntity
  8
0
100
AcDbLine
 62
7
  6
BYLAYER
 10
60.2741050052
 20
69.1111562893
 11
60.1808696137
 21
69.2504473541
  0
LINE
  5
28E
100
AcDbEntity
  8
0
100
AcDbLine
 62
7
  6
BYLAYER
 10
66.7255992254
 20
72.1732867083
 11
66.7255992232
 21
72.555686172
  0
LINE
  5
28F
100
AcDbEntity
  8
0
100
AcDbLine
 62
7
  6
BYLAYER
 10
68.6270014997
 20
71.6285778917
 11
68.6270014997
 21
73.1232862127
  0
LINE
  5
290
100
AcDbEntity
  8
0
100
AcDbLine
 62
7
  6
BYLAYER
 10
68.7762174843
 20
62.5579902074
 11
68.7762174843
 21
66.3971569121
  0
LINE
  5
291
100
AcDbEntity
  8
0
100
AcDbLine
 62
7
  6
BYLAYER
 10
69.3553243399
 20
66.5665796564
 11
69.3553243399
 21
65.5358257617
  0
LINE
  5
292
100
AcDbEntity
  8
0
100
AcDbLine
 62
7
  6
BYLAYER
 10
69.8290880324
 20
63.5740959505
 11
69.8290880324
 21
60.7064442444
  0
LINE
  5
293
100
AcDbEntity
  8
0
100
AcDbLine
 62
7
  6
BYLAYER
 10
64.8572398221
 20
75.1084922853
 11
58.6944225887
 21
78.6665159806
  0
LINE
  5
294
100
AcDbEntity
  8
0
100
AcDbLine
 62
7
  6
BYLAYER
 10
72.233241079
 20
62.5126188223
 11
72.233241079
 21
66.3560424064
  0
LINE
  5
295
100
AcDbEntity
  8
0
100
AcDbLine
 62
7
  6
BYLAYER
 10
72.233241079
 20
68.7938252106
 11
72.233241079
 21
69.1068281306
  0
LINE
  5
296
100
AcDbEntity
  8
0
100
AcDbLine
 62
7
  6
BYLAYER
 10
65.7070201874
 20
76.8134012395
 11
61.6474466599
 21
79.1571440859
  0
LINE
  5
297
100
AcDbEntity
  8
0
100
AcDbLine
 62
7
  6
BYLAYER
 10
70.9877219264
 20
74.1557081491
 11
71.5915243196
 21
73.8071105612
  0
LINE
  5
298
100
AcDbEntity
  8
0
100
AcDbLine
 62
7
  6
BYLAYER
 10
65.8694219056
 20
78.5158811852
 11
65.2330447463
 21
78.8833042146
  0
LINE
  5
299
100
AcDbEntity
  8
0
100
AcDbLine
 62
7
  6
BYLAYER
 10
65.8531800204
 20
78.490249635
 11
65.8719617779
 21
78.4783456808
  0
LINE
  5
29A
100
AcDbEntity
  8
0
100
AcDbLine
 62
7
  6
BYLAYER
 10
65.8541438978
 20
78.4907137653
 11
65.8719617779
 21
78.4783456808
  0
ARC
  5
29B
100
AcDbEntity
  8
0
100
AcDbCircle
 62
7
  6
BYLAYER
 10
36.4229732481
 20
51.6623999013
 40
7.0366448272
100
AcDbArc
 50
241.9658401223
 51
242.7268348301
  0
ARC
  5
29C
100
AcDbEntity
  8
0
100
AcDbCircle
 62
7
  6
BYLAYER
 10
36.1346613776
 20
51.4876481051
 40
6.6239579482
100
AcDbArc
 50
242.3042772828
 51
242.478912866
  0
ARC
  5
29D
100
AcDbEntity
  8
0
100
AcDbCircle
 62
7
  6
BYLAYER
 10
36.0568117161
 20
51.3372388998
 40
6.4545965547
100
AcDbArc
 50
242.4748288486
 51
244.2700365567
  0
ARC
  5
29E
100
AcDbEntity
  8
0
100
AcDbCircle
 62
7
  6
BYLAYER
 10
41.0468125446
 20
46.6101321754
 40
4.6717833851
100
AcDbArc
 50
295.0776982909
 51
299.368757064
  0
ARC
  5
29F
100
AcDbEntity
  8
0
100
AcDbCircle
 62
7
  6
BYLAYER
 10
31.5100516601
 20
55.9598960928
 40
4.1044880949
100
AcDbArc
 50
156.7237419553
 51
157.7360952866
  0
ARC
  5
2A0
100
AcDbEntity
  8
0
100
AcDbCircle
 62
7
  6
BYLAYER
 10
31.5313073398
 20
55.7671510132
 40
4.0957620459
100
AcDbArc
 50
155.3991268176
 51
155.6696922487
  0
ARC
  5
2A1
100
AcDbEntity
  8
0
100
AcDbCircle
 62
7
  6
BYLAYER
 10
31.4398008848
 20
55.9900097455
 40
4.0280551587
100
AcDbArc
 50
156.1478801834
 51
156.7223489687
  0
ARC
  5
2A2
100
AcDbEntity
  8
0
100
AcDbCircle
 62
7
  6
BYLAYER
 10
31.4242368277
 20
55.8176088331
 40
3.9773945808
100
AcDbArc
 50
153.5869290177
 51
154.3321877013
  0
ARC
  5
2A3
100
AcDbEntity
  8
0
100
AcDbCircle
 62
7
  6
BYLAYER
 10
31.374144017
 20
56.0191260185
 40
3.9562319366
100
AcDbArc
 50
155.1845971558
 51
156.1490295131
  0
ARC
  5
2A4
100
AcDbEntity
  8
0
100
AcDbCircle
 62
7
  6
BYLAYER
 10
31.3669658205
 20
55.8461131598
 40
3.9134222265
100
AcDbArc
 50
152.5451019767
 51
153.5876956402
  0
ARC
  5
2A5
100
AcDbEntity
  8
0
100
AcDbCircle
 62
7
  6
BYLAYER
 10
31.3113427174
 20
56.0480729356
 40
3.8870805073
100
AcDbArc
 50
154.6303096848
 51
155.1833683305
  0
ARC
  5
2A6
100
AcDbEntity
  8
0
100
AcDbCircle
 62
7
  6
BYLAYER
 10
31.3056103476
 20
55.877968785
 40
3.8442899294
100
AcDbArc
 50
151.5854293889
 51
152.5448023979
  0
ARC
  5
2A7
100
AcDbEntity
  8
0
100
AcDbCircle
 62
7
  6
BYLAYER
 10
30.5401611373
 20
55.5855660709
 40
3.7327129576
100
AcDbArc
 50
85.8282206276
 51
86.4319939625
  0
ARC
  5
2A8
100
AcDbEntity
  8
0
100
AcDbCircle
 62
7
  6
BYLAYER
 10
30.5445058723
 20
55.6585045344
 40
3.6596454943
100
AcDbArc
 50
86.4288176282
 51
88.0152526654
  0
ARC
  5
2A9
100
AcDbEntity
  8
0
100
AcDbCircle
 62
7
  6
BYLAYER
 10
30.9879974576
 20
55.7331812117
 40
3.4049210566
100
AcDbArc
 50
151.001040067
 51
152.2616660413
  0
ARC
  5
2AA
100
AcDbEntity
  8
0
100
AcDbCircle
 62
7
  6
BYLAYER
 10
30.4169211969
 20
56.6658173753
 40
2.7930282368
100
AcDbArc
 50
128.9658460155
 51
131.9960267969
  0
ARC
  5
2AB
100
AcDbEntity
  8
0
100
AcDbCircle
 62
7
  6
BYLAYER
 10
35.7483782579
 20
47.4125662696
 40
2.7284260692
100
AcDbArc
 50
290.9124827257
 51
299.9649128637
  0
ARC
  5
2AC
100
AcDbEntity
  8
0
100
AcDbCircle
 62
7
  6
BYLAYER
 10
30.3691428155
 20
56.7271004795
 40
2.7153339237
100
AcDbArc
 50
120.0089119249
 51
128.9951680887
  0
ARC
  5
2AD
100
AcDbEntity
  8
0
100
AcDbCircle
 62
7
  6
BYLAYER
 10
29.7018748815
 20
40.8088271614
 40
1.066906128
100
AcDbArc
 50
298.1629108201
 51
299.999714167
  0
ARC
  5
2AE
100
AcDbEntity
  8
0
100
AcDbCircle
 62
7
  6
BYLAYER
 10
31.4518821674
 20
41.8192232269
 40
1.066906128
100
AcDbArc
 50
298.1629108201
 51
299.999714167
  0
ARC
  5
2AF
100
AcDbEntity
  8
0
100
AcDbCircle
 62
7
  6
BYLAYER
 10
28.1300409803
 20
57.4014236533
 40
0.3223057195
100
AcDbArc
 50
156.5132056144
 51
160.5067931315
  0
ARC
  5
2B0
100
AcDbEntity
  8
0
100
AcDbCircle
 62
7
  6
BYLAYER
 10
28.1171376423
 20
57.4069222505
 40
0.3082800156
100
AcDbArc
 50
154.333192656
 51
156.4947282616
  0
ARC
  5
2B1
100
AcDbEntity
  8
0
100
AcDbCircle
 62
7
  6
BYLAYER
 10
28.0822988591
 20
57.3464449096
 40
0.3023825237
100
AcDbArc
 50
149.637282048
 51
155.4283907833
  0
ARC
  5
2B2
100
AcDbEntity
  8
0
100
AcDbCircle
 62
7
  6
BYLAYER
 10
28.0692562674
 20
57.3538915994
 40
0.2873647703
100
AcDbArc
 50
147.4253088019
 51
149.6039156244
  0
ARC
  5
2B3
100
AcDbEntity
  8
0
100
AcDbCircle
 62
7
  6
BYLAYER
 10
30.1516011138
 20
59.4878523162
 40
5.4784843518
100
AcDbArc
 50
143.9721223373
 51
144.3172896031
  0
ARC
  5
2B4
100
AcDbEntity
  8
0
100
AcDbCircle
 62
7
  6
BYLAYER
 10
30.0608961056
 20
59.5547629463
 40
5.3657730471
100
AcDbArc
 50
141.8382148024
 51
143.9802582377
  0
ARC
  5
2B5
100
AcDbEntity
  8
0
100
AcDbCircle
 62
7
  6
BYLAYER
 10
29.7256670801
 20
59.5501452514
 40
4.9444096792
100
AcDbArc
 50
138.7540947691
 51
141.5042592644
  0
ARC
  5
2B6
100
AcDbEntity
  8
0
100
AcDbCircle
 62
7
  6
BYLAYER
 10
32.327689901
 20
61.7117034894
 40
4.6652939667
100
AcDbArc
 50
120.6288631452
 51
123.9708106223
  0
ARC
  5
2B7
100
AcDbEntity
  8
0
100
AcDbCircle
 62
7
  6
BYLAYER
 10
29.3245400735
 20
59.968555611
 40
4.3629424219
100
AcDbArc
 50
117.0499549854
 51
119.9994649351
  0
ARC
  5
2B8
100
AcDbEntity
  8
0
100
AcDbCircle
 62
7
  6
BYLAYER
 10
19.8754889133
 20
57.8285109177
 40
1.0669061152
100
AcDbArc
 50
119.9999894961
 51
121.836782909
  0
ARC
  5
2B9
100
AcDbEntity
  8
0
100
AcDbCircle
 62
7
  6
BYLAYER
 10
21.6254961992
 20
58.8389069832
 40
1.0669061151
100
AcDbArc
 50
119.9999894961
 51
121.836782909
  0
ARC
  5
2BA
100
AcDbEntity
  8
0
100
AcDbCircle
 62
7
  6
BYLAYER
 10
26.1795485107
 20
62.7234097473
 40
0.3898371948
100
AcDbArc
 50
195.2781410616
 51
202.0406841434
  0
ARC
  5
2BB
100
AcDbEntity
  8
0
100
AcDbCircle
 62
7
  6
BYLAYER
 10
26.0525031377
 20
62.7834661101
 40
0.2186359903
100
AcDbArc
 50
141.1652161271
 51
148.8855533584
  0
ARC
  5
2BC
100
AcDbEntity
  8
0
100
AcDbCircle
 62
7
  6
BYLAYER
 10
26.0056022643
 20
62.7416320068
 40
0.2079875269
100
AcDbArc
 50
131.9335000015
 51
141.8518130978
  0
ARC
  5
2BD
100
AcDbEntity
  8
0
100
AcDbCircle
 62
7
  6
BYLAYER
 10
56.5657723271
 20
57.2323341726
 40
6.4809522392
100
AcDbArc
 50
331.4959121373
 51
336.5465695707
  0
ARC
  5
2BE
100
AcDbEntity
  8
0
100
AcDbCircle
 62
7
  6
BYLAYER
 10
66.5723956997
 20
73.4433642
 40
61.0213175502
100
AcDbArc
 50
200.4957385087
 51
219.530563256
  0
ARC
  5
2BF
100
AcDbEntity
  8
0
100
AcDbCircle
 62
7
  6
BYLAYER
 10
68.3224029856
 20
74.4537602655
 40
61.0213175502
100
AcDbArc
 50
200.4957385087
 51
219.530563256
  0
ARC
  5
2C0
100
AcDbEntity
  8
0
100
AcDbCircle
 62
7
  6
BYLAYER
 10
58.4964481167
 20
66.4710988165
 40
13.968953755
100
AcDbArc
 50
17.8848949967
 51
18.604827071
  0
ARC
  5
2C1
100
AcDbEntity
  8
0
100
AcDbCircle
 62
7
  6
BYLAYER
 10
49.8970274854
 20
62.981751127
 40
13.3263930873
100
AcDbArc
 50
47.7989555148
 51
51.2779832728
  0
ARC
  5
2C2
100
AcDbEntity
  8
0
100
AcDbCircle
 62
7
  6
BYLAYER
 10
59.1183258819
 20
66.6670459463
 40
13.3169522582
100
AcDbArc
 50
13.0409662874
 51
17.9042740329
  0
ARC
  5
2C3
100
AcDbEntity
  8
0
100
AcDbCircle
 62
7
  6
BYLAYER
 10
48.3942625758
 20
62.3981363402
 40
13.2152049782
100
AcDbArc
 50
50.5925095679
 51
52.4283950067
  0
ARC
  5
2C4
100
AcDbEntity
  8
0
100
AcDbCircle
 62
7
  6
BYLAYER
 10
52.9194878782
 20
60.583653087
 40
10.2805144871
100
AcDbArc
 50
0.0005962254
 51
0.4634406281
  0
ARC
  5
2C5
100
AcDbEntity
  8
0
100
AcDbCircle
 62
7
  6
BYLAYER
 10
60.6973356934
 20
71.0199698748
 40
9.0777026353
100
AcDbArc
 50
55.3839607619
 51
60.0242311318
  0
ARC
  5
2C6
100
AcDbEntity
  8
0
100
AcDbCircle
 62
7
  6
BYLAYER
 10
65.7485042108
 20
67.7844075328
 40
6.618202814
100
AcDbArc
 50
11.5261798469
 51
16.5714018074
  0
ARC
  5
2C7
100
AcDbEntity
  8
0
100
AcDbCircle
 62
7
  6
BYLAYER
 10
62.8169799336
 20
63.9265836352
 40
6.3474081904
100
AcDbArc
 50
341.8127706567
 51
346.4211537229
  0
ARC
  5
2C8
100
AcDbEntity
  8
0
100
AcDbCircle
 62
7
  6
BYLAYER
 10
57.5262033223
 20
60.4195085953
 40
5.8155148141
100
AcDbArc
 50
340.2098802132
 51
341.7449016899
  0
ARC
  5
2C9
100
AcDbEntity
  8
0
100
AcDbCircle
 62
7
  6
BYLAYER
 10
59.1736563622
 20
59.4019420597
 40
4.3275984415
100
AcDbArc
 50
322.8432661075
 51
324.272015295
  0
ARC
  5
2CA
100
AcDbEntity
  8
0
100
AcDbCircle
 62
7
  6
BYLAYER
 10
59.2179179148
 20
59.3685884586
 40
4.2721771054
100
AcDbArc
 50
322.3341914487
 51
322.8412342319
  0
ARC
  5
2CB
100
AcDbEntity
  8
0
100
AcDbCircle
 62
7
  6
BYLAYER
 10
69.5535086646
 20
65.0014584571
 40
3.9612158819
100
AcDbArc
 50
313.002291516
 51
318.1190709012
  0
ARC
  5
2CC
100
AcDbEntity
  8
0
100
AcDbCircle
 62
7
  6
BYLAYER
 10
65.5156484262
 20
65.3108485951
 40
1.0968319988
100
AcDbArc
 50
359.9360793065
 51
4.1193936553
  0
ARC
  5
2CD
100
AcDbEntity
  8
0
100
AcDbCircle
 62
7
  6
BYLAYER
 10
65.181345657
 20
64.1900645936
 40
0.4493547447
100
AcDbArc
 50
253.0155384868
 51
257.9652512608
  0
ARC
  5
2CE
100
AcDbEntity
  8
0
100
AcDbCircle
 62
7
  6
BYLAYER
 10
66.401790624
 20
72.5717525616
 40
0.3242069367
100
AcDbArc
 50
357.1594885774
 51
0.0203603479
  0
ARC
  5
2CF
100
AcDbEntity
  8
0
100
AcDbCircle
 62
7
  6
BYLAYER
 10
60.6035391588
 20
69.2241504999
 40
0.3242069367
100
AcDbArc
 50
357.1594885775
 51
0.0203603479
  0
ARC
  5
2D0
100
AcDbEntity
  8
0
100
AcDbCircle
 62
7
  6
BYLAYER
 10
67.8806122095
 20
59.7392465887
 40
0.1390920566
100
AcDbArc
 50
309.9976792584
 51
313.4532133239
  0
ARC
  5
2D1
100
AcDbEntity
  8
0
100
AcDbCircle
 62
7
  6
BYLAYER
 10
67.8832506852
 20
59.7360679136
 40
0.1349610716
100
AcDbArc
 50
300.0351084453
 51
310.0069579098
  0
ARC
  5
2D2
100
AcDbEntity
  8
0
100
AcDbCircle
 62
7
  6
BYLAYER
 10
885.3868197699
 20
409.9479384746
 40
923.7355902105
100
AcDbArc
 50
201.9770855176
 51
202.2986705536
  0
ARC
  5
2D3
100
AcDbEntity
  8
0
100
AcDbCircle
 62
7
  6
BYLAYER
 10
882.4868076515
 20
408.2735678337
 40
923.7355901624
100
AcDbArc
 50
201.9770855176
 51
202.2986705536
  0
ARC
  5
2D4
100
AcDbEntity
  8
0
100
AcDbCircle
 62
7
  6
BYLAYER
 10
834.1711454426
 20
388.9704211358
 40
871.7608815692
100
AcDbArc
 50
201.9894808856
 51
202.3297571373
  0
ARC
  5
2D5
100
AcDbEntity
  8
0
100
AcDbCircle
 62
7
  6
BYLAYER
 10
828.4614839549
 20
387.1518537556
 40
862.3553059738
100
AcDbArc
 50
201.9874109843
 51
202.3344891382
  0
SPLINE
  5
2D6
100
AcDbEntity
  8
0
100
AcDbSpline
 62
7
  6
BYLAYER
 70
0
 71
3
 72
9
 73
5
 74
0
 42
0.0000001
 43
0.0000001
 44
0.0000000001
 40
0.0
 40
0.0
 40
0.0
 40
0.0
 40
0.49518532
 40
1.0
 40
1.0
 40
1.0
 40
1.0
 10
27.2281169889
 20
64.0823333006
 30
0.0
 10
26.974429959
 20
63.9358678999
 30
0.0
 10
26.4892961612
 20
63.5904172331
 30
0.0
 10
26.0768905599
 20
63.1613539768
 30
0.0
 10
25.8890299532
 20
62.9292174845
 30
0.0
  0
SPLINE
  5
2D7
100
AcDbEntity
  8
0
100
AcDbSpline
 62
7
  6
BYLAYER
 70
0
 71
3
 72
11
 73
7
 74
0
 42
0.0000001
 43
0.0000001
 44
0.0000000001
 40
0.0
 40
0.0
 40
0.0
 40
0.0
 40
0.2379128677
 40
0.4855596299
 40
0.740816401
 40
1.0
 40
1.0
 40
1.0
 40
1.0
 10
19.6417990865
 20
44.5693459457
 30
0.0
 10
19.6754619087
 20
44.6988863751
 30
0.0
 10
19.7139578784
 20
44.9718254439
 30
0.0
 10
19.6872183998
 20
45.3902724861
 30
0.0
 10
19.5790745711
 20
45.8075978902
 30
0.0
 10
19.4564712493
 20
46.0717685123
 30
0.0
 10
19.383566374
 20
46.1980427595
 30
0.0
  0
SPLINE
  5
2D8
100
AcDbEntity
  8
0
100
AcDbSpline
 62
7
  6
BYLAYER
 70
0
 71
3
 72
14
 73
10
 74
0
 42
0.0000001
 43
0.0000001
 44
0.0000000001
 40
0.0
 40
0.0
 40
0.0
 40
0.0
 40
0.1124511117
 40
0.2269719383
 40
0.3452204059
 40
0.4681758402
 40
0.5960380476
 40
0.7282322257
 40
1.0
 40
1.0
 40
1.0
 40
1.0
 10
20.7193815944
 20
44.6599221966
 30
0.0
 10
20.62675228
 20
44.6064443632
 30
0.0
 10
20.4258589606
 20
44.5209030562
 30
0.0
 10
20.099165591
 20
44.4666498904
 30
0.0
 10
19.7587366572
 20
44.4870887275
 30
0.0
 10
19.4180298147
 20
44.5807613879
 30
0.0
 10
19.0897199827
 20
44.7436415773
 30
0.0
 10
18.6818284276
 20
45.0459171103
 30
0.0
 10
18.4344052692
 20
45.351601154
 30
0.0
 10
18.305158311
 20
45.5754622095
 30
0.0
  0
SPLINE
  5
2D9
100
AcDbEntity
  8
0
100
AcDbSpline
 62
7
  6
BYLAYER
 70
0
 71
3
 72
12
 73
8
 74
0
 42
0.0000001
 43
0.0000001
 44
0.0000000001
 40
0.0
 40
0.0
 40
0.0
 40
0.0
 40
0.2762007098
 40
0.5322342195
 40
0.7714474877
 40
0.8866569459
 40
1.0
 40
1.0
 40
1.0
 40
1.0
 10
33.1985481635
 20
45.4080051826
 30
0.0
 10
33.4924093325
 20
45.2565152317
 30
0.0
 10
34.0808253528
 20
45.004022245
 30
0.0
 10
34.9850413292
 20
44.7923530618
 30
0.0
 10
35.7229362941
 20
44.7788553712
 30
0.0
 10
36.276038234
 20
44.8739599957
 30
0.0
 10
36.5382543453
 20
44.9553876492
 30
0.0
 10
36.6647492331
 20
45.0044354827
 30
0.0
  0
SPLINE
  5
2DA
100
AcDbEntity
  8
0
100
AcDbSpline
 62
7
  6
BYLAYER
 70
0
 71
3
 72
11
 73
7
 74
0
 42
0.0000001
 43
0.0000001
 44
0.0000000001
 40
0.0
 40
0.0
 40
0.0
 40
0.0
 40
0.2669995019
 40
0.5213456885
 40
0.7648602263
 40
1.0
 40
1.0
 40
1.0
 40
1.0
 10
69.2176359662
 20
61.7315913628
 30
0.0
 10
69.1528583586
 20
61.5225464155
 30
0.0
 10
69.0051116794
 20
61.1204748331
 30
0.0
 10
68.7208352253
 20
60.5599544828
 30
0.0
 10
68.3814327703
 20
60.0620969955
 30
0.0
 10
68.1163141667
 20
59.7706997029
 30
0.0
 10
67.9762744431
 20
59.638274626
 30
0.0
  0
SPLINE
  5
2DB
100
AcDbEntity
  8
0
100
AcDbSpline
 62
7
  6
BYLAYER
 70
0
 71
3
 72
11
 73
7
 74
0
 42
0.0000001
 43
0.0000001
 44
0.0000000001
 40
0.0
 40
0.0
 40
0.0
 40
0.0
 40
0.2573021698
 40
0.5121820327
 40
0.7608979476
 40
1.0
 40
1.0
 40
1.0
 40
1.0
 10
66.7255992254
 20
72.1732867083
 30
0.0
 10
67.0025971853
 20
71.7272823686
 30
0.0
 10
67.5158096602
 20
70.8151116728
 30
0.0
 10
68.1579058838
 20
69.3993722772
 30
0.0
 10
68.6585369597
 20
67.9668389642
 30
0.0
 10
68.896301724
 20
66.9982174485
 30
0.0
 10
68.9869637789
 20
66.5188306157
 30
0.0
  0
SPLINE
  5
2DC
100
AcDbEntity
  8
0
100
AcDbSpline
 62
7
  6
BYLAYER
 70
0
 71
3
 72
9
 73
5
 74
0
 42
0.0000001
 43
0.0000001
 44
0.0000000001
 40
0.0
 40
0.0
 40
0.0
 40
0.0
 40
0.5244169595
 40
1.0
 40
1.0
 40
1.0
 40
1.0
 10
66.618865738
 20
72.8728750942
 30
0.0
 10
66.6517707049
 20
72.8269768032
 30
0.0
 10
66.702789028
 20
72.7306882717
 30
0.0
 10
66.7259975403
 20
72.6230835091
 30
0.0
 10
66.7259975403
 20
72.5718677702
 30
0.0
  0
SPLINE
  5
2DD
100
AcDbEntity
  8
0
100
AcDbSpline
 62
7
  6
BYLAYER
 70
0
 71
3
 72
9
 73
5
 74
0
 42
0.0000001
 43
0.0000001
 44
0.0000000001
 40
0.0
 40
0.0
 40
0.0
 40
0.0
 40
0.2456587452
 40
1.0
 40
1.0
 40
1.0
 40
1.0
 10
64.8572398221
 20
75.1084922853
 30
0.0
 10
65.0161083531
 20
74.9377614169
 30
0.0
 10
65.6479569751
 20
74.2290473634
 30
0.0
 10
66.2211448151
 20
73.4684012657
 30
0.0
 10
66.618865738
 20
72.8728750942
 30
0.0
  0
SPLINE
  5
2DE
100
AcDbEntity
  8
0
100
AcDbSpline
 62
7
  6
BYLAYER
 70
0
 71
3
 72
9
 73
5
 74
0
 42
0.0000001
 43
0.0000001
 44
0.0000000001
 40
0.0
 40
0.0
 40
0.0
 40
0.0
 40
0.4860960842
 40
1.0
 40
1.0
 40
1.0
 40
1.0
 10
56.9327966728
 20
78.4650031656
 30
0.0
 10
57.2060274523
 20
78.5586318221
 30
0.0
 10
57.7918030927
 20
78.6865883471
 30
0.0
 10
58.390044804
 20
78.6908682677
 30
0.0
 10
58.6944225887
 20
78.6665159806
 30
0.0
  0
SPLINE
  5
2DF
100
AcDbEntity
  8
0
100
AcDbSpline
 62
7
  6
BYLAYER
 70
0
 71
3
 72
9
 73
5
 74
0
 42
0.0000001
 43
0.0000001
 44
0.0000000001
 40
0.0
 40
0.0
 40
0.0
 40
0.0
 40
0.4818885632
 40
1.0
 40
1.0
 40
1.0
 40
1.0
 10
27.7993084735
 20
57.4545902561
 30
0.0
 10
27.6789680994
 20
57.1884427566
 30
0.0
 10
27.4880068616
 20
56.6086617956
 30
0.0
 10
27.4004037581
 20
56.006174078
 30
0.0
 10
27.3770416723
 20
55.6929987567
 30
0.0
  0
SPLINE
  5
2E0
100
AcDbEntity
  8
0
100
AcDbSpline
 62
7
  6
BYLAYER
 70
0
 71
3
 72
9
 73
5
 74
0
 42
0.0000001
 43
0.0000001
 44
0.0000000001
 40
0.0
 40
0.0
 40
0.0
 40
0.0
 40
0.4917849308
 40
1.0
 40
1.0
 40
1.0
 40
1.0
 10
28.7495210352
 20
58.71409471
 30
0.0
 10
28.5824042534
 20
58.5796999674
 30
0.0
 10
28.2716732598
 20
58.268562024
 30
0.0
 10
28.029912083
 20
57.9021821691
 30
0.0
 10
27.9244512879
 20
57.7072660474
 30
0.0
  0
SPLINE
  5
2E1
100
AcDbEntity
  8
0
100
AcDbSpline
 62
7
  6
BYLAYER
 70
0
 71
3
 72
15
 73
11
 74
0
 42
0.0000001
 43
0.0000001
 44
0.0000000001
 40
0.0
 40
0.0
 40
0.0
 40
0.0
 40
0.1495913535
 40
0.2914296278
 40
0.425328226
 40
0.551509876
 40
0.6706648264
 40
0.7839809342
 40
0.8930829032
 40
1.0
 40
1.0
 40
1.0
 40
1.0
 10
32.648305735
 20
42.3517466601
 30
0.0
 10
32.9919445446
 20
42.1070259338
 30
0.0
 10
33.6822606044
 20
41.6584927005
 30
0.0
 10
34.7485793461
 20
41.1047392833
 30
0.0
 10
35.8078624632
 20
40.694238432
 30
0.0
 10
36.8483033055
 20
40.4334627608
 30
0.0
 10
37.8580619191
 20
40.327878783
 30
0.0
 10
38.8245022731
 20
40.382155268
 30
0.0
 10
39.7329039624
 20
40.5986325809
 30
0.0
 10
40.2919300816
 20
40.8519604386
 30
0.0
 10
40.5530575163
 20
41.0027215335
 30
0.0
  0
SPLINE
  5
2E2
100
AcDbEntity
  8
0
100
AcDbSpline
 62
7
  6
BYLAYER
 70
0
 71
3
 72
15
 73
11
 74
0
 42
0.0000001
 43
0.0000001
 44
0.0000000001
 40
0.0
 40
0.0
 40
0.0
 40
0.0
 40
0.1080131785
 40
0.2180620411
 40
0.3320000111
 40
0.4513603853
 40
0.5772771844
 40
0.7104918775
 40
0.8514203096
 40
1.0
 40
1.0
 40
1.0
 40
1.0
 10
45.5928729033
 20
75.7520849741
 30
0.0
 10
45.8264984362
 20
75.8869816967
 30
0.0
 10
46.3225522135
 20
76.1192404907
 30
0.0
 10
47.1251565262
 20
76.3412231633
 30
0.0
 10
47.9807754195
 20
76.4366410597
 30
0.0
 10
48.8802640941
 20
76.4053373863
 30
0.0
 10
49.8149599989
 20
76.2485714834
 30
0.0
 10
50.7762005047
 20
75.968353764
 30
0.0
 10
51.754847982
 20
75.5677791589
 30
0.0
 10
52.3964530899
 20
75.2319248463
 30
0.0
 10
52.7178309058
 20
75.0463814754
 30
0.0
  0
SPLINE
  5
2E3
100
AcDbEntity
  8
0
100
AcDbSpline
 62
7
  6
BYLAYER
 70
0
 71
3
 72
10
 73
6
 74
0
 42
0.0000001
 43
0.0000001
 44
0.0000000001
 40
0.0
 40
0.0
 40
0.0
 40
0.0
 40
0.4717565764
 40
0.7288640753
 40
1.0
 40
1.0
 40
1.0
 40
1.0
 10
49.9132450144
 20
76.2840610872
 30
0.0
 10
50.5280669147
 20
76.2245631059
 30
0.0
 10
51.4676095863
 20
75.9999339281
 30
0.0
 10
52.6802173074
 20
75.504276432
 30
0.0
 10
53.2942600458
 20
75.1830502027
 30
0.0
 10
53.6017108472
 20
75.0055474154
 30
0.0
  0
SPLINE
  5
2E4
100
AcDbEntity
  8
0
100
AcDbSpline
 62
7
  6
BYLAYER
 70
0
 71
3
 72
11
 73
7
 74
0
 42
0.0000001
 43
0.0000001
 44
0.0000000001
 40
0.0
 40
0.0
 40
0.0
 40
0.0
 40
0.2267737464
 40
0.4639434496
 40
0.7199255277
 40
1.0
 40
1.0
 40
1.0
 40
1.0
 10
65.1036237219
 20
63.7168045166
 30
0.0
 10
65.070940225
 20
63.7356912308
 30
0.0
 10
65.0091097838
 20
63.7837785357
 30
0.0
 10
64.9361669289
 20
63.8803155874
 30
0.0
 10
64.8833849998
 20
63.998721595
 30
0.0
 10
64.8631913062
 20
64.0861744424
 30
0.0
 10
64.8561512404
 20
64.1322602052
 30
0.0
  0
SPLINE
  5
2E5
100
AcDbEntity
  8
0
100
AcDbSpline
 62
7
  6
BYLAYER
 70
0
 71
3
 72
9
 73
5
 74
0
 42
0.0000001
 43
0.0000001
 44
0.0000000001
 40
0.0
 40
0.0
 40
0.0
 40
0.0
 40
0.2455575651
 40
1.0
 40
1.0
 40
1.0
 40
1.0
 10
64.8561512404
 20
64.1322602052
 30
0.0
 10
64.8550790098
 20
64.1392792538
 30
0.0
 10
64.8510446226
 20
64.1679134939
 30
0.0
 10
64.848313902
 20
64.1967284477
 30
0.0
 10
64.8469274971
 20
64.2184995935
 30
0.0
  0
SPLINE
  5
2E6
100
AcDbEntity
  8
0
100
AcDbSpline
 62
7
  6
BYLAYER
 70
0
 71
3
 72
11
 73
7
 74
0
 42
0.0000001
 43
0.0000001
 44
0.0000000001
 40
0.0
 40
0.0
 40
0.0
 40
0.0
 40
0.2444627161
 40
0.4881542594
 40
0.7380785388
 40
1.0
 40
1.0
 40
1.0
 40
1.0
 10
66.4054010007
 20
65.8519131394
 30
0.0
 10
66.3525570742
 20
65.8824069581
 30
0.0
 10
66.2388094244
 20
65.9303918756
 30
0.0
 10
66.0538704987
 20
65.9542531625
 30
0.0
 10
65.8651203931
 20
65.9263261862
 30
0.0
 10
65.7464444067
 20
65.8750129721
 30
0.0
 10
65.6898337046
 20
65.8423289631
 30
0.0
  0
LINE
  5
2E7
100
AcDbEntity
  8
0
100
AcDbLine
 62
7
  6
BYLAYER
 10
69.1219582883
 20
75.7336280941
 11
68.9098271372
 21
75.889550436
  0
SPLINE
  5
2E8
100
AcDbEntity
  8
0
100
AcDbSpline
 62
7
  6
BYLAYER
 70
0
 71
3
 72
9
 73
5
 74
0
 42
0.0000001
 43
0.0000001
 44
0.0000000001
 40
0.0
 40
0.0
 40
0.0
 40
0.0
 40
0.2603921288
 40
1.0
 40
1.0
 40
1.0
 40
1.0
 10
62.9202335669
 20
79.8919835629
 30
0.0
 10
63.1284183523
 20
79.8233995643
 30
0.0
 10
63.9225176384
 20
79.5446745631
 30
0.0
 10
64.6936873381
 20
79.1946953175
 30
0.0
 10
65.2328618655
 20
78.8834098012
 30
0.0
  0
SPLINE
  5
2E9
100
AcDbEntity
  8
0
100
AcDbSpline
 62
7
  6
BYLAYER
 70
0
 71
3
 72
11
 73
7
 74
0
 42
0.0000001
 43
0.0000001
 44
0.0000000001
 40
0.0
 40
0.0
 40
0.0
 40
0.0
 40
0.2332968692
 40
0.47521212
 40
0.7298105499
 40
1.0
 40
1.0
 40
1.0
 40
1.0
 10
60.0982674641
 20
79.7641311283
 30
0.0
 10
60.3041690943
 20
79.8505059652
 30
0.0
 10
60.7412297068
 20
79.9868522491
 30
0.0
 10
61.4375235797
 20
80.0739131327
 30
0.0
 10
62.1736230923
 20
80.0459380234
 30
0.0
 10
62.6693107315
 20
79.954502647
 30
0.0
 10
62.9202335669
 20
79.8919835629
 30
0.0
  0
SPLINE
  5
2EA
100
AcDbEntity
  8
0
100
AcDbSpline
 62
7
  6
BYLAYER
 70
0
 71
3
 72
11
 73
7
 74
0
 42
0.0000001
 43
0.0000001
 44
0.0000000001
 40
0.0
 40
0.0
 40
0.0
 40
0.0
 40
0.217882344
 40
0.4510227618
 40
0.7104150334
 40
1.0
 40
1.0
 40
1.0
 40
1.0
 10
58.8103149373
 20
79.0217628416
 30
0.0
 10
58.7971204161
 20
79.0141310687
 30
0.0
 10
58.7724135847
 20
78.9933944449
 30
0.0
 10
58.7461308325
 20
78.9504054545
 30
0.0
 10
58.730550405
 20
78.8974497022
 30
0.0
 10
58.727465373
 20
78.8589156523
 30
0.0
 10
58.7274653476
 20
78.8386567759
 30
0.0
  0
SPLINE
  5
2EB
100
AcDbEntity
  8
0
100
AcDbSpline
 62
7
  6
BYLAYER
 70
0
 71
3
 72
11
 73
7
 74
0
 42
0.0000001
 43
0.0000001
 44
0.0000000001
 40
0.0
 40
0.0
 40
0.0
 40
0.0
 40
0.2328910664
 40
0.4783382946
 40
0.7347787782
 40
1.0
 40
1.0
 40
1.0
 40
1.0
 10
65.8694219055
 20
78.5158756702
 30
0.0
 10
66.1407745848
 20
78.359205628
 30
0.0
 10
66.681008757
 20
78.0071516317
 30
0.0
 10
67.4562572298
 20
77.3917802283
 30
0.0
 10
68.2080957653
 20
76.6830963859
 30
0.0
 10
68.6800161755
 20
76.162524741
 30
0.0
 10
68.9098271372
 20
75.889550436
 30
0.0
  0
SPLINE
  5
2EC
100
AcDbEntity
  8
0
100
AcDbSpline
 62
7
  6
BYLAYER
 70
0
 71
3
 72
19
 73
15
 74
0
 42
0.0000001
 43
0.0000001
 44
0.0000000001
 40
0.0
 40
0.0
 40
0.0
 40
0.0
 40
0.1084192346
 40
0.1668846624
 40
0.2278667991
 40
0.2910451751
 40
0.3560286812
 40
0.4895391797
 40
0.6245627265
 40
0.7570305222
 40
0.8211281742
 40
0.8832132763
 40
0.9429532535
 40
1.0
 40
1.0
 40
1.0
 40
1.0
 10
54.4044234065
 20
74.5117117458
 30
0.0
 10
54.9846767453
 20
74.2848245937
 30
0.0
 10
55.8390913881
 20
73.8316254046
 30
0.0
 10
56.9084183175
 20
73.0749073562
 30
0.0
 10
57.7146768766
 20
72.401156804
 30
0.0
 10
58.4954169715
 20
71.6436593567
 30
0.0
 10
59.5000922409
 20
70.5234957684
 30
0.0
 10
60.6351246235
 20
68.9720013843
 30
0.0
 10
61.75804648
 20
66.9534999404
 30
0.0
 10
62.4718623292
 20
65.1803393114
 30
0.0
 10
62.8839832376
 20
63.7512081771
 30
0.0
 10
63.1058894613
 20
62.705036285
 30
0.0
 10
63.241080285
 20
61.6850437333
 30
0.0
 10
63.2732249335
 20
61.0136410423
 30
0.0
 10
63.2732249335
 20
60.6858202557
 30
0.0
  0
SPLINE
  5
2ED
100
AcDbEntity
  8
0
100
AcDbSpline
 62
7
  6
BYLAYER
 70
0
 71
3
 72
9
 73
5
 74
0
 42
0.0000001
 43
0.0000001
 44
0.0000000001
 40
0.0
 40
0.0
 40
0.0
 40
0.0
 40
0.259171192
 40
1.0
 40
1.0
 40
1.0
 40
1.0
 10
63.2732249335
 20
60.6858202557
 30
0.0
 10
63.2732249335
 20
60.5431688452
 30
0.0
 10
63.2617090838
 20
59.9928894002
 30
0.0
 10
63.2027561303
 20
59.4430310402
 30
0.0
 10
63.1268341351
 20
59.0423989796
 30
0.0
  0
SPLINE
  5
2EE
100
AcDbEntity
  8
0
100
AcDbSpline
 62
7
  6
BYLAYER
 70
0
 71
3
 72
9
 73
5
 74
0
 42
0.0000001
 43
0.0000001
 44
0.0000000001
 40
0.0
 40
0.0
 40
0.0
 40
0.0
 40
0.515706711
 40
1.0
 40
1.0
 40
1.0
 40
1.0
 10
63.1268341351
 20
59.0423989796
 30
0.0
 10
63.0672276116
 20
58.7278618784
 30
0.0
 10
62.9128375621
 20
58.1243365096
 30
0.0
 10
62.6689977564
 20
57.5500296078
 30
0.0
 10
62.5274761765
 20
57.284788504
 30
0.0
  0
SPLINE
  5
2EF
100
AcDbEntity
  8
0
100
AcDbSpline
 62
7
  6
BYLAYER
 70
0
 71
3
 72
9
 73
5
 74
0
 42
0.0000001
 43
0.0000001
 44
0.0000000001
 40
0.0
 40
0.0
 40
0.0
 40
0.0
 40
0.2569263573
 40
1.0
 40
1.0
 40
1.0
 40
1.0
 10
61.9182288207
 20
57.9770398742
 30
0.0
 10
61.9272764287
 20
57.83041687
 30
0.0
 10
61.9540709908
 20
57.2592726898
 30
0.0
 10
61.9463949677
 20
56.6863147673
 30
0.0
 10
61.9182288207
 20
56.2623847982
 30
0.0
  0
SPLINE
  5
2F0
100
AcDbEntity
  8
0
100
AcDbSpline
 62
7
  6
BYLAYER
 70
0
 71
3
 72
9
 73
5
 74
0
 42
0.0000001
 43
0.0000001
 44
0.0000000001
 40
0.0
 40
0.0
 40
0.0
 40
0.0
 40
0.5086838898
 40
1.0
 40
1.0
 40
1.0
 40
1.0
 10
30.7996862591
 20
59.1861821311
 30
0.0
 10
30.8084483008
 20
59.2089041845
 30
0.0
 10
30.8307245216
 20
59.2518811478
 30
0.0
 10
30.8635467635
 20
59.2876642783
 30
0.0
 10
30.8817068419
 20
59.3026132062
 30
0.0
  0
SPLINE
  5
2F1
100
AcDbEntity
  8
0
100
AcDbSpline
 62
7
  6
BYLAYER
 70
0
 71
3
 72
11
 73
7
 74
0
 42
0.0000001
 43
0.0000001
 44
0.0000000001
 40
0.0
 40
0.0
 40
0.0
 40
0.0
 40
0.2724393069
 40
0.5310556546
 40
0.7718416851
 40
1.0
 40
1.0
 40
1.0
 40
1.0
 10
28.8182165353
 20
64.3092188923
 30
0.0
 10
28.8052102584
 20
64.3413730634
 30
0.0
 10
28.7877671117
 20
64.4077345181
 30
0.0
 10
28.7920255512
 20
64.5076574498
 30
0.0
 10
28.8288713
 20
64.5950447472
 30
0.0
 10
28.8739617467
 20
64.6375610155
 30
0.0
 10
28.899117676
 20
64.6520847114
 30
0.0
  0
SPLINE
  5
2F2
100
AcDbEntity
  8
0
100
AcDbSpline
 62
7
  6
BYLAYER
 70
0
 71
3
 72
8
 73
4
 74
0
 42
0.0000001
 43
0.0000001
 44
0.0000000001
 40
0.0
 40
0.0
 40
0.0
 40
0.0
 40
1.0
 40
1.0
 40
1.0
 40
1.0
 10
27.8131669496
 20
57.461865833
 30
0.0
 10
27.8164403406
 20
57.4778275641
 30
0.0
 10
27.8207665958
 20
57.4936175311
 30
0.0
 10
27.8262094826
 20
57.508975491
 30
0.0
  0
SPLINE
  5
2F3
100
AcDbEntity
  8
0
100
AcDbSpline
 62
7
  6
BYLAYER
 70
0
 71
3
 72
9
 73
5
 74
0
 42
0.0000001
 43
0.0000001
 44
0.0000000001
 40
0.0
 40
0.0
 40
0.0
 40
0.0
 40
0.5138191904
 40
1.0
 40
1.0
 40
1.0
 40
1.0
 10
25.8566245154
 20
62.6260368141
 30
0.0
 10
25.8431941712
 20
62.6592632603
 30
0.0
 10
25.825473232
 20
62.7278015427
 30
0.0
 10
25.8298439116
 20
62.7990356478
 30
0.0
 10
25.8383636651
 20
62.8318583227
 30
0.0
  0
SPLINE
  5
2F4
100
AcDbEntity
  8
0
100
AcDbSpline
 62
7
  6
BYLAYER
 70
0
 71
3
 72
9
 73
5
 74
0
 42
0.0000001
 43
0.0000001
 44
0.0000000001
 40
0.0
 40
0.0
 40
0.0
 40
0.0
 40
0.2552439114
 40
1.0
 40
1.0
 40
1.0
 40
1.0
 10
25.8383636651
 20
62.8318583227
 30
0.0
 10
25.8398626398
 20
62.8376331796
 30
0.0
 10
25.8465097076
 20
62.8600469112
 30
0.0
 10
25.8563163014
 20
62.8815474014
 30
0.0
 10
25.8653208166
 20
62.896446086
 30
0.0
  0
SPLINE
  5
2F5
100
AcDbEntity
  8
0
100
AcDbSpline
 62
7
  6
BYLAYER
 70
0
 71
3
 72
11
 73
7
 74
0
 42
0.0000001
 43
0.0000001
 44
0.0000000001
 40
0.0
 40
0.0
 40
0.0
 40
0.0
 40
0.2592112356
 40
0.5144742521
 40
0.7621129131
 40
1.0
 40
1.0
 40
1.0
 40
1.0
 10
19.383566374
 20
46.1980427595
 30
0.0
 10
19.3105744782
 20
46.3244677297
 30
0.0
 10
19.1428767174
 20
46.562991255
 30
0.0
 10
18.8350860646
 20
46.8655503948
 30
0.0
 10
18.4855676193
 20
47.0979839163
 30
0.0
 10
18.2295894411
 20
47.2009957664
 30
0.0
 10
18.1004099464
 20
47.2365153006
 30
0.0
  0
SPLINE
  5
2F6
100
AcDbEntity
  8
0
100
AcDbSpline
 62
7
  6
BYLAYER
 70
0
 71
3
 72
11
 73
7
 74
0
 42
0.0000001
 43
0.0000001
 44
0.0000000001
 40
0.0
 40
0.0
 40
0.0
 40
0.0
 40
0.2285142302
 40
0.4695369177
 40
0.7278052763
 40
1.0
 40
1.0
 40
1.0
 40
1.0
 10
20.0586312173
 20
34.4360146442
 30
0.0
 10
20.0168277134
 20
34.413601909
 30
0.0
 10
19.9197777746
 20
34.386193523
 30
0.0
 10
19.7665694953
 20
34.4061638366
 30
0.0
 10
19.6217151704
 20
34.480565502
 30
0.0
 10
19.5419600398
 20
34.5591031152
 30
0.0
 10
19.5075583725
 20
34.6039218389
 30
0.0
  0
SPLINE
  5
2F7
100
AcDbEntity
  8
0
100
AcDbSpline
 62
7
  6
BYLAYER
 70
0
 71
3
 72
11
 73
7
 74
0
 42
0.0000001
 43
0.0000001
 44
0.0000000001
 40
0.0
 40
0.0
 40
0.0
 40
0.0
 40
0.2718497115
 40
0.5305675869
 40
0.7719824837
 40
1.0
 40
1.0
 40
1.0
 40
1.0
 10
9.413835311
 20
52.0774996061
 30
0.0
 10
9.3897730828
 20
52.1300927187
 30
0.0
 10
9.3569980483
 20
52.2400663597
 30
0.0
 10
9.3590774222
 20
52.4070313797
 30
0.0
 10
9.4140596576
 20
52.5555642359
 30
0.0
 10
9.4851055336
 20
52.6306279504
 30
0.0
 10
9.5253113257
 20
52.6577719964
 30
0.0
  0
SPLINE
  5
2F8
100
AcDbEntity
  8
0
100
AcDbSpline
 62
7
  6
BYLAYER
 70
0
 71
3
 72
14
 73
10
 74
0
 42
0.0000001
 43
0.0000001
 44
0.0000000001
 40
0.0
 40
0.0
 40
0.0
 40
0.0
 40
0.2717671636
 40
0.4039574489
 40
0.5318161347
 40
0.6547700515
 40
0.7730206283
 40
0.8875451646
 40
1.0
 40
1.0
 40
1.0
 40
1.0
 10
18.305158311
 20
45.5754622095
 30
0.0
 10
18.1759137856
 20
45.7993190515
 30
0.0
 10
18.0348942668
 20
46.1664238041
 30
0.0
 10
17.9770596987
 20
46.6707894079
 30
0.0
 10
18.000145267
 20
47.0365397813
 30
0.0
 10
18.0893615307
 20
47.3784316001
 30
0.0
 10
18.2418683411
 20
47.6834740195
 30
0.0
 10
18.4521986344
 20
47.9392755847
 30
0.0
 10
18.6267195301
 20
48.0705001199
 30
0.0
 10
18.7193503765
 20
48.1239788379
 30
0.0
  0
SPLINE
  5
2F9
100
AcDbEntity
  8
0
100
AcDbSpline
 62
7
  6
BYLAYER
 70
0
 71
3
 72
9
 73
5
 74
0
 42
0.0000001
 43
0.0000001
 44
0.0000000001
 40
0.0
 40
0.0
 40
0.0
 40
0.0
 40
0.5119743503
 40
1.0
 40
1.0
 40
1.0
 40
1.0
 10
25.7602267643
 20
58.3007174546
 30
0.0
 10
25.7279183083
 20
58.3566770312
 30
0.0
 10
25.6471550679
 20
58.4567722388
 30
0.0
 10
25.5374880554
 20
58.5252763395
 30
0.0
 10
25.4798963736
 20
58.5471172753
 30
0.0
  0
SPLINE
  5
2FA
100
AcDbEntity
  8
0
100
AcDbSpline
 62
7
  6
BYLAYER
 70
0
 71
3
 72
11
 73
7
 74
0
 42
0.0000001
 43
0.0000001
 44
0.0000000001
 40
0.0
 40
0.0
 40
0.0
 40
0.0
 40
0.2625428894
 40
0.5152006655
 40
0.7598751008
 40
1.0
 40
1.0
 40
1.0
 40
1.0
 10
22.1263560623
 20
59.8189062391
 30
0.0
 10
22.0389012511
 20
59.8520724021
 30
0.0
 10
21.8605468274
 20
59.901077281
 30
0.0
 10
21.5882544962
 20
59.9175702562
 30
0.0
 10
21.3268635696
 20
59.8740124305
 30
0.0
 10
21.1661284332
 20
59.8056476901
 30
0.0
 10
21.092043311
 20
59.7628748802
 30
0.0
  0
SPLINE
  5
2FB
100
AcDbEntity
  8
0
100
AcDbSpline
 62
7
  6
BYLAYER
 70
0
 71
3
 72
11
 73
7
 74
0
 42
0.0000001
 43
0.0000001
 44
0.0000000001
 40
0.0
 40
0.0
 40
0.0
 40
0.0
 40
0.2401253871
 40
0.4847998562
 40
0.7374574001
 40
1.0
 40
1.0
 40
1.0
 40
1.0
 10
31.985330622
 20
40.8952527553
 30
0.0
 10
32.0594159864
 20
40.9380257051
 30
0.0
 10
32.1989899947
 20
41.0430436511
 30
0.0
 10
32.3674084431
 20
41.2476358913
 30
0.0
 10
32.489271252
 20
41.4916947104
 30
0.0
 10
32.5360084115
 20
41.6706568472
 30
0.0
 10
32.5510126544
 20
41.7629780985
 30
0.0
  0
SPLINE
  5
2FC
100
AcDbEntity
  8
0
100
AcDbSpline
 62
7
  6
BYLAYER
 70
0
 71
3
 72
9
 73
5
 74
0
 42
0.0000001
 43
0.0000001
 44
0.0000000001
 40
0.0
 40
0.0
 40
0.0
 40
0.0
 40
0.4857079289
 40
1.0
 40
1.0
 40
1.0
 40
1.0
 10
33.1263744114
 20
45.3031013093
 30
0.0
 10
33.1402734162
 20
45.360077234
 30
0.0
 10
33.1410571404
 20
45.4848795672
 30
0.0
 10
33.0953634022
 20
45.59989209
 30
0.0
 10
33.0626265563
 20
45.6526602099
 30
0.0
  0
SPLINE
  5
2FD
100
AcDbEntity
  8
0
100
AcDbSpline
 62
7
  6
BYLAYER
 70
0
 71
3
 72
9
 73
5
 74
0
 42
0.0000001
 43
0.0000001
 44
0.0000000001
 40
0.0
 40
0.0
 40
0.0
 40
0.0
 40
0.2474802894
 40
1.0
 40
1.0
 40
1.0
 40
1.0
 10
27.8816943517
 20
57.5705056655
 30
0.0
 10
27.8764253002
 20
57.5661683125
 30
0.0
 10
27.8558334249
 20
57.5478033283
 30
0.0
 10
27.838270929
 20
57.5260948431
 30
0.0
 10
27.8270967624
 20
57.5086083902
 30
0.0
  0
SPLINE
  5
2FE
100
AcDbEntity
  8
0
100
AcDbSpline
 62
7
  6
BYLAYER
 70
0
 71
3
 72
9
 73
5
 74
0
 42
0.0000001
 43
0.0000001
 44
0.0000000001
 40
0.0
 40
0.0
 40
0.0
 40
0.0
 40
0.2563772609
 40
1.0
 40
1.0
 40
1.0
 40
1.0
 10
71.7721921832
 20
70.9438236759
 30
0.0
 10
71.8230539482
 20
70.7900750218
 30
0.0
 10
72.0107665677
 20
70.1869398931
 30
0.0
 10
72.1551571859
 20
69.5700087481
 30
0.0
 10
72.233241079
 20
69.1068281306
 30
0.0
  0
SPLINE
  5
2FF
100
AcDbEntity
  8
0
100
AcDbSpline
 62
7
  6
BYLAYER
 70
0
 71
3
 72
9
 73
5
 74
0
 42
0.0000001
 43
0.0000001
 44
0.0000000001
 40
0.0
 40
0.0
 40
0.0
 40
0.0
 40
0.4942158852
 40
1.0
 40
1.0
 40
1.0
 40
1.0
 10
29.5805665591
 20
65.4405125853
 30
0.0
 10
29.82479215
 20
65.5815203275
 30
0.0
 10
30.3475343162
 20
65.8198776491
 30
0.0
 10
30.9051250093
 20
65.9565202124
 30
0.0
 10
31.1902733809
 20
66.0010895588
 30
0.0
  0
SPLINE
  5
300
100
AcDbEntity
  8
0
100
AcDbSpline
 62
7
  6
BYLAYER
 70
0
 71
3
 72
28
 73
24
 74
0
 42
0.0000001
 43
0.0000001
 44
0.0000000001
 40
0.0
 40
0.0
 40
0.0
 40
0.0
 40
0.023554939
 40
0.0482104357
 40
0.0741322814
 40
0.1014467018
 40
0.160396282
 40
0.2250175934
 40
0.2945654728
 40
0.367851989
 40
0.4434031124
 40
0.5195860939
 40
0.5947257488
 40
0.6672175659
 40
0.7356459899
 40
0.7989175184
 40
0.8564205811
 40
0.8830378555
 40
0.9083127384
 40
0.9323961907
 40
0.9555104686
 40
0.9779414388
 40
1.0
 40
1.0
 40
1.0
 40
1.0
 10
31.251624812
 20
66.0102972321
 30
0.0
 10
31.498848176
 20
66.0458700631
 30
0.0
 10
32.0107466215
 20
66.0815866648
 30
0.0
 10
32.7972343934
 20
66.0326034729
 30
0.0
 10
33.6113353208
 20
65.8827136881
 30
0.0
 10
34.7530913579
 20
65.5420414586
 30
0.0
 10
36.2102669643
 20
64.8591941486
 30
0.0
 10
37.910739326
 20
63.7064434408
 30
0.0
 10
39.5556665411
 20
62.2370855621
 30
0.0
 10
41.0925468807
 20
60.4984269623
 30
0.0
 10
42.4723767283
 20
58.5463158088
 30
0.0
 10
43.650537974
 20
56.4438529714
 30
0.0
 10
44.588925653
 20
54.2590290034
 30
0.0
 10
45.2572364388
 20
52.0624044894
 30
0.0
 10
45.6338105767
 20
49.9240017622
 30
0.0
 10
45.7061294739
 20
47.9120305942
 30
0.0
 10
45.5036468889
 20
46.3521905189
 30
0.0
 10
45.1764776574
 20
45.2371083776
 30
0.0
 10
44.8626761223
 20
44.4929976278
 30
0.0
 10
44.4765145703
 20
43.8260380863
 30
0.0
 10
44.0205911064
 20
43.2420203567
 30
0.0
 10
43.4985935894
 20
42.7468389881
 30
0.0
 10
43.1081861787
 20
42.4779209912
 30
0.0
 10
42.905622218
 20
42.3609672902
 30
0.0
  0
SPLINE
  5
301
100
AcDbEntity
  8
0
100
AcDbSpline
 62
7
  6
BYLAYER
 70
0
 71
3
 72
9
 73
5
 74
0
 42
0.0000001
 43
0.0000001
 44
0.0000000001
 40
0.0
 40
0.0
 40
0.0
 40
0.0
 40
0.2532419133
 40
1.0
 40
1.0
 40
1.0
 40
1.0
 10
71.5915243196
 20
73.8071105612
 30
0.0
 10
71.6945237508
 20
73.616509001
 30
0.0
 10
72.0852667831
 20
72.8553804041
 30
0.0
 10
72.412065748
 20
72.0610767037
 30
0.0
 10
72.613699823
 20
71.4548703387
 30
0.0
  0
SPLINE
  5
302
100
AcDbEntity
  8
0
100
AcDbSpline
 62
7
  6
BYLAYER
 70
0
 71
3
 72
9
 73
5
 74
0
 42
0.0000001
 43
0.0000001
 44
0.0000000001
 40
0.0
 40
0.0
 40
0.0
 40
0.0
 40
0.4967928462
 40
1.0
 40
1.0
 40
1.0
 40
1.0
 10
69.1219582883
 20
75.7336280941
 30
0.0
 10
69.4256179929
 20
75.3648232109
 30
0.0
 10
69.9999667024
 20
74.5914395882
 30
0.0
 10
70.4986880594
 20
73.7673915553
 30
0.0
 10
70.7295237208
 20
73.3421002926
 30
0.0
  0
SPLINE
  5
303
100
AcDbEntity
  8
0
100
AcDbSpline
 62
7
  6
BYLAYER
 70
0
 71
3
 72
15
 73
11
 74
0
 42
0.0000001
 43
0.0000001
 44
0.0000000001
 40
0.0
 40
0.0
 40
0.0
 40
0.0
 40
0.1132281881
 40
0.2350564946
 40
0.3632763347
 40
0.4951544064
 40
0.6276984863
 40
0.7578695742
 40
0.8827902548
 40
1.0
 40
1.0
 40
1.0
 40
1.0
 10
52.7178309058
 20
75.0463814754
 30
0.0
 10
53.3706415972
 20
74.6694895734
 30
0.0
 10
54.6617579739
 20
73.7732973353
 30
0.0
 10
56.4495461148
 20
72.1359525177
 30
0.0
 10
58.1112527948
 20
70.2040216014
 30
0.0
 10
59.5904383926
 20
68.04275475
 30
0.0
 10
60.8374523706
 20
65.7250219544
 30
0.0
 10
61.8101131872
 20
63.3289013378
 30
0.0
 10
62.4756775501
 20
60.9357533739
 30
0.0
 10
62.708306226
 20
59.3345143753
 30
0.0
 10
62.7609916375
 20
58.5559919399
 30
0.0
  0
SPLINE
  5
304
100
AcDbEntity
  8
0
100
AcDbSpline
 62
7
  6
BYLAYER
 70
0
 71
3
 72
8
 73
4
 74
0
 42
0.0000001
 43
0.0000001
 44
0.0000000001
 40
0.0
 40
0.0
 40
0.0
 40
0.0
 40
1.0
 40
1.0
 40
1.0
 40
1.0
 10
69.8290880324
 20
60.7064442444
 30
0.0
 10
69.8365584042
 20
60.7090358547
 30
0.0
 10
69.8438061248
 20
60.712347144
 30
0.0
 10
69.850708085
 20
60.7162053616
 30
0.0
  0
SPLINE
  5
305
100
AcDbEntity
  8
0
100
AcDbSpline
 62
7
  6
BYLAYER
 70
0
 71
3
 72
15
 73
11
 74
0
 42
0.0000001
 43
0.0000001
 44
0.0000000001
 40
0.0
 40
0.0
 40
0.0
 40
0.0
 40
0.1110984722
 40
0.2292952648
 40
0.3533133326
 40
0.4815675836
 40
0.6122683132
 40
0.7435141032
 40
0.8733793027
 40
1.0
 40
1.0
 40
1.0
 40
1.0
 10
53.6017108472
 20
75.0055474154
 30
0.0
 10
54.0943063655
 20
74.7211536941
 30
0.0
 10
55.0727396125
 20
74.0663885343
 30
0.0
 10
56.4572632307
 20
72.8975328615
 30
0.0
 10
57.7795518005
 20
71.5336086542
 30
0.0
 10
59.0107817329
 20
70.0043237087
 30
0.0
 10
60.1243876392
 20
68.3427951262
 30
0.0
 10
61.096166731
 20
66.585079354
 30
0.0
 10
61.9049260678
 20
64.7696198905
 30
0.0
 10
62.3311727899
 20
63.5252368302
 30
0.0
 10
62.511293384
 20
62.9024954656
 30
0.0
  0
SPLINE
  5
306
100
AcDbEntity
  8
0
100
AcDbSpline
 62
7
  6
BYLAYER
 70
0
 71
3
 72
9
 73
5
 74
0
 42
0.0000001
 43
0.0000001
 44
0.0000000001
 40
0.0
 40
0.0
 40
0.0
 40
0.0
 40
0.2454459282
 40
1.0
 40
1.0
 40
1.0
 40
1.0
 10
54.7892465427
 20
75.1975840375
 30
0.0
 10
54.8403027931
 20
75.184863035
 30
0.0
 10
55.0476589924
 20
75.1304153136
 30
0.0
 10
55.2522957838
 20
75.0657173569
 30
0.0
 10
55.4048138562
 20
75.0118339838
 30
0.0
  0
SPLINE
  5
307
100
AcDbEntity
  8
0
100
AcDbSpline
 62
7
  6
BYLAYER
 70
0
 71
3
 72
13
 73
9
 74
0
 42
0.0000001
 43
0.0000001
 44
0.0000000001
 40
0.0
 40
0.0
 40
0.0
 40
0.0
 40
0.295081591
 40
0.5776966716
 40
0.7028802223
 40
0.8136370335
 40
0.9109746208
 40
1.0
 40
1.0
 40
1.0
 40
1.0
 10
59.3292874907
 20
76.0219340429
 30
0.0
 10
59.3757783424
 20
76.0323725789
 30
0.0
 10
59.4700499442
 20
76.0394675026
 30
0.0
 10
59.5834112091
 20
76.0175964101
 30
0.0
 10
59.6588708756
 20
75.9801034129
 30
0.0
 10
59.7009557977
 20
75.9456285413
 30
0.0
 10
59.7282925838
 20
75.9051700572
 30
0.0
 10
59.7348861963
 20
75.8748129642
 30
0.0
 10
59.7348663489
 20
75.860437599
 30
0.0
  0
SPLINE
  5
308
100
AcDbEntity
  8
0
100
AcDbSpline
 62
7
  6
BYLAYER
 70
0
 71
3
 72
9
 73
5
 74
0
 42
0.0000001
 43
0.0000001
 44
0.0000000001
 40
0.0
 40
0.0
 40
0.0
 40
0.0
 40
0.2625786463
 40
1.0
 40
1.0
 40
1.0
 40
1.0
 10
63.4022318543
 20
61.0066997357
 30
0.0
 10
63.4022318543
 20
60.8375743788
 30
0.0
 10
63.3857415331
 20
60.1937636015
 30
0.0
 10
63.3004116429
 20
59.5503641336
 30
0.0
 10
63.1887123138
 20
59.0887164683
 30
0.0
  0
SPLINE
  5
309
100
AcDbEntity
  8
0
100
AcDbSpline
 62
7
  6
BYLAYER
 70
0
 71
3
 72
9
 73
5
 74
0
 42
0.0000001
 43
0.0000001
 44
0.0000000001
 40
0.0
 40
0.0
 40
0.0
 40
0.0
 40
0.5130279356
 40
1.0
 40
1.0
 40
1.0
 40
1.0
 10
63.1887123138
 20
63.1712285539
 30
0.0
 10
63.2579057882
 20
62.805359497
 30
0.0
 10
63.3635118143
 20
62.0862580094
 30
0.0
 10
63.4022318543
 20
61.3601429824
 30
0.0
 10
63.4022318543
 20
61.0066997357
 30
0.0
  0
SPLINE
  5
30A
100
AcDbEntity
  8
0
100
AcDbSpline
 62
7
  6
BYLAYER
 70
0
 71
3
 72
13
 73
9
 74
0
 42
0.0000001
 43
0.0000001
 44
0.0000000001
 40
0.0
 40
0.0
 40
0.0
 40
0.0
 40
0.228217708
 40
0.3525010355
 40
0.4814442217
 40
0.744541134
 40
0.8746175483
 40
1.0
 40
1.0
 40
1.0
 40
1.0
 10
65.6898337046
 20
65.8423289631
 30
0.0
 10
65.5714583751
 20
65.7739853427
 30
0.0
 10
65.4133566099
 20
65.6235576829
 30
0.0
 10
65.2586764144
 20
65.3798119345
 30
0.0
 10
65.1317647626
 20
65.0967118943
 30
0.0
 10
65.0594346523
 20
64.7888481483
 30
0.0
 10
65.0405408233
 20
64.4784196703
 30
0.0
 10
65.049145214
 20
64.3251647762
 30
0.0
 10
65.0582993994
 20
64.2506287179
 30
0.0
  0
SPLINE
  5
30B
100
AcDbEntity
  8
0
100
AcDbSpline
 62
7
  6
BYLAYER
 70
0
 71
3
 72
9
 73
5
 74
0
 42
0.0000001
 43
0.0000001
 44
0.0000000001
 40
0.0
 40
0.0
 40
0.0
 40
0.0
 40
0.4873567285
 40
1.0
 40
1.0
 40
1.0
 40
1.0
 10
28.837766245
 20
64.642877038
 30
0.0
 10
28.8135752015
 20
64.6289104159
 30
0.0
 10
28.7700498311
 20
64.5886703211
 30
0.0
 10
28.7459065417
 20
64.5350620412
 30
0.0
 10
28.7384791416
 20
64.5066335966
 30
0.0
  0
SPLINE
  5
30C
100
AcDbEntity
  8
0
100
AcDbSpline
 62
7
  6
BYLAYER
 70
0
 71
3
 72
9
 73
5
 74
0
 42
0.0000001
 43
0.0000001
 44
0.0000000001
 40
0.0
 40
0.0
 40
0.0
 40
0.0
 40
0.486134038
 40
1.0
 40
1.0
 40
1.0
 40
1.0
 10
28.7384791416
 20
64.5066335966
 30
0.0
 10
28.7298914429
 20
64.4737640986
 30
0.0
 10
28.7254430008
 20
64.4023878235
 30
0.0
 10
28.7431767539
 20
64.333706853
 30
0.0
 10
28.756634345
 20
64.3004129981
 30
0.0
  0
LINE
  5
30D
100
AcDbEntity
  8
0
100
AcDbLine
 62
7
  6
BYLAYER
 10
28.7622045747
 20
64.2866161668
 11
28.7757483475
 21
64.2530460635
  0
SPLINE
  5
30E
100
AcDbEntity
  8
0
100
AcDbSpline
 62
7
  6
BYLAYER
 70
0
 71
3
 72
9
 73
5
 74
0
 42
0.0000001
 43
0.0000001
 44
0.0000000001
 40
0.0
 40
0.0
 40
0.0
 40
0.0
 40
0.2479660593
 40
1.0
 40
1.0
 40
1.0
 40
1.0
 10
30.8117169998
 20
59.3083676165
 30
0.0
 10
30.8075985786
 20
59.3049834834
 30
0.0
 10
30.7914243575
 20
59.2908133229
 30
0.0
 10
30.7770388356
 20
59.2746183786
 30
0.0
 10
30.7674156691
 20
59.2616282848
 30
0.0
  0
SPLINE
  5
30F
100
AcDbEntity
  8
0
100
AcDbSpline
 62
7
  6
BYLAYER
 70
0
 71
3
 72
9
 73
5
 74
0
 42
0.0000001
 43
0.0000001
 44
0.0000000001
 40
0.0
 40
0.0
 40
0.0
 40
0.0
 40
0.246958914
 40
1.0
 40
1.0
 40
1.0
 40
1.0
 10
30.7674156691
 20
59.2616282848
 30
0.0
 10
30.7641687079
 20
59.2572452856
 30
0.0
 10
30.7515529334
 20
59.2391070174
 30
0.0
 10
30.7410833128
 20
59.2194950744
 30
0.0
 10
30.7344487132
 20
59.2042429094
 30
0.0
  0
SPLINE
  5
310
100
AcDbEntity
  8
0
100
AcDbSpline
 62
7
  6
BYLAYER
 70
0
 71
3
 72
9
 73
5
 74
0
 42
0.0000001
 43
0.0000001
 44
0.0000000001
 40
0.0
 40
0.0
 40
0.0
 40
0.0
 40
0.246466635
 40
1.0
 40
1.0
 40
1.0
 40
1.0
 10
30.7344487132
 20
59.2042429094
 30
0.0
 10
30.7321112063
 20
59.1988692556
 30
0.0
 10
30.7232424755
 20
59.1768014792
 30
0.0
 10
30.7167783171
 20
59.153787356
 30
0.0
 10
30.7131790234
 20
59.1362364557
 30
0.0
  0
SPLINE
  5
311
100
AcDbEntity
  8
0
100
AcDbSpline
 62
7
  6
BYLAYER
 70
0
 71
3
 72
17
 73
13
 74
0
 42
0.0000001
 43
0.0000001
 44
0.0000000001
 40
0.0
 40
0.0
 40
0.0
 40
0.0
 40
0.044962956
 40
0.0918405802
 40
0.1410755455
 40
0.1929795618
 40
0.3052750917
 40
0.4290149202
 40
0.5629151326
 40
0.7047150564
 40
0.8514986318
 40
1.0
 40
1.0
 40
1.0
 40
1.0
 10
59.998146643
 20
77.9585505402
 30
0.0
 10
60.1642963456
 20
77.9963283056
 30
0.0
 10
60.5100860744
 20
78.0473229938
 30
0.0
 10
61.0462140661
 20
78.0499671536
 30
0.0
 10
61.6042970954
 20
77.9807669974
 30
0.0
 10
62.3915095905
 20
77.788563196
 30
0.0
 10
63.4038433384
 20
77.3623613165
 30
0.0
 10
64.5915281927
 20
76.6081547854
 30
0.0
 10
65.7469896648
 20
75.6235449068
 30
0.0
 10
66.832082469
 20
74.4413872215
 30
0.0
 10
67.8109072638
 20
73.1013213385
 30
0.0
 10
68.3720132993
 20
72.1302512266
 30
0.0
 10
68.6270014997
 20
71.6285778917
 30
0.0
  0
SPLINE
  5
312
100
AcDbEntity
  8
0
100
AcDbSpline
 62
7
  6
BYLAYER
 70
0
 71
3
 72
11
 73
7
 74
0
 42
0.0000001
 43
0.0000001
 44
0.0000000001
 40
0.0
 40
0.0
 40
0.0
 40
0.0
 40
0.243039575
 40
0.4871265556
 40
0.7378990651
 40
1.0
 40
1.0
 40
1.0
 40
1.0
 10
28.7495315207
 20
58.7140785531
 30
0.0
 10
28.8793012907
 20
58.818434138
 30
0.0
 10
29.1595735114
 20
59.0039389436
 30
0.0
 10
29.6290277218
 20
59.1992686852
 30
0.0
 10
30.1388664268
 20
59.3081011394
 30
0.0
 10
30.491774896
 20
59.3221622356
 30
0.0
 10
30.6712520157
 20
59.3159545421
 30
0.0
  0
SPLINE
  5
313
100
AcDbEntity
  8
0
100
AcDbSpline
 62
7
  6
BYLAYER
 70
0
 71
3
 72
9
 73
5
 74
0
 42
0.0000001
 43
0.0000001
 44
0.0000000001
 40
0.0
 40
0.0
 40
0.0
 40
0.0
 40
0.2445958458
 40
1.0
 40
1.0
 40
1.0
 40
1.0
 10
25.8420375861
 20
62.8701053791
 30
0.0
 10
25.837172695
 20
62.8639202379
 30
0.0
 10
25.8186855214
 20
62.8375428298
 30
0.0
 10
25.8060279297
 20
62.8072244046
 30
0.0
 10
25.7998982501
 20
62.7837072973
 30
0.0
  0
SPLINE
  5
314
100
AcDbEntity
  8
0
100
AcDbSpline
 62
7
  6
BYLAYER
 70
0
 71
3
 72
9
 73
5
 74
0
 42
0.0000001
 43
0.0000001
 44
0.0000000001
 40
0.0
 40
0.0
 40
0.0
 40
0.0
 40
0.4874138166
 40
1.0
 40
1.0
 40
1.0
 40
1.0
 10
25.7998982501
 20
62.7837072973
 30
0.0
 10
25.7931594367
 20
62.7578531888
 30
0.0
 10
25.7874448574
 20
62.7025037217
 30
0.0
 10
25.7960960985
 20
62.6477934163
 30
0.0
 10
25.8034889348
 20
62.6206856809
 30
0.0
  0
SPLINE
  5
315
100
AcDbEntity
  8
0
100
AcDbSpline
 62
7
  6
BYLAYER
 70
0
 71
3
 72
17
 73
13
 74
0
 42
0.0000001
 43
0.0000001
 44
0.0000000001
 40
0.0
 40
0.0
 40
0.0
 40
0.0
 40
0.1083663622
 40
0.1669075268
 40
0.2279891177
 40
0.3562604507
 40
0.4898818988
 40
0.6249399706
 40
0.7573905616
 40
0.8834223639
 40
0.9430764259
 40
1.0
 40
1.0
 40
1.0
 40
1.0
 10
54.4265374566
 20
74.4398554501
 30
0.0
 10
54.9974945622
 20
74.2040349878
 30
0.0
 10
55.8377558233
 20
73.741760962
 30
0.0
 10
56.8905090241
 20
72.9787060375
 30
0.0
 10
57.9674021012
 20
72.0615119948
 30
0.0
 10
59.2343970013
 20
70.7171661245
 30
0.0
 10
60.5666624161
 20
68.8812405428
 30
0.0
 10
61.677618751
 20
66.8759990173
 30
0.0
 10
62.5181847563
 20
64.7899869215
 30
0.0
 10
62.9716034683
 20
63.0270716894
 30
0.0
 10
63.160637036
 20
61.6558567992
 30
0.0
 10
63.197044788
 20
60.9912880038
 30
0.0
 10
63.1996660665
 20
60.6668067884
 30
0.0
  0
SPLINE
  5
316
100
AcDbEntity
  8
0
100
AcDbSpline
 62
7
  6
BYLAYER
 70
0
 71
3
 72
11
 73
7
 74
0
 42
0.0000001
 43
0.0000001
 44
0.0000000001
 40
0.0
 40
0.0
 40
0.0
 40
0.0
 40
0.2894001272
 40
0.5487004094
 40
0.7819414055
 40
1.0
 40
1.0
 40
1.0
 40
1.0
 10
70.0399951437
 20
63.6958625011
 30
0.0
 10
70.0508757453
 20
63.7020984415
 30
0.0
 10
70.0725225913
 20
63.7123064852
 30
0.0
 10
70.1057707935
 20
63.7202516964
 30
0.0
 10
70.1369745651
 20
63.7193946257
 30
0.0
 10
70.1557542117
 20
63.7125488585
 30
0.0
 10
70.1639411403
 20
63.7078302688
 30
0.0
  0
SPLINE
  5
317
100
AcDbEntity
  8
0
100
AcDbSpline
 62
7
  6
BYLAYER
 70
0
 71
3
 72
10
 73
6
 74
0
 42
0.0000001
 43
0.0000001
 44
0.0000000001
 40
0.0
 40
0.0
 40
0.0
 40
0.0
 40
0.2537579654
 40
0.6297886458
 40
1.0
 40
1.0
 40
1.0
 40
1.0
 10
60.0864975248
 20
69.3887197754
 30
0.0
 10
60.0149493155
 20
69.4707337002
 30
0.0
 10
59.8128912113
 20
69.6535547523
 30
0.0
 10
59.4350699491
 20
69.8638219396
 30
0.0
 10
59.1326993056
 20
69.9713315162
 30
0.0
 10
58.9805633869
 20
70.0167943959
 30
0.0
  0
SPLINE
  5
318
100
AcDbEntity
  8
0
100
AcDbSpline
 62
7
  6
BYLAYER
 70
0
 71
3
 72
11
 73
7
 74
0
 42
0.0000001
 43
0.0000001
 44
0.0000000001
 40
0.0
 40
0.0
 40
0.0
 40
0.0
 40
0.2434955063
 40
0.4899801867
 40
0.7414687135
 40
1.0
 40
1.0
 40
1.0
 40
1.0
 10
60.3786019054
 20
67.7091807593
 30
0.0
 10
60.399782526
 20
67.8232395575
 30
0.0
 10
60.4338770548
 20
68.0545027023
 30
0.0
 10
60.44892036
 20
68.4083485871
 30
0.0
 10
60.4095930887
 20
68.7684337517
 30
0.0
 10
60.329855297
 20
69.0013231979
 30
0.0
 10
60.2741050052
 20
69.1111562893
 30
0.0
  0
SPLINE
  5
319
100
AcDbEntity
  8
0
100
AcDbSpline
 62
7
  6
BYLAYER
 70
0
 71
3
 72
17
 73
13
 74
0
 42
0.0000001
 43
0.0000001
 44
0.0000000001
 40
0.0
 40
0.0
 40
0.0
 40
0.0
 40
0.0440325992
 40
0.0911298493
 40
0.1419909641
 40
0.1969353219
 40
0.3185549758
 40
0.453242493
 40
0.5954451486
 40
0.7383929127
 40
0.8752298789
 40
1.0
 40
1.0
 40
1.0
 40
1.0
 10
65.0876530002
 20
63.7505860701
 30
0.0
 10
65.1214875353
 20
63.7433609407
 30
0.0
 10
65.1933736944
 20
63.7363235247
 30
0.0
 10
65.3049527274
 20
63.7475516402
 30
0.0
 10
65.4212792133
 20
63.7795104779
 30
0.0
 10
65.5854209522
 20
63.8513950476
 30
0.0
 10
65.7887953114
 20
63.9911264405
 30
0.0
 10
66.0099039361
 20
64.2148518871
 30
0.0
 10
66.2015456132
 20
64.4850397216
 30
0.0
 10
66.3503193137
 20
64.7828801929
 30
0.0
 10
66.4458482174
 20
65.0874553111
 30
0.0
 10
66.4710577974
 20
65.2932384858
 30
0.0
 10
66.4710577974
 20
65.3912730914
 30
0.0
  0
SPLINE
  5
31A
100
AcDbEntity
  8
0
100
AcDbSpline
 62
7
  6
BYLAYER
 70
0
 71
3
 72
14
 73
10
 74
0
 42
0.0000001
 43
0.0000001
 44
0.0000000001
 40
0.0
 40
0.0
 40
0.0
 40
0.0
 40
0.2717671636
 40
0.4039574489
 40
0.5318161347
 40
0.6547700515
 40
0.7730206283
 40
0.8875451646
 40
1.0
 40
1.0
 40
1.0
 40
1.0
 10
21.1335736599
 20
47.208438825
 30
0.0
 10
21.2628181853
 20
46.984581983
 30
0.0
 10
21.4038377041
 20
46.6174772304
 30
0.0
 10
21.4616722722
 20
46.1131116266
 30
0.0
 10
21.4385867039
 20
45.7473612532
 30
0.0
 10
21.3493704403
 20
45.4054694344
 30
0.0
 10
21.1968636298
 20
45.100427015
 30
0.0
 10
20.9865333365
 20
44.8446254498
 30
0.0
 10
20.8120124408
 20
44.7134009146
 30
0.0
 10
20.7193815944
 20
44.6599221966
 30
0.0
  0
SPLINE
  5
31B
100
AcDbEntity
  8
0
100
AcDbSpline
 62
7
  6
BYLAYER
 70
0
 71
3
 72
11
 73
7
 74
0
 42
0.0000001
 43
0.0000001
 44
0.0000000001
 40
0.0
 40
0.0
 40
0.0
 40
0.0
 40
0.2280175163
 40
0.4694324131
 40
0.7281502885
 40
1.0
 40
1.0
 40
1.0
 40
1.0
 10
11.2753186116
 20
53.6681680619
 30
0.0
 10
11.2351128195
 20
53.6410240159
 30
0.0
 10
11.1640669435
 20
53.5659603013
 30
0.0
 10
11.1090847081
 20
53.4174274451
 30
0.0
 10
11.1070053342
 20
53.2504624251
 30
0.0
 10
11.1397803687
 20
53.1404887841
 30
0.0
 10
11.1638425969
 20
53.0878956715
 30
0.0
  0
SPLINE
  5
31C
100
AcDbEntity
  8
0
100
AcDbSpline
 62
7
  6
BYLAYER
 70
0
 71
3
 72
11
 73
7
 74
0
 42
0.0000001
 43
0.0000001
 44
0.0000000001
 40
0.0
 40
0.0
 40
0.0
 40
0.0
 40
0.2721947237
 40
0.5304630823
 40
0.7714857698
 40
1.0
 40
1.0
 40
1.0
 40
1.0
 10
21.2575656584
 20
35.6143179044
 30
0.0
 10
21.2919673257
 20
35.5694991807
 30
0.0
 10
21.3717224563
 20
35.4909615674
 30
0.0
 10
21.5165767812
 20
35.416559902
 30
0.0
 10
21.6697850605
 20
35.3965895885
 30
0.0
 10
21.7668349993
 20
35.4239979745
 30
0.0
 10
21.8086385032
 20
35.4464107097
 30
0.0
  0
SPLINE
  5
31D
100
AcDbEntity
  8
0
100
AcDbSpline
 62
7
  6
BYLAYER
 70
0
 71
3
 72
9
 73
5
 74
0
 42
0.0000001
 43
0.0000001
 44
0.0000000001
 40
0.0
 40
0.0
 40
0.0
 40
0.0
 40
0.4951496173
 40
1.0
 40
1.0
 40
1.0
 40
1.0
 10
71.7721921832
 20
70.9438236759
 30
0.0
 10
71.6364975332
 20
71.3540113641
 30
0.0
 10
71.3232606444
 20
72.1698615844
 30
0.0
 10
70.9396636661
 20
72.954938785
 30
0.0
 10
70.7295237208
 20
73.3421002926
 30
0.0
  0
SPLINE
  5
31E
100
AcDbEntity
  8
0
100
AcDbSpline
 62
7
  6
BYLAYER
 70
0
 71
3
 72
14
 73
10
 74
0
 42
0.0000001
 43
0.0000001
 44
0.0000000001
 40
0.0
 40
0.0
 40
0.0
 40
0.0
 40
0.2843957078
 40
0.416357783
 40
0.541941386
 40
0.661896594
 40
0.7773155906
 40
0.8895381965
 40
1.0
 40
1.0
 40
1.0
 40
1.0
 10
33.2546760797
 20
45.5226148742
 30
0.0
 10
33.5510777338
 20
45.3798567848
 30
0.0
 10
34.0033657048
 20
45.203931743
 30
0.0
 10
34.6165901394
 20
45.0690376747
 30
0.0
 10
35.0519052785
 20
45.023109659
 30
0.0
 10
35.4705302544
 20
45.0306806827
 30
0.0
 10
35.8692906709
 20
45.0918677155
 30
0.0
 10
36.2446276665
 20
45.2065621211
 30
0.0
 10
36.4779945514
 20
45.3183805377
 30
0.0
 10
36.5886564451
 20
45.3822730386
 30
0.0
  0
SPLINE
  5
31F
100
AcDbEntity
  8
0
100
AcDbSpline
 62
7
  6
BYLAYER
 70
0
 71
3
 72
18
 73
14
 74
0
 42
0.0000001
 43
0.0000001
 44
0.0000000001
 40
0.0
 40
0.0
 40
0.0
 40
0.0
 40
0.0450568678
 40
0.0909945351
 40
0.1385389283
 40
0.1883407401
 40
0.2408847334
 40
0.2964762251
 40
0.4171429287
 40
0.5502135496
 40
0.6937983197
 40
0.8449264544
 40
1.0
 40
1.0
 40
1.0
 40
1.0
 10
36.5886564451
 20
45.3822730386
 30
0.0
 10
36.712401399
 20
45.4537192637
 30
0.0
 10
36.9503563558
 20
45.6198527967
 30
0.0
 10
37.2649025207
 20
45.9292647812
 30
0.0
 10
37.5353549039
 20
46.2966455732
 30
0.0
 10
37.7592564784
 20
46.7176659763
 30
0.0
 10
37.9349492639
 20
47.1881047019
 30
0.0
 10
38.1076266116
 20
47.8942958894
 30
0.0
 10
38.1860160086
 20
48.8787176256
 30
0.0
 10
38.0750150782
 20
50.1383730955
 30
0.0
 10
37.7668484898
 20
51.4636810167
 30
0.0
 10
37.273321103
 20
52.8053775151
 30
0.0
 10
36.8345507682
 20
53.6744253218
 30
0.0
 10
36.5886564451
 20
54.1003244183
 30
0.0
  0
SPLINE
  5
320
100
AcDbEntity
  8
0
100
AcDbSpline
 62
7
  6
BYLAYER
 70
0
 71
3
 72
18
 73
14
 74
0
 42
0.0000001
 43
0.0000001
 44
0.0000000001
 40
0.0
 40
0.0
 40
0.0
 40
0.0
 40
0.1550742621
 40
0.3062027557
 40
0.4497875502
 40
0.5828579177
 40
0.7035241924
 40
0.759115455
 40
0.8116592422
 40
0.8614609004
 40
0.9090052272
 40
0.9549429448
 40
1.0
 40
1.0
 40
1.0
 40
1.0
 10
36.5886564451
 20
54.1003244183
 30
0.0
 10
36.3427624152
 20
54.5262230071
 30
0.0
 10
35.8095274675
 20
55.3407287747
 30
0.0
 10
34.8943452053
 20
56.4389758156
 30
0.0
 10
33.9006776914
 20
57.3684985147
 30
0.0
 10
32.8652862032
 20
58.0944420575
 30
0.0
 10
31.9735601582
 20
58.5187522325
 30
0.0
 10
31.275645695
 20
58.7222929157
 30
0.0
 10
30.7803907058
 20
58.805348833
 30
0.0
 10
30.3038293035
 20
58.8219452772
 30
0.0
 10
29.8504462268
 20
58.771407561
 30
0.0
 10
29.4252192089
 20
58.6536990107
 30
0.0
 10
29.1623697609
 20
58.5306845941
 30
0.0
 10
29.0386250116
 20
58.459238487
 30
0.0
  0
SPLINE
  5
321
100
AcDbEntity
  8
0
100
AcDbSpline
 62
7
  6
BYLAYER
 70
0
 71
3
 72
11
 73
7
 74
0
 42
0.0000001
 43
0.0000001
 44
0.0000000001
 40
0.0
 40
0.0
 40
0.0
 40
0.0
 40
0.2419197285
 40
0.4873537196
 40
0.7391492822
 40
1.0
 40
1.0
 40
1.0
 40
1.0
 10
29.0386250116
 20
58.459238487
 30
0.0
 10
28.9334820899
 20
58.3985324573
 30
0.0
 10
28.7303139994
 20
58.2605659886
 30
0.0
 10
28.4553792351
 20
58.0097939842
 30
0.0
 10
28.2114694751
 20
57.7163754729
 30
0.0
 10
28.0734257458
 20
57.4983606568
 30
0.0
 10
28.0099564356
 20
57.3838656372
 30
0.0
  0
SPLINE
  5
322
100
AcDbEntity
  8
0
100
AcDbSpline
 62
7
  6
BYLAYER
 70
0
 71
3
 72
9
 73
5
 74
0
 42
0.0000001
 43
0.0000001
 44
0.0000000001
 40
0.0
 40
0.0
 40
0.0
 40
0.0
 40
0.2337906042
 40
1.0
 40
1.0
 40
1.0
 40
1.0
 10
27.9743616778
 20
57.3179483202
 30
0.0
 10
27.9132725776
 20
57.2017915156
 30
0.0
 10
27.6803468633
 20
56.6900108428
 30
0.0
 10
27.5582982414
 20
56.1322438439
 30
0.0
 10
27.5118098721
 20
55.7046421759
 30
0.0
  0
SPLINE
  5
323
100
AcDbEntity
  8
0
100
AcDbSpline
 62
7
  6
BYLAYER
 70
0
 71
3
 72
9
 73
5
 74
0
 42
0.0000001
 43
0.0000001
 44
0.0000000001
 40
0.0
 40
0.0
 40
0.0
 40
0.0
 40
0.2529781986
 40
1.0
 40
1.0
 40
1.0
 40
1.0
 10
70.8897337788
 20
72.934959184
 30
0.0
 10
70.9729963597
 20
72.7711452641
 30
0.0
 10
71.2906405365
 20
72.117853387
 30
0.0
 10
71.5622946388
 20
71.4420139203
 30
0.0
 10
71.735405789
 20
70.9277420331
 30
0.0
  0
SPLINE
  5
324
100
AcDbEntity
  8
0
100
AcDbSpline
 62
7
  6
BYLAYER
 70
0
 71
3
 72
12
 73
8
 74
0
 42
0.0000001
 43
0.0000001
 44
0.0000000001
 40
0.0
 40
0.0
 40
0.0
 40
0.0
 40
0.2846572537
 40
0.5436337391
 40
0.7797001809
 40
0.8913146647
 40
1.0
 40
1.0
 40
1.0
 40
1.0
 10
33.2181329848
 20
45.361821754
 30
0.0
 10
33.5217883816
 20
45.1961095961
 30
0.0
 10
34.1255152272
 20
44.9196789133
 30
0.0
 10
35.0480262827
 20
44.6806500337
 30
0.0
 10
35.7924623561
 20
44.651942721
 30
0.0
 10
36.3416420749
 20
44.7388795658
 30
0.0
 10
36.5989000751
 20
44.8166932262
 30
0.0
 10
36.7222668089
 20
44.8638705433
 30
0.0
  0
SPLINE
  5
325
100
AcDbEntity
  8
0
100
AcDbSpline
 62
7
  6
BYLAYER
 70
0
 71
3
 72
27
 73
23
 74
0
 42
0.0000001
 43
0.0000001
 44
0.0000000001
 40
0.0
 40
0.0
 40
0.0
 40
0.0
 40
0.0217679893
 40
0.0438746744
 40
0.0665918313
 40
0.0901739169
 40
0.1148329986
 40
0.1407181639
 40
0.1964364552
 40
0.2576007974
 40
0.3237934743
 40
0.3941495395
 40
0.4674950869
 40
0.5424589926
 40
0.6175703271
 40
0.691349293
 40
0.7623967955
 40
0.8294924015
 40
0.8612713108
 40
0.8917414617
 40
0.948546236
 40
1.0
 40
1.0
 40
1.0
 40
1.0
 10
37.1111440382
 20
45.0488449994
 30
0.0
 10
37.2277977906
 20
45.1161970004
 30
0.0
 10
37.4529977154
 20
45.2699664285
 30
0.0
 10
37.7564329033
 20
45.5508005926
 30
0.0
 10
38.0241094588
 20
45.8804688551
 30
0.0
 10
38.254066902
 20
46.255906504
 30
0.0
 10
38.4447678317
 20
46.6742331239
 30
0.0
 10
38.6502290453
 20
47.3000519134
 30
0.0
 10
38.7953581655
 20
48.1770686118
 30
0.0
 10
38.7962934682
 20
49.3138392676
 30
0.0
 10
38.6297841553
 20
50.5293145893
 30
0.0
 10
38.3009416135
 20
51.7886541483
 30
0.0
 10
37.8194284335
 20
53.0558053117
 30
0.0
 10
37.1992322837
 20
54.2939889863
 30
0.0
 10
36.4584321048
 20
55.4671591776
 30
0.0
 10
35.6185568987
 20
56.5411759175
 30
0.0
 10
34.7041248259
 20
57.4846971332
 30
0.0
 10
33.8871940628
 20
58.1515215038
 30
0.0
 10
33.2183127295
 20
58.5922454035
 30
0.0
 10
32.5748467544
 20
58.9520816303
 30
0.0
 10
31.7785688372
 20
59.2836298198
 30
0.0
 10
31.116496037
 20
59.4199341626
 30
0.0
 10
30.7991366796
 20
59.4456281286
 30
0.0
  0
SPLINE
  5
326
100
AcDbEntity
  8
0
100
AcDbSpline
 62
7
  6
BYLAYER
 70
0
 71
3
 72
14
 73
10
 74
0
 42
0.0000001
 43
0.0000001
 44
0.0000000001
 40
0.0
 40
0.0
 40
0.0
 40
0.0
 40
0.2045728684
 40
0.3205379692
 40
0.4449598169
 40
0.5767573571
 40
0.7144209628
 40
0.8561780862
 40
1.0
 40
1.0
 40
1.0
 40
1.0
 10
30.8816945808
 20
59.3026344429
 30
0.0
 10
31.4353354325
 20
59.2520002798
 30
0.0
 10
32.2876723306
 20
58.9864866511
 30
0.0
 10
33.3468642036
 20
58.4022993726
 30
0.0
 10
34.1695046556
 20
57.8089178934
 30
0.0
 10
34.9668916884
 20
57.0923465704
 30
0.0
 10
35.7233834589
 20
56.2675060579
 30
0.0
 10
36.4223126547
 20
55.3522486051
 30
0.0
 10
36.8391474493
 20
54.6962665204
 30
0.0
 10
37.0345749627
 20
54.3577780171
 30
0.0
  0
SPLINE
  5
327
100
AcDbEntity
  8
0
100
AcDbSpline
 62
7
  6
BYLAYER
 70
0
 71
3
 72
18
 73
14
 74
0
 42
0.0000001
 43
0.0000001
 44
0.0000000001
 40
0.0
 40
0.0
 40
0.0
 40
0.0
 40
0.1573709837
 40
0.3102786744
 40
0.4546931351
 40
0.5873926197
 40
0.7065481535
 40
0.7611189707
 40
0.8126070477
 40
0.8614863883
 40
0.9084306261
 40
0.9542838168
 40
1.0
 40
1.0
 40
1.0
 40
1.0
 10
37.0345749627
 20
54.3577780171
 30
0.0
 10
37.3079394686
 20
53.8842994322
 30
0.0
 10
37.792150885
 20
52.9177984393
 30
0.0
 10
38.3242035046
 20
51.4262251509
 30
0.0
 10
38.6370242808
 20
49.9601463426
 30
0.0
 10
38.7172108866
 20
48.5799479078
 30
0.0
 10
38.5814142124
 20
47.5151056139
 30
0.0
 10
38.343778469
 20
46.7676080596
 30
0.0
 10
38.1131374692
 20
46.2792458525
 30
0.0
 10
37.8270212817
 20
45.8523984345
 30
0.0
 10
37.4880347158
 20
45.4921861423
 30
0.0
 10
37.099929301
 20
45.2035209568
 30
0.0
 10
36.8128244215
 20
45.0618667486
 30
0.0
 10
36.6647437348
 20
45.0044462506
 30
0.0
  0
SPLINE
  5
328
100
AcDbEntity
  8
0
100
AcDbSpline
 62
7
  6
BYLAYER
 70
0
 71
3
 72
9
 73
5
 74
0
 42
0.0000001
 43
0.0000001
 44
0.0000000001
 40
0.0
 40
0.0
 40
0.0
 40
0.0
 40
0.248119666
 40
1.0
 40
1.0
 40
1.0
 40
1.0
 10
69.9946749455
 20
73.9129086064
 30
0.0
 10
70.0726816097
 20
73.8358171031
 30
0.0
 10
70.3837520396
 20
73.5218197435
 30
0.0
 10
70.6800610296
 20
73.1928144248
 30
0.0
 10
70.8897337788
 20
72.934959184
 30
0.0
  0
SPLINE
  5
329
100
AcDbEntity
  8
0
100
AcDbSpline
 62
7
  6
BYLAYER
 70
0
 71
3
 72
9
 73
5
 74
0
 42
0.0000001
 43
0.0000001
 44
0.0000000001
 40
0.0
 40
0.0
 40
0.0
 40
0.0
 40
0.4894616385
 40
1.0
 40
1.0
 40
1.0
 40
1.0
 10
66.9798070944
 20
77.5482407165
 30
0.0
 10
67.5140934375
 20
77.0644349216
 30
0.0
 10
68.5312059737
 20
75.9919291507
 30
0.0
 10
69.398639118
 20
74.7965378175
 30
0.0
 10
69.8017731973
 20
74.1619362198
 30
0.0
  0
SPLINE
  5
32A
100
AcDbEntity
  8
0
100
AcDbSpline
 62
7
  6
BYLAYER
 70
0
 71
3
 72
20
 73
16
 74
0
 42
0.0000001
 43
0.0000001
 44
0.0000000001
 40
0.0
 40
0.0
 40
0.0
 40
0.0
 40
0.0450514004
 40
0.0909734747
 40
0.1385039001
 40
0.1882965944
 40
0.2408280786
 40
0.2964061016
 40
0.3551840501
 40
0.4171785476
 40
0.4822904423
 40
0.5503191993
 40
0.693870274
 40
0.8449628678
 40
1.0
 40
1.0
 40
1.0
 40
1.0
 10
40.5531161008
 20
41.0027553576
 30
0.0
 10
40.7715385282
 20
41.1288652104
 30
0.0
 10
41.1915375795
 20
41.4220364749
 30
0.0
 10
41.7466154469
 20
41.9681669975
 30
0.0
 10
42.2239473268
 20
42.6165078144
 30
0.0
 10
42.6191074941
 20
43.3595785099
 30
0.0
 10
42.9291924219
 20
44.1898321371
 30
0.0
 10
43.1516372127
 20
45.0992316101
 30
0.0
 10
43.2848558234
 20
46.0791038121
 30
0.0
 10
43.3279029532
 20
47.1202292066
 30
0.0
 10
43.2804486447
 20
48.2128515072
 30
0.0
 10
43.0939685272
 20
49.751877228
 30
0.0
 10
42.6324252911
 20
51.7360095661
 30
0.0
 10
41.7615056083
 20
54.1037440554
 30
0.0
 10
40.9870953311
 20
55.6375803175
 30
0.0
 10
40.5531161008
 20
56.3892502211
 30
0.0
  0
SPLINE
  5
32B
100
AcDbEntity
  8
0
100
AcDbSpline
 62
7
  6
BYLAYER
 70
0
 71
3
 72
20
 73
16
 74
0
 42
0.0000001
 43
0.0000001
 44
0.0000000001
 40
0.0
 40
0.0
 40
0.0
 40
0.0
 40
0.1550371322
 40
0.306129726
 40
0.4496808007
 40
0.5177095577
 40
0.5828214524
 40
0.6448159499
 40
0.7035938984
 40
0.7591719214
 40
0.8117034056
 40
0.8614960999
 40
0.9090265253
 40
0.9549485996
 40
1.0
 40
1.0
 40
1.0
 40
1.0
 10
40.2202530463
 20
56.1970703208
 30
0.0
 10
40.6461582852
 20
55.459384903
 30
0.0
 10
41.406161002
 20
53.9540849853
 30
0.0
 10
42.2608776098
 20
51.6304011479
 30
0.0
 10
42.7138340383
 20
49.6831827134
 30
0.0
 10
42.8968447757
 20
48.1727898847
 30
0.0
 10
42.9434162179
 20
47.1004953383
 30
0.0
 10
42.9011699608
 20
46.0787396207
 30
0.0
 10
42.7704298234
 20
45.1170975072
 30
0.0
 10
42.5521235195
 20
44.2246170087
 30
0.0
 10
42.2478075844
 20
43.4098098826
 30
0.0
 10
41.8599991971
 20
42.6805636884
 30
0.0
 10
41.3915478655
 20
42.0442849653
 30
0.0
 10
40.8467969761
 20
41.5083149593
 30
0.0
 10
40.4346118212
 20
41.2205980164
 30
0.0
 10
40.2202530463
 20
41.0968343816
 30
0.0
  0
SPLINE
  5
32C
100
AcDbEntity
  8
0
100
AcDbSpline
 62
7
  6
BYLAYER
 70
0
 71
3
 72
15
 73
11
 74
0
 42
0.0000001
 43
0.0000001
 44
0.0000000001
 40
0.0
 40
0.0
 40
0.0
 40
0.0
 40
0.1048129395
 40
0.2122173079
 40
0.3244113371
 40
0.4431963335
 40
0.5697547632
 40
0.7047162436
 40
0.8482228267
 40
1.0
 40
1.0
 40
1.0
 40
1.0
 10
40.2202530463
 20
41.0968343816
 30
0.0
 10
39.9754670816
 20
40.9555030982
 30
0.0
 10
39.4503480413
 20
40.7174948423
 30
0.0
 10
38.5948181566
 20
40.513082519
 30
0.0
 10
37.6793617168
 20
40.4609003569
 30
0.0
 10
36.7166630861
 20
40.5600195453
 30
0.0
 10
35.7184181196
 20
40.8079014385
 30
0.0
 10
34.6965681886
 20
41.2006045265
 30
0.0
 10
33.6633352773
 20
41.7327646953
 30
0.0
 10
32.9928255853
 20
42.1647426051
 30
0.0
 10
32.6584320986
 20
42.4007813209
 30
0.0
  0
SPLINE
  5
32D
100
AcDbEntity
  8
0
100
AcDbSpline
 62
7
  6
BYLAYER
 70
0
 71
3
 72
9
 73
5
 74
0
 42
0.0000001
 43
0.0000001
 44
0.0000000001
 40
0.0
 40
0.0
 40
0.0
 40
0.0
 40
0.5123809703
 40
1.0
 40
1.0
 40
1.0
 40
1.0
 10
65.8719617779
 20
78.4783456808
 30
0.0
 10
66.0749479618
 20
78.3370556311
 30
0.0
 10
66.4591348989
 20
78.043567544
 30
0.0
 10
66.8143552106
 20
77.715640861
 30
0.0
 10
66.9798070944
 20
77.5482407165
 30
0.0
  0
SPLINE
  5
32E
100
AcDbEntity
  8
0
100
AcDbSpline
 62
7
  6
BYLAYER
 70
0
 71
3
 72
11
 73
7
 74
0
 42
0.0000001
 43
0.0000001
 44
0.0000000001
 40
0.0
 40
0.0
 40
0.0
 40
0.0
 40
0.263322404
 40
0.5210791334
 40
0.7681180674
 40
1.0
 40
1.0
 40
1.0
 40
1.0
 10
43.0202098704
 20
57.8136166012
 30
0.0
 10
42.6318773866
 20
58.4862244596
 30
0.0
 10
41.7946795896
 20
59.7789159459
 30
0.0
 10
40.3687901216
 20
61.5449402021
 30
0.0
 10
38.8215268995
 20
63.0769180599
 30
0.0
 10
37.6989252554
 20
63.9425731933
 30
0.0
 10
37.1278029682
 20
64.3188419623
 30
0.0
  0
SPLINE
  5
32F
100
AcDbEntity
  8
0
100
AcDbSpline
 62
7
  6
BYLAYER
 70
0
 71
3
 72
20
 73
16
 74
0
 42
0.0000001
 43
0.0000001
 44
0.0000000001
 40
0.0
 40
0.0
 40
0.0
 40
0.0
 40
0.0450514004
 40
0.0909734747
 40
0.1385039001
 40
0.1882965944
 40
0.2408280786
 40
0.2964061016
 40
0.3551840501
 40
0.4171785476
 40
0.4822904423
 40
0.5503191993
 40
0.693870274
 40
0.8449628678
 40
1.0
 40
1.0
 40
1.0
 40
1.0
 10
43.3804421842
 20
42.5629622272
 30
0.0
 10
43.5998887122
 20
42.6896633617
 30
0.0
 10
44.021856981
 20
42.9842091959
 30
0.0
 10
44.5795373996
 20
43.532900319
 30
0.0
 10
45.0591073091
 20
44.1842809622
 30
0.0
 10
45.4561202337
 20
44.9308356365
 30
0.0
 10
45.7676590331
 20
45.7649820106
 30
0.0
 10
45.9911467838
 20
46.6786453156
 30
0.0
 10
46.1249900065
 20
47.6631117696
 30
0.0
 10
46.1682389681
 20
48.7091186094
 30
0.0
 10
46.1205621641
 20
49.8068638048
 30
0.0
 10
45.9332077116
 20
51.3531054382
 30
0.0
 10
45.4695004729
 20
53.3465406263
 30
0.0
 10
44.5944973754
 20
55.7253765317
 30
0.0
 10
43.8164561798
 20
57.266404375
 30
0.0
 10
43.3804421842
 20
58.021598576
 30
0.0
  0
SPLINE
  5
330
100
AcDbEntity
  8
0
100
AcDbSpline
 62
7
  6
BYLAYER
 70
0
 71
3
 72
25
 73
21
 74
0
 42
0.0000001
 43
0.0000001
 44
0.0000000001
 40
0.0
 40
0.0
 40
0.0
 40
0.0
 40
0.0213246774
 40
0.0428919118
 40
0.0649004325
 40
0.0875437588
 40
0.1353186538
 40
0.1872199248
 40
0.2436574603
 40
0.3046051212
 40
0.369692524
 40
0.438289443
 40
0.5095755907
 40
0.5825995989
 40
0.6563310456
 40
0.7297081056
 40
0.8016853224
 40
0.8712776528
 40
0.9376187766
 40
1.0
 40
1.0
 40
1.0
 40
1.0
 10
52.3186253242
 20
47.5938893862
 30
0.0
 10
52.4844156261
 20
47.6896111983
 30
0.0
 10
52.8058643315
 20
47.9038314987
 30
0.0
 10
53.2471974779
 20
48.2864029778
 30
0.0
 10
53.6462592479
 20
48.7290127207
 30
0.0
 10
54.1273931928
 20
49.4070002582
 30
0.0
 10
54.6090091676
 20
50.4032515601
 30
0.0
 10
54.9761671516
 20
51.762468207
 30
0.0
 10
55.139782676
 20
53.2787224914
 30
0.0
 10
55.0979966237
 20
54.9204309605
 30
0.0
 10
54.8526538305
 20
56.6538491522
 30
0.0
 10
54.4092238691
 20
58.4427189459
 30
0.0
 10
53.7772127352
 20
60.2493084431
 30
0.0
 10
52.9700814751
 20
62.035258068
 30
0.0
 10
52.0050352877
 20
63.7625151149
 30
0.0
 10
50.9026553092
 20
65.394247934
 30
0.0
 10
49.686463929
 20
66.8956277385
 30
0.0
 10
48.3822133063
 20
68.2348212679
 30
0.0
 10
47.0177674285
 20
69.3830633255
 30
0.0
 10
46.054386881
 20
70.0271297508
 30
0.0
 10
45.5694097053
 20
70.3071632891
 30
0.0
  0
SPLINE
  5
331
100
AcDbEntity
  8
0
100
AcDbSpline
 62
7
  6
BYLAYER
 70
0
 71
3
 72
15
 73
11
 74
0
 42
0.0000001
 43
0.0000001
 44
0.0000000001
 40
0.0
 40
0.0
 40
0.0
 40
0.0
 40
0.1485691122
 40
0.2895008203
 40
0.4227203173
 40
0.5486385271
 40
0.6679975616
 40
0.7819310789
 40
0.8920088699
 40
1.0
 40
1.0
 40
1.0
 40
1.0
 10
45.5694097053
 20
70.3071632891
 30
0.0
 10
45.2649626638
 20
70.4829558553
 30
0.0
 10
44.6571534133
 20
70.8012203563
 30
0.0
 10
43.7300217866
 20
71.1808616473
 30
0.0
 10
42.8193035027
 20
71.4463659638
 30
0.0
 10
41.9337445035
 20
71.5948723534
 30
0.0
 10
41.0815682452
 20
71.6246151633
 30
0.0
 10
40.2708762009
 20
71.5342257775
 30
0.0
 10
39.5104921536
 20
71.3238351414
 30
0.0
 10
39.040492033
 20
71.1038239833
 30
0.0
 10
38.8191924699
 20
70.9760529679
 30
0.0
  0
SPLINE
  5
332
100
AcDbEntity
  8
0
100
AcDbSpline
 62
7
  6
BYLAYER
 70
0
 71
3
 72
15
 73
11
 74
0
 42
0.0000001
 43
0.0000001
 44
0.0000000001
 40
0.0
 40
0.0
 40
0.0
 40
0.0
 40
0.148571981
 40
0.2895075556
 40
0.4227234728
 40
0.5486372092
 40
0.6679992364
 40
0.781937336
 40
0.8919862292
 40
1.0
 40
1.0
 40
1.0
 40
1.0
 10
45.7273489011
 20
71.0104488964
 30
0.0
 10
45.4059876123
 20
71.1959827257
 30
0.0
 10
44.7643776326
 20
71.5318245496
 30
0.0
 10
43.7857379558
 20
71.9324215737
 30
0.0
 10
42.8244831898
 20
72.2126472955
 30
0.0
 10
41.8897855506
 20
72.3693883901
 30
0.0
 10
40.9902999703
 20
72.4007352999
 30
0.0
 10
40.1346795767
 20
72.3052797945
 30
0.0
 10
39.3320695516
 20
72.0833148023
 30
0.0
 10
38.8360139169
 20
71.8510566624
 30
0.0
 10
38.6023807971
 20
71.7161698725
 30
0.0
  0
SPLINE
  5
333
100
AcDbEntity
  8
0
100
AcDbSpline
 62
7
  6
BYLAYER
 70
0
 71
3
 72
11
 73
7
 74
0
 42
0.0000001
 43
0.0000001
 44
0.0000000001
 40
0.0
 40
0.0
 40
0.0
 40
0.0
 40
0.2372562862
 40
0.5000061538
 40
0.7627526759
 40
1.0
 40
1.0
 40
1.0
 40
1.0
 10
70.9792067584
 20
62.501860294
 30
0.0
 10
70.9792067584
 20
62.5598231687
 30
0.0
 10
70.9574735832
 20
62.682059521
 30
0.0
 10
70.8816680944
 20
62.8537956871
 30
0.0
 10
70.770836945
 20
63.0053061265
 30
0.0
 10
70.6758411129
 20
63.0852383818
 30
0.0
 10
70.6256434589
 20
63.1142148646
 30
0.0
  0
SPLINE
  5
334
100
AcDbEntity
  8
0
100
AcDbSpline
 62
7
  6
BYLAYER
 70
0
 71
3
 72
9
 73
5
 74
0
 42
0.0000001
 43
0.0000001
 44
0.0000000001
 40
0.0
 40
0.0
 40
0.0
 40
0.0
 40
0.2389813409
 40
1.0
 40
1.0
 40
1.0
 40
1.0
 10
70.9708191483
 20
62.4183072553
 30
0.0
 10
70.9722332453
 20
62.4248528479
 30
0.0
 10
70.9773162425
 20
62.4524210575
 30
0.0
 10
70.9792067584
 20
62.4805354592
 30
0.0
 10
70.9792067584
 20
62.501860294
 30
0.0
  0
SPLINE
  5
335
100
AcDbEntity
  8
0
100
AcDbSpline
 62
7
  6
BYLAYER
 70
0
 71
3
 72
10
 73
6
 74
0
 42
0.0000001
 43
0.0000001
 44
0.0000000001
 40
0.0
 40
0.0
 40
0.0
 40
0.0
 40
0.2382840653
 40
0.4832861554
 40
1.0
 40
1.0
 40
1.0
 40
1.0
 10
69.850708085
 20
60.7162053616
 30
0.0
 10
69.9699888331
 20
60.8273060998
 30
0.0
 10
70.1978130434
 20
61.0683157715
 30
0.0
 10
70.6056317316
 20
61.6189908147
 30
0.0
 10
70.8418621519
 20
62.0891930801
 30
0.0
 10
70.9708191483
 20
62.4183072553
 30
0.0
  0
SPLINE
  5
336
100
AcDbEntity
  8
0
100
AcDbSpline
 62
7
  6
BYLAYER
 70
0
 71
3
 72
25
 73
21
 74
0
 42
0.0000001
 43
0.0000001
 44
0.0000000001
 40
0.0
 40
0.0
 40
0.0
 40
0.0
 40
0.0213322634
 40
0.0428928181
 40
0.064898472
 40
0.0875432464
 40
0.1353187207
 40
0.1872199066
 40
0.2436577406
 40
0.3046057224
 40
0.3696935214
 40
0.4382908304
 40
0.509577304
 40
0.5826015083
 40
0.6563329574
 40
0.7297097688
 40
0.8016864599
 40
0.8712778744
 40
0.9376179653
 40
1.0
 40
1.0
 40
1.0
 40
1.0
 10
52.8523170051
 20
47.0344090261
 30
0.0
 10
53.0273912268
 20
47.13548716
 30
0.0
 10
53.366747871
 20
47.3615916386
 30
0.0
 10
53.8325803661
 20
47.7654655113
 30
0.0
 10
54.2537566868
 20
48.2326524547
 30
0.0
 10
54.7616833106
 20
48.9483085169
 30
0.0
 10
55.2700879764
 20
49.9999875079
 30
0.0
 10
55.6576494016
 20
51.4348032663
 30
0.0
 10
55.8303572963
 20
53.0353861195
 30
0.0
 10
55.786225506
 20
54.7684030638
 30
0.0
 10
55.5272166544
 20
56.5982279537
 30
0.0
 10
55.0590983425
 20
58.4865848745
 30
0.0
 10
54.3919088812
 20
60.3936412985
 30
0.0
 10
53.5398590825
 20
62.2789026637
 30
0.0
 10
52.5211107263
 20
64.1021970825
 30
0.0
 10
51.3573962806
 20
65.8246458745
 30
0.0
 10
50.0735389591
 20
67.4094771518
 30
0.0
 10
48.6967336066
 20
68.8230861167
 30
0.0
 10
47.2564040039
 20
70.035177756
 30
0.0
 10
46.2393208515
 20
70.71486844
 30
0.0
 10
45.7273489011
 20
71.0104488964
 30
0.0
  0
SPLINE
  5
337
100
AcDbEntity
  8
0
100
AcDbSpline
 62
7
  6
BYLAYER
 70
0
 71
3
 72
9
 73
5
 74
0
 42
0.0000001
 43
0.0000001
 44
0.0000000001
 40
0.0
 40
0.0
 40
0.0
 40
0.0
 40
0.2581601318
 40
1.0
 40
1.0
 40
1.0
 40
1.0
 10
62.9448888898
 20
58.4628622626
 30
0.0
 10
62.9207752935
 20
58.3714002722
 30
0.0
 10
62.8199104302
 20
58.0191646435
 30
0.0
 10
62.688056838
 20
57.6754957548
 30
0.0
 10
62.5711780357
 20
57.4301060544
 30
0.0
  0
SPLINE
  5
338
100
AcDbEntity
  8
0
100
AcDbSpline
 62
7
  6
BYLAYER
 70
0
 71
3
 72
9
 73
5
 74
0
 42
0.0000001
 43
0.0000001
 44
0.0000000001
 40
0.0
 40
0.0
 40
0.0
 40
0.0
 40
0.5045428313
 40
1.0
 40
1.0
 40
1.0
 40
1.0
 10
26.0080300798
 20
62.8099554007
 30
0.0
 10
26.1718208951
 20
62.9966769509
 30
0.0
 10
26.5256419306
 20
63.3423742515
 30
0.0
 10
26.9318762263
 20
63.6250389712
 30
0.0
 10
27.1431041479
 20
63.7469949554
 30
0.0
  0
SPLINE
  5
339
100
AcDbEntity
  8
0
100
AcDbSpline
 62
7
  6
BYLAYER
 70
0
 71
3
 72
9
 73
5
 74
0
 42
0.0000001
 43
0.0000001
 44
0.0000000001
 40
0.0
 40
0.0
 40
0.0
 40
0.0
 40
0.4941534886
 40
1.0
 40
1.0
 40
1.0
 40
1.0
 10
27.3404170651
 20
63.8542373355
 30
0.0
 10
27.5589394465
 20
63.9658237791
 30
0.0
 10
28.0210651753
 20
64.1544722788
 30
0.0
 10
28.5075042434
 20
64.2650670613
 30
0.0
 10
28.7559150083
 20
64.3021956062
 30
0.0
  0
SPLINE
  5
33A
100
AcDbEntity
  8
0
100
AcDbSpline
 62
7
  6
BYLAYER
 70
0
 71
3
 72
9
 73
5
 74
0
 42
0.0000001
 43
0.0000001
 44
0.0000000001
 40
0.0
 40
0.0
 40
0.0
 40
0.0
 40
0.505784136
 40
1.0
 40
1.0
 40
1.0
 40
1.0
 10
28.8377672637
 20
64.6428776261
 30
0.0
 10
28.5526188712
 20
64.5983082765
 30
0.0
 10
27.995027993
 20
64.461666266
 30
0.0
 10
27.4722860301
 20
64.2233083934
 30
0.0
 10
27.2280604419
 20
64.0823006527
 30
0.0
  0
SPLINE
  5
33B
100
AcDbEntity
  8
0
100
AcDbSpline
 62
7
  6
BYLAYER
 70
0
 71
3
 72
11
 73
7
 74
0
 42
0.0000001
 43
0.0000001
 44
0.0000000001
 40
0.0
 40
0.0
 40
0.0
 40
0.0
 40
0.2627793358
 40
0.5149127747
 40
0.7594474972
 40
1.0
 40
1.0
 40
1.0
 40
1.0
 10
30.7295831715
 20
59.4506267904
 30
0.0
 10
30.5737477489
 20
59.4604009629
 30
0.0
 10
30.2667524661
 20
59.4607169025
 30
0.0
 10
29.818232815
 20
59.398685222
 30
0.0
 10
29.3964958947
 20
59.2742717191
 30
0.0
 10
29.1348942287
 20
59.1499062746
 30
0.0
 10
29.0111101046
 20
59.0784374339
 30
0.0
  0
SPLINE
  5
33C
100
AcDbEntity
  8
0
100
AcDbSpline
 62
7
  6
BYLAYER
 70
0
 71
3
 72
9
 73
5
 74
0
 42
0.0000001
 43
0.0000001
 44
0.0000000001
 40
0.0
 40
0.0
 40
0.0
 40
0.0
 40
0.4872839103
 40
1.0
 40
1.0
 40
1.0
 40
1.0
 10
28.5481644589
 20
58.7415714517
 30
0.0
 10
28.4022335292
 20
58.6102117731
 30
0.0
 10
28.1306084232
 20
58.3084528302
 30
0.0
 10
27.9214614602
 20
57.9612871954
 30
0.0
 10
27.8295710977
 20
57.7762561676
 30
0.0
  0
SPLINE
  5
33D
100
AcDbEntity
  8
0
100
AcDbSpline
 62
7
  6
BYLAYER
 70
0
 71
3
 72
17
 73
13
 74
0
 42
0.0000001
 43
0.0000001
 44
0.0000000001
 40
0.0
 40
0.0
 40
0.0
 40
0.0
 40
0.0937871366
 40
0.1439948161
 40
0.1966599329
 40
0.2519178659
 40
0.3098021379
 40
0.4331654627
 40
0.5658472277
 40
0.7061051633
 40
0.8516832166
 40
1.0
 40
1.0
 40
1.0
 40
1.0
 10
28.8300672078
 20
64.3127157109
 30
0.0
 10
29.2852852869
 20
64.3738566945
 30
0.0
 10
29.9994779221
 20
64.372086885
 30
0.0
 10
30.9501614594
 20
64.2128882514
 30
0.0
 10
31.6986033974
 20
64.0086309723
 30
0.0
 10
32.4600034877
 20
63.7236001686
 30
0.0
 10
33.5082913554
 20
63.2283774051
 30
0.0
 10
34.8178354092
 20
62.4122112865
 30
0.0
 10
36.3234442762
 20
61.1805815152
 30
0.0
 10
37.7562716314
 20
59.7093254538
 30
0.0
 10
39.0771477914
 20
58.0389316822
 30
0.0
 10
39.8570741018
 20
56.8261112129
 30
0.0
 10
40.2202530463
 20
56.1970703208
 30
0.0
  0
SPLINE
  5
33E
100
AcDbEntity
  8
0
100
AcDbSpline
 62
7
  6
BYLAYER
 70
0
 71
3
 72
10
 73
6
 74
0
 42
0.0000001
 43
0.0000001
 44
0.0000000001
 40
0.0
 40
0.0
 40
0.0
 40
0.0
 40
0.5002980363
 40
0.7508670778
 40
1.0
 40
1.0
 40
1.0
 40
1.0
 10
71.1444367741
 20
63.1417575681
 30
0.0
 10
71.0976759002
 20
63.1687636556
 30
0.0
 10
71.0217560539
 20
63.1999532947
 30
0.0
 10
70.916699949
 20
63.2247784491
 30
0.0
 10
70.8633339068
 20
63.233280445
 30
0.0
 10
70.8365783815
 20
63.2359653586
 30
0.0
  0
SPLINE
  5
33F
100
AcDbEntity
  8
0
100
AcDbSpline
 62
7
  6
BYLAYER
 70
0
 71
3
 72
11
 73
7
 74
0
 42
0.0000001
 43
0.0000001
 44
0.0000000001
 40
0.0
 40
0.0
 40
0.0
 40
0.0
 40
0.2701892221
 40
0.5247875375
 40
0.7667029903
 40
1.0
 40
1.0
 40
1.0
 40
1.0
 10
61.6474466599
 20
79.1571440859
 30
0.0
 10
61.3965241369
 20
79.2196630922
 30
0.0
 10
60.9008366024
 20
79.3110966341
 30
0.0
 10
60.164737593
 20
79.3390696795
 30
0.0
 10
59.4684437929
 20
79.25201065
 30
0.0
 10
59.0313822287
 20
79.1156665056
 30
0.0
 10
58.825480557
 20
79.0292916513
 30
0.0
  0
SPLINE
  5
340
100
AcDbEntity
  8
0
100
AcDbSpline
 62
7
  6
BYLAYER
 70
0
 71
3
 72
9
 73
5
 74
0
 42
0.0000001
 43
0.0000001
 44
0.0000000001
 40
0.0
 40
0.0
 40
0.0
 40
0.0
 40
0.5105382084
 40
1.0
 40
1.0
 40
1.0
 40
1.0
 10
68.5289862903
 20
73.4270967428
 30
0.0
 10
68.1258523581
 20
74.0616981089
 30
0.0
 10
67.2584159107
 20
75.2570867279
 30
0.0
 10
66.2413066628
 20
76.3295953247
 30
0.0
 10
65.7070201874
 20
76.8134012395
 30
0.0
  0
SPLINE
  5
341
100
AcDbEntity
  8
0
100
AcDbSpline
 62
7
  6
BYLAYER
 70
0
 71
3
 72
9
 73
5
 74
0
 42
0.0000001
 43
0.0000001
 44
0.0000000001
 40
0.0
 40
0.0
 40
0.0
 40
0.0
 40
0.4746371909
 40
1.0
 40
1.0
 40
1.0
 40
1.0
 10
68.6270014997
 20
73.1232862127
 30
0.0
 10
68.6270014997
 20
73.1742652788
 30
0.0
 10
68.6061453884
 20
73.281663887
 30
0.0
 10
68.5592431559
 20
73.3794672908
 30
0.0
 10
68.5289862903
 20
73.4270967428
 30
0.0
  0
SPLINE
  5
342
100
AcDbEntity
  8
0
100
AcDbSpline
 62
7
  6
BYLAYER
 70
0
 71
3
 72
9
 73
5
 74
0
 42
0.0000001
 43
0.0000001
 44
0.0000000001
 40
0.0
 40
0.0
 40
0.0
 40
0.0
 40
0.4317496683
 40
1.0
 40
1.0
 40
1.0
 40
1.0
 10
69.9946814114
 20
73.9129118644
 30
0.0
 10
69.9623926618
 20
73.9448218079
 30
0.0
 10
69.8942256066
 20
74.025300179
 30
0.0
 10
69.8338108681
 20
74.1115034775
 30
0.0
 10
69.8017731973
 20
74.1619362198
 30
0.0
  0
SPLINE
  5
343
100
AcDbEntity
  8
0
100
AcDbSpline
 62
7
  6
BYLAYER
 70
0
 71
3
 72
9
 73
5
 74
0
 42
0.0000001
 43
0.0000001
 44
0.0000000001
 40
0.0
 40
0.0
 40
0.0
 40
0.0
 40
0.4842677263
 40
1.0
 40
1.0
 40
1.0
 40
1.0
 10
62.6867939125
 20
56.8748938164
 30
0.0
 10
62.8454432421
 20
57.0954320071
 30
0.0
 10
63.1308350218
 20
57.5821398766
 30
0.0
 10
63.3337473338
 20
58.1076281049
 30
0.0
 10
63.4193845011
 20
58.383989301
 30
0.0
  0
SPLINE
  5
344
100
AcDbEntity
  8
0
100
AcDbSpline
 62
7
  6
BYLAYER
 70
0
 71
3
 72
17
 73
13
 74
0
 42
0.0000001
 43
0.0000001
 44
0.0000000001
 40
0.0
 40
0.0
 40
0.0
 40
0.0
 40
0.1484866252
 40
0.2942069017
 40
0.4345552803
 40
0.5672574806
 40
0.6905636566
 40
0.8034803988
 40
0.8560652131
 40
0.9061888439
 40
0.9540740599
 40
1.0
 40
1.0
 40
1.0
 40
1.0
 10
40.5531161008
 20
56.3892502211
 30
0.0
 10
40.1814087619
 20
57.0330626438
 30
0.0
 10
39.3829658149
 20
58.27410838
 30
0.0
 10
38.0301968716
 20
59.9825106751
 30
0.0
 10
36.5628063055
 20
61.4857476039
 30
0.0
 10
35.0207154046
 20
62.7424390315
 30
0.0
 10
33.4457345835
 20
63.7180317239
 30
0.0
 10
32.1082498977
 20
64.2874629464
 30
0.0
 10
31.0638233363
 20
64.5666700791
 30
0.0
 10
30.3179322529
 20
64.6864890568
 30
0.0
 10
29.5965596338
 20
64.7203411573
 30
0.0
 10
29.1267070815
 20
64.6848328646
 30
0.0
 10
28.8991186948
 20
64.6520852995
 30
0.0
  0
SPLINE
  5
345
100
AcDbEntity
  8
0
100
AcDbSpline
 62
7
  6
BYLAYER
 70
0
 71
3
 72
14
 73
10
 74
0
 42
0.0000001
 43
0.0000001
 44
0.0000000001
 40
0.0
 40
0.0
 40
0.0
 40
0.0
 40
0.1124511117
 40
0.2269719383
 40
0.3452204059
 40
0.4681758402
 40
0.5960380476
 40
0.7282322257
 40
1.0
 40
1.0
 40
1.0
 40
1.0
 10
18.7193503765
 20
48.1239788379
 30
0.0
 10
18.811979691
 20
48.1774566714
 30
0.0
 10
19.0128730103
 20
48.2629979783
 30
0.0
 10
19.3395663799
 20
48.3172511441
 30
0.0
 10
19.6799953138
 20
48.296812307
 30
0.0
 10
20.0207021563
 20
48.2031396466
 30
0.0
 10
20.3490119883
 20
48.0402594572
 30
0.0
 10
20.7569035433
 20
47.7379839242
 30
0.0
 10
21.0043267018
 20
47.4322998805
 30
0.0
 10
21.1335736599
 20
47.208438825
 30
0.0
  0
SPLINE
  5
346
100
AcDbEntity
  8
0
100
AcDbSpline
 62
7
  6
BYLAYER
 70
0
 71
3
 72
11
 73
7
 74
0
 42
0.0000001
 43
0.0000001
 44
0.0000000001
 40
0.0
 40
0.0
 40
0.0
 40
0.0
 40
0.267028524
 40
0.5221129001
 40
0.7655828852
 40
1.0
 40
1.0
 40
1.0
 40
1.0
 10
66.8203930817
 20
65.2679679071
 30
0.0
 10
66.8039281324
 20
65.3312113698
 30
0.0
 10
66.7613992214
 20
65.4524995739
 30
0.0
 10
66.6682216534
 20
65.6163099763
 30
0.0
 10
66.5497933362
 20
65.7526588349
 30
0.0
 10
66.4550915823
 20
65.8232389722
 30
0.0
 10
66.4054010007
 20
65.8519131394
 30
0.0
  0
SPLINE
  5
347
100
AcDbEntity
  8
0
100
AcDbSpline
 62
7
  6
BYLAYER
 70
0
 71
3
 72
9
 73
5
 74
0
 42
0.0000001
 43
0.0000001
 44
0.0000000001
 40
0.0
 40
0.0
 40
0.0
 40
0.0
 40
0.2789352759
 40
1.0
 40
1.0
 40
1.0
 40
1.0
 10
66.4710577974
 20
65.3912730914
 30
0.0
 10
66.4710577974
 20
65.4335550656
 30
0.0
 10
66.4630794644
 20
65.5844581088
 30
0.0
 10
66.4180937936
 20
65.737515336
 30
0.0
 10
66.3564237893
 20
65.8277573735
 30
0.0
  0
SPLINE
  5
348
100
AcDbEntity
  8
0
100
AcDbSpline
 62
7
  6
BYLAYER
 70
0
 71
3
 72
17
 73
13
 74
0
 42
0.0000001
 43
0.0000001
 44
0.0000000001
 40
0.0
 40
0.0
 40
0.0
 40
0.0
 40
0.1286891333
 40
0.2702803493
 40
0.4174326844
 40
0.5617743804
 40
0.6954465661
 40
0.8127104963
 40
0.8646756522
 40
0.91250911
 40
0.9571392634
 40
1.0
 40
1.0
 40
1.0
 40
1.0
 10
66.6124797425
 20
65.3096249405
 30
0.0
 10
66.6124797425
 20
65.2027814536
 30
0.0
 10
66.5825888393
 20
64.9781267874
 30
0.0
 10
66.471031491
 20
64.6482709001
 30
0.0
 10
66.2991217088
 20
64.330517399
 30
0.0
 10
66.0806863136
 20
64.0509183849
 30
0.0
 10
65.8335706279
 20
63.8320576873
 30
0.0
 10
65.6098963636
 20
63.7097496061
 30
0.0
 10
65.4349270999
 20
63.663207172
 30
0.0
 10
65.3145050847
 20
63.6543387073
 30
0.0
 10
65.2023721546
 20
63.6707716192
 30
0.0
 10
65.1344342572
 20
63.699000125
 30
0.0
 10
65.1036237219
 20
63.7168045166
 30
0.0
  0
SPLINE
  5
349
100
AcDbEntity
  8
0
100
AcDbSpline
 62
7
  6
BYLAYER
 70
0
 71
3
 72
9
 73
5
 74
0
 42
0.0000001
 43
0.0000001
 44
0.0000000001
 40
0.0
 40
0.0
 40
0.0
 40
0.0
 40
0.4893667296
 40
1.0
 40
1.0
 40
1.0
 40
1.0
 10
58.007366504
 20
72.368030648
 30
0.0
 10
58.5637817579
 20
71.8641867304
 30
0.0
 10
59.6200816895
 20
70.7434627484
 30
0.0
 10
60.5141059398
 20
69.4910601074
 30
0.0
 10
60.9273477602
 20
68.8256846465
 30
0.0
  0
SPLINE
  5
34A
100
AcDbEntity
  8
0
100
AcDbSpline
 62
7
  6
BYLAYER
 70
0
 71
3
 72
9
 73
5
 74
0
 42
0.0000001
 43
0.0000001
 44
0.0000000001
 40
0.0
 40
0.0
 40
0.0
 40
0.0
 40
0.2538190844
 40
1.0
 40
1.0
 40
1.0
 40
1.0
 10
60.8206142728
 20
69.5252730325
 30
0.0
 10
60.6867917686
 20
69.7256517378
 30
0.0
 10
60.1443771143
 20
70.5048133809
 30
0.0
 10
59.5415403223
 20
71.2423072446
 30
0.0
 10
59.0589883569
 20
71.7608902235
 30
0.0
  0
SPLINE
  5
34B
100
AcDbEntity
  8
0
100
AcDbSpline
 62
7
  6
BYLAYER
 70
0
 71
3
 72
9
 73
5
 74
0
 42
0.0000001
 43
0.0000001
 44
0.0000000001
 40
0.0
 40
0.0
 40
0.0
 40
0.0
 40
0.4755830405
 40
1.0
 40
1.0
 40
1.0
 40
1.0
 10
60.9277460751
 20
69.2242657084
 30
0.0
 10
60.9277460751
 20
69.2754814473
 30
0.0
 10
60.9045375629
 20
69.38308621
 30
0.0
 10
60.8535192397
 20
69.4793747415
 30
0.0
 10
60.8206142728
 20
69.5252730325
 30
0.0
  0
ELLIPSE
  5
34C
100
AcDbEntity
  8
0
100
AcDbEllipse
 62
7
  6
BYLAYER
 10
80.3908952752
 20
79.7486399873
 30
0.0
 11
20.3281038935
 21
11.3230035866
 31
0.0
 40
0.0151105599
 41
-2.0912319421
 42
-2.0600863296
  0
ELLIPSE
  5
34D
100
AcDbEntity
  8
0
100
AcDbEllipse
 62
7
  6
BYLAYER
 10
-87.8564300009
 20
-17.7488808899
 30
0.0
 11
360.5788029718
 21
215.3843999767
 31
0.0
 40
0.0151108906
 41
-1.1212335958
 42
-1.1186293417
  0
ELLIPSE
  5
34E
100
AcDbEntity
  8
0
100
AcDbEllipse
 62
7
  6
BYLAYER
 10
43.3840603995
 20
58.0223992777
 30
0.0
 11
115.4487637194
 21
77.8550572413
 31
0.0
 40
0.0751468995
 41
-1.4604002586
 42
-1.4530096677
  0
ELLIPSE
  5
34F
100
AcDbEntity
  8
0
100
AcDbEllipse
 62
7
  6
BYLAYER
 10
59.9507512138
 20
67.5871255852
 30
0.0
 11
23.7810309619
 21
5.9108782565
 31
0.0
 40
0.3407484832
 41
1.5123459243
 42
1.6779506522
  0
ELLIPSE
  5
350
100
AcDbEntity
  8
0
100
AcDbEllipse
 62
7
  6
BYLAYER
 10
309.1410966864
 20
211.4563798397
 30
0.0
 11
360.5807193047
 21
200.8478901597
 31
0.0
 40
0.0151105599
 41
-2.3015826083
 42
-2.298400748
  0
ELLIPSE
  5
351
100
AcDbEntity
  8
0
100
AcDbEllipse
 62
7
  6
BYLAYER
 10
43.3840603995
 20
58.0223992777
 30
0.0
 11
115.5247976481
 21
54.4742053903
 31
0.0
 40
0.0749448309
 41
-1.4450913937
 42
-1.4377008028
  0
ELLIPSE
  5
352
100
AcDbEntity
  8
0
100
AcDbEllipse
 62
7
  6
BYLAYER
 10
59.9507512137
 20
67.5871255852
 30
0.0
 11
8.1692868117
 21
16.1126353706
 31
0.0
 40
0.2368716795
 41
7.4429654848
 42
7.6085702127
  0
ENDSEC
  0
SECTION
  2
OBJECTS
  0
DICTIONARY
  5
C
100
AcDbDictionary
280
0
281
1
  3
ACAD_GROUP
350
D
  3
ACAD_MLINESTYLE
350
17
  3
ACAD_LAYOUT
350
1A
  3
ACAD_PLOTSETTINGS
350
19
  3
ACAD_PLOTSTYLENAME
350
E
  0
DICTIONARY
  5
D
102
{ACAD_REACTORS
330
C
102
}
100
AcDbDictionary
280
0
281
1
  0
ACDBDICTIONARYWDFLT
  5
E
102
{ACAD_REACTORS
330
C
102
}
100
AcDbDictionary
281
1
  3
Normal
350
F
100
AcDbDictionaryWithDefault
340
F
  0
DICTIONARY
  5
17
102
{ACAD_REACTORS
330
C
102
}
100
AcDbDictionary
280
0
281
1
  3
Standard
350
18
  0
DICTIONARY
  5
19
102
{ACAD_REACTORS
330
C
102
}
100
AcDbDictionary
281
1
  0
DICTIONARY
  5
1A
102
{ACAD_REACTORS
330
C
102
}
100
AcDbDictionary
281
1
  3
Model
350
353
  3
Layout1
350
354
  0
ACDBPLACEHOLDER
  5
F
102
{ACAD_REACTORS
330
E
102
}
  0
MLINESTYLE
  5
18
102
{ACAD_REACTORS
330
17
102
}
100
AcDbMlineStyle
  2
STANDARD
 70
0
  3

 62
256
 51
90.0
 52
90.0
 71
2
 49
0.5
 62
256
  6
BYLAYER
 49
-0.5
 62
256
  6
BYLAYER
  0
LAYOUT
  5
353
102
{ACAD_REACTORS
330
1A
102
}
100
AcDbPlotSettings
  1

  2
none_device
  4

  6

 40
0.0
 41
0.0
 42
0.0
 43
0.0
 44
210.0
 45
297.0
 46
0.0
 47
0.0
 48
0.0
 49
0.0
140
0.0
141
0.0
142
1.0
143
1.0
 70
1024
 72
1
 73
0
 74
0
  7

 75
0
147
1.0
148
0.0
149
0.0
100
AcDbLayout
  1
Model
 70
0
 71
0
 10
0.0
 20
0.0
 11
210.0
 21
297.0
 12
0.0
 22
0.0
 32
0.0
 14
0.0
 24
0.0
 34
0.0
 15
0.0
 25
0.0
 35
0.0
146
0.0
 13
0.0
 23
0.0
 33
0.0
 16
1.0
 26
0.0
 36
0.0
 17
0.0
 27
1.0
 37
0.0
 76
0
330
210
345
0
346
0
  0
LAYOUT
  5
354
102
{ACAD_REACTORS
330
1A
102
}
100
AcDbPlotSettings
  1

  2
none_device
  4

  6

 40
0.0
 41
0.0
 42
0.0
 43
0.0
 44
210.0
 45
297.0
 46
0.0
 47
0.0
 48
0.0
 49
0.0
140
0.0
141
0.0
142
1.0
143
1.0
 70
0
 72
1
 73
0
 74
0
  7

 75
0
147
1.0
148
0.0
149
0.0
100
AcDbLayout
  1
Layout1
 70
0
 71
1
 10
0.0
 20
0.0
 11
210.0
 21
297.0
 12
0.0
 22
0.0
 32
0.0
 14
0.0
 24
0.0
 34
0.0
 15
0.0
 25
0.0
 35
0.0
146
0.0
 13
0.0
 23
0.0
 33
0.0
 16
1.0
 26
0.0
 36
0.0
 17
0.0
 27
1.0
 37
0.0
 76
0
330
211
345
0
346
0
  0
ENDSEC
  0
EOF
