999
DXF file: C:\Users\sesa63760\Dev\_Creo\CAD\MCADID0002859_3D-CAD\drw0001_1.dxf
999
Pro/ENGINEER 2019471 by Parametric Technology Corporation
  0
SECTION
  2
HEADER
  9
$ACADVER
  1
AC1024
  9
$DWGCODEPAGE
  3
ANSI_1252
  9
$EXTMAX
 10
76.5340420062
 20
108.2410022659
 30
0.0
  9
$EXTMIN
 10
0.0
 20
0.0
 30
0.0
  9
$LIMMIN
 10
0.0
 20
0.0
  9
$LIMMAX
 10
76.5340420062
 20
108.2410022659
  9
$VIEWCTR
 10
38.2670210031
 20
54.1205011329
  9
$VIEWSIZE
 40
108.2410022659
  9
$CLAYER
  8
0
  9
$LTSCALE
 40
7.0557097773
  9
$CELTYPE
  6
BYLAYER
  9
$DIMSCALE
 40
1.0
  9
$DIMASZ
 40
0.9111195477
  9
$DIMEXO
 40
1.0
  9
$DIMDLI
 40
4.874854028
  9
$DIMEXE
 40
1.0
  9
$DIMCEN
 40
1.1545706908
  9
$DIMLFAC
 40
1.0
  9
$DIMBLK
  1
_FILLED
  9
$DIMALT
 70
0
  9
$DIMALTF
 40
0.0393700787
  9
$DIMTXT
 40
1.2755673668
  9
$DIMTOL
 70
1
  9
$DIMLIM
 70
0
  9
$DIMTFAC
 40
1.0
  9
$DIMTP
 40
0.01
  9
$DIMTM
 40
0.01
  9
$DIMGAP
 40
0.625
  9
$DIMDSEP
 70
46
  9
$AUNITS
 70
0
  9
$PDMODE
 70
3
  9
$PDSIZE
 40
0.3125
  9
$HANDSEED
  5
278
  9
$TILEMODE
 70
1
  9
$MEASUREMENT
 70
1
  9
$INSUNITS
 70
4
  0
ENDSEC
  0
SECTION
  2
CLASSES
  0
CLASS
  1
ACDBDICTIONARYWDFLT
  2
AcDbDictionaryWithDefault
  3
AutoCAD 2000
 90
0
 91
1
280
0
281
0
  0
CLASS
  1
ACDBPLACEHOLDER
  2
AcDbPlaceHolder
  3
AutoCAD 2000
 90
0
 91
1
280
0
281
0
  0
CLASS
  1
LAYOUT
  2
AcDbLayout
  3
AutoCAD 2000
 90
0
 91
0
280
0
281
0
  0
ENDSEC
  0
SECTION
  2
TABLES
  0
TABLE
  2
VPORT
  5
8
100
AcDbSymbolTable
 70
2
  0
VPORT
  5
1F4
100
AcDbSymbolTableRecord
100
AcDbViewportTableRecord
  2
*ACTIVE
 70
0
 10
0.0
 20
0.0
 11
1.0
 21
1.0
 12
38.2670210031
 22
54.1205011329
 13
0.0
 23
0.0
 14
1.0
 24
1.0
 15
0.0
 25
0.0
 16
0.0
 26
0.0
 36
1.0
 17
0.0
 27
0.0
 37
0.0
 40
108.2410022659
 41
0.7070707071
 42
50.0
 43
0.0
 44
0.0
 50
0.0
 51
0.0
 71
0
 72
100
 73
1
 74
1
 75
0
 76
0
 77
0
 78
0
  0
ENDTAB
  0
TABLE
  2
LTYPE
  5
5
100
AcDbSymbolTable
 70
6
  0
LTYPE
  5
14
100
AcDbSymbolTableRecord
100
AcDbLinetypeTableRecord
  2
BYBLOCK
 70
0
  3

 72
65
 73
0
 40
0.0
  0
LTYPE
  5
15
100
AcDbSymbolTableRecord
100
AcDbLinetypeTableRecord
  2
BYLAYER
 70
0
  3

 72
65
 73
0
 40
0.0
  0
LTYPE
  5
16
100
AcDbSymbolTableRecord
100
AcDbLinetypeTableRecord
  2
CONTINUOUS
 70
64
  3
Solid line
 72
65
 73
0
 40
0.0
  0
LTYPE
  5
1F5
100
AcDbSymbolTableRecord
100
AcDbLinetypeTableRecord
  2
CENTER
 70
64
  3
____ _ ____ _ ____ _ ____ _ ____ _ ____ _ ____
 72
65
 73
4
 40
0.6
 49
0.375
 74
0
 49
-0.075
 74
0
 49
0.075
 74
0
 49
-0.075
 74
0
  0
LTYPE
  5
1F6
100
AcDbSymbolTableRecord
100
AcDbLinetypeTableRecord
  2
HIDDEN
 70
64
  3
- - - - - - - - - - - - - - - - - - - -
 72
65
 73
2
 40
0.2
 49
0.1
 74
0
 49
-0.1
 74
0
  0
LTYPE
  5
1F7
100
AcDbSymbolTableRecord
100
AcDbLinetypeTableRecord
  2
PHANTOM
 70
64
  3
_____ _ _ _____ _ _ _____ _ _ _____
 72
65
 73
6
 40
0.8
 49
0.45
 74
0
 49
-0.05
 74
0
 49
0.1
 74
0
 49
-0.05
 74
0
 49
0.1
 74
0
 49
-0.05
 74
0
  0
LTYPE
  5
1F8
100
AcDbSymbolTableRecord
100
AcDbLinetypeTableRecord
  2
DOT
 70
64
  3
. . . . . . . . . . . . . . . . . . . .
 72
65
 73
2
 40
0.2
 49
0.1
 74
0
 49
-0.1
 74
0
  0
LTYPE
  5
1F9
100
AcDbSymbolTableRecord
100
AcDbLinetypeTableRecord
  2
DASHED
 70
64
  3
- - - - - - - - - - - - - - - - - - - -
 72
65
 73
2
 40
0.2
 49
0.1
 74
0
 49
-0.1
 74
0
  0
ENDTAB
  0
TABLE
  2
LAYER
  5
2
100
AcDbSymbolTable
 70
36
  0
LAYER
  5
10
100
AcDbSymbolTableRecord
100
AcDbLayerTableRecord
  2
0
 70
0
 62
7
  6
CONTINUOUS
370
-3
390
F
  0
LAYER
  5
1FA
100
AcDbSymbolTableRecord
100
AcDbLayerTableRecord
  2
DEFAULT_1
 70
0
 62
7
  6
CENTER
370
-3
390
F
  0
LAYER
  5
1FB
100
AcDbSymbolTableRecord
100
AcDbLayerTableRecord
  2
DEFAULT_2
 70
0
 62
7
  6
HIDDEN
370
-3
390
F
  0
LAYER
  5
1FC
100
AcDbSymbolTableRecord
100
AcDbLayerTableRecord
  2
DEFAULT_3
 70
0
 62
7
  6
PHANTOM
370
-3
390
F
  0
LAYER
  5
1FD
100
AcDbSymbolTableRecord
100
AcDbLayerTableRecord
  2
00_COMPONENTS
 70
0
 62
7
  6
CONTINUOUS
370
-3
390
F
  0
LAYER
  5
1FE
100
AcDbSymbolTableRecord
100
AcDbLayerTableRecord
  2
01_1_DEFAULT_DATUMS
 70
0
 62
7
  6
CONTINUOUS
370
-3
390
F
  0
LAYER
  5
1FF
100
AcDbSymbolTableRecord
100
AcDbLayerTableRecord
  2
01_PLANES
 70
0
 62
7
  6
CONTINUOUS
370
-3
390
F
  0
LAYER
  5
200
100
AcDbSymbolTableRecord
100
AcDbLayerTableRecord
  2
02_COORD_SYS
 70
0
 62
7
  6
CONTINUOUS
370
-3
390
F
  0
LAYER
  5
201
100
AcDbSymbolTableRecord
100
AcDbLayerTableRecord
  2
03_AXES
 70
0
 62
7
  6
CONTINUOUS
370
-3
390
F
  0
LAYER
  5
202
100
AcDbSymbolTableRecord
100
AcDbLayerTableRecord
  2
04_POINTS
 70
0
 62
7
  6
CONTINUOUS
370
-3
390
F
  0
LAYER
  5
203
100
AcDbSymbolTableRecord
100
AcDbLayerTableRecord
  2
05_CURVES
 70
0
 62
7
  6
CONTINUOUS
370
-3
390
F
  0
LAYER
  5
204
100
AcDbSymbolTableRecord
100
AcDbLayerTableRecord
  2
06_SURFS
 70
0
 62
7
  6
CONTINUOUS
370
-3
390
F
  0
LAYER
  5
205
100
AcDbSymbolTableRecord
100
AcDbLayerTableRecord
  2
07_COSMETICS
 70
0
 62
7
  6
CONTINUOUS
370
-3
390
F
  0
LAYER
  5
206
100
AcDbSymbolTableRecord
100
AcDbLayerTableRecord
  2
10_NOTES
 70
0
 62
7
  6
CONTINUOUS
370
-3
390
F
  0
LAYER
  5
207
100
AcDbSymbolTableRecord
100
AcDbLayerTableRecord
  2
11_NOTES_PUB
 70
0
 62
7
  6
CONTINUOUS
370
-3
390
F
  0
LAYER
  5
208
100
AcDbSymbolTableRecord
100
AcDbLayerTableRecord
  2
13_REF_GTOL
 70
0
 62
7
  6
CONTINUOUS
370
-3
390
F
  0
LAYER
  5
209
100
AcDbSymbolTableRecord
100
AcDbLayerTableRecord
  2
16_MISC
 70
0
 62
7
  6
CONTINUOUS
370
-3
390
F
  0
LAYER
  5
20A
100
AcDbSymbolTableRecord
100
AcDbLayerTableRecord
  2
17_NO_PRINT
 70
0
 62
7
  6
CONTINUOUS
370
-3
390
F
  0
LAYER
  5
20B
100
AcDbSymbolTableRecord
100
AcDbLayerTableRecord
  2
18_DATUM_CAMS_JOINTS
 70
0
 62
7
  6
CONTINUOUS
370
-3
390
F
  0
LAYER
  5
20C
100
AcDbSymbolTableRecord
100
AcDbLayerTableRecord
  2
19_DATUM_FUNCTIONAL
 70
0
 62
7
  6
CONTINUOUS
370
-3
390
F
  0
LAYER
  5
20D
100
AcDbSymbolTableRecord
100
AcDbLayerTableRecord
  2
20_DATUM_KINEMATIC_SCHEME
 70
0
 62
7
  6
CONTINUOUS
370
-3
390
F
  0
ENDTAB
  0
TABLE
  2
STYLE
  5
3
100
AcDbSymbolTable
 70
1
  0
STYLE
  5
11
100
AcDbSymbolTableRecord
100
AcDbTextStyleTableRecord
  2
STANDARD
 70
0
 40
0.0
 41
1.0
 50
0.0
 71
0
 42
0.2
  3
ARIAL.TTF
  4

  0
STYLE
  5
20E
100
AcDbSymbolTableRecord
100
AcDbTextStyleTableRecord
  2
TEXTSTYLE_1
 70
0
 40
0.0
 41
0.8
 50
0.0
 71
0
 42
0.2
  3
gdt
  4

  0
ENDTAB
  0
TABLE
  2
VIEW
  5
6
100
AcDbSymbolTable
 70
0
  0
ENDTAB
  0
TABLE
  2
UCS
  5
7
100
AcDbSymbolTable
 70
0
  0
ENDTAB
  0
TABLE
  2
APPID
  5
9
100
AcDbSymbolTable
 70
1
  0
APPID
  5
20F
100
AcDbSymbolTableRecord
100
AcDbRegAppTableRecord
  2
ACAD
 70
0
  0
ENDTAB
  0
TABLE
  2
BLOCK_RECORD
  5
1
100
AcDbSymbolTable
 70
0
  0
BLOCK_RECORD
  5
210
100
AcDbSymbolTableRecord
100
AcDbBlockTableRecord
  2
*Model_Space
  0
BLOCK_RECORD
  5
211
100
AcDbSymbolTableRecord
100
AcDbBlockTableRecord
  2
*Paper_Space
  0
BLOCK_RECORD
  5
212
100
AcDbSymbolTableRecord
100
AcDbBlockTableRecord
  2
_FILLED
  0
ENDTAB
  0
TABLE
  2
DIMSTYLE
  5
A
100
AcDbSymbolTable
 70
1
100
AcDbDimStyleTable
 71
0
  0
DIMSTYLE
105
213
100
AcDbSymbolTableRecord
100
AcDbDimStyleTableRecord
  2
STANDARD
 70
0
  3

  4

 40
1.0
 41
0.9111195477
 42
1.0
 43
0.38
 44
1.0
 45
0.0
 46
0.0
 47
0.01
 48
0.01
140
1.2755673668
141
0.09
142
0.0
143
25.4
144
1.0
145
0.0
146
1.0
147
0.625
 71
1
 72
0
 73
0
 74
0
 75
0
 76
0
 77
1
 78
8
 79
2
170
0
171
1
172
0
173
0
174
0
175
0
176
0
177
0
178
0
270
2
179
2
271
2
272
2
273
2
274
2
275
0
280
0
281
0
282
0
283
1
284
8
285
0
286
0
287
3
288
0
340
11
278
46
341
212
342
212
343
212
344
212
  0
ENDTAB
  0
ENDSEC
  0
SECTION
  2
BLOCKS
  0
BLOCK
  5
20
100
AcDbEntity
  8
0
100
AcDbBlockBegin
  2
*Model_Space
 70
0
 10
0.0
 20
0.0
 30
0.0
  3
*Model_Space
  1

  0
ENDBLK
  5
21
100
AcDbEntity
  8
0
100
AcDbBlockEnd
  0
BLOCK
  5
1C
100
AcDbEntity
  8
0
100
AcDbBlockBegin
  2
*Paper_Space
 70
0
 10
0.0
 20
0.0
 30
0.0
  3
*Paper_Space
  1

  0
ENDBLK
  5
1D
100
AcDbEntity
  8
0
100
AcDbBlockEnd
  0
BLOCK
  5
214
100
AcDbEntity
  8
0
100
AcDbBlockBegin
  2
_FILLED
 70
64
 10
0.0
 20
0.0
  3
_FILLED
  1

  0
SOLID
  5
215
100
AcDbEntity
  8
0
  6
BYBLOCK
 62
0
100
AcDbTrace
 10
0.0
 20
0.0
 11
-1.0
 21
0.25
 12
-1.0
 22
-0.25
 13
-1.0
 23
-0.25
  0
ENDBLK
  5
216
100
AcDbEntity
  8
0
  6
BYBLOCK
 62
0
100
AcDbBlockEnd
  0
ENDSEC
  0
SECTION
  2
ENTITIES
  0
LINE
  5
217
100
AcDbEntity
  8
0
100
AcDbLine
 62
7
  6
BYLAYER
 10
8.8613889228
 20
58.0872107131
 11
8.8613889228
 21
50.9019894423
  0
LINE
  5
218
100
AcDbEntity
  8
0
100
AcDbLine
 62
7
  6
BYLAYER
 10
26.6317152124
 20
51.1996514982
 11
26.6317152124
 21
51.0975886961
  0
LINE
  5
219
100
AcDbEntity
  8
0
100
AcDbLine
 62
7
  6
BYLAYER
 10
26.9448022765
 20
50.9245509734
 11
26.9448022765
 21
51.0266137756
  0
LINE
  5
21A
100
AcDbEntity
  8
0
100
AcDbLine
 62
7
  6
BYLAYER
 10
26.6320006915
 20
51.2072057693
 11
26.6319577472
 21
51.1996534956
  0
LINE
  5
21B
100
AcDbEntity
  8
0
100
AcDbLine
 62
7
  6
BYLAYER
 10
26.6984197702
 20
52.0855695006
 11
26.6320006915
 21
51.2072057693
  0
LWPOLYLINE
  5
21C
100
AcDbEntity
  8
0
100
AcDbPolyline
 62
7
  6
BYLAYER
 90
9
 70
0
 10
48.8527922175
 20
43.4503185757
 10
41.6502700532
 20
42.4372552916
 10
34.2329279252
 20
42.5832463427
 10
27.1646890464
 20
43.8776861269
 10
20.9520426483
 20
46.2296524546
 10
18.3212100656
 20
47.7487115853
 10
14.2524080849
 20
51.3305839391
 10
12.0100228186
 20
55.4060723012
 10
11.626383674
 20
57.9873505081
  0
LINE
  5
21D
100
AcDbEntity
  8
0
100
AcDbLine
 62
7
  6
BYLAYER
 10
28.4661940831
 20
51.0649676143
 11
28.4661940831
 21
50.9629048122
  0
LINE
  5
21E
100
AcDbEntity
  8
0
100
AcDbLine
 62
7
  6
BYLAYER
 10
27.9358447723
 20
57.7561359442
 11
27.9277624893
 21
57.1792742385
  0
LINE
  5
21F
100
AcDbEntity
  8
0
100
AcDbLine
 62
7
  6
BYLAYER
 10
29.1522125933
 20
57.0538815425
 11
29.1386357956
 21
56.1478903626
  0
LINE
  5
220
100
AcDbEntity
  8
0
100
AcDbLine
 62
7
  6
BYLAYER
 10
30.4821330863
 20
56.9235542549
 11
30.4685562885
 21
57.8138683927
  0
LINE
  5
221
100
AcDbEntity
  8
0
100
AcDbLine
 62
7
  6
BYLAYER
 10
29.1522125933
 20
57.0538815425
 11
30.4685562885
 21
57.8138683927
  0
LINE
  5
222
100
AcDbEntity
  8
0
100
AcDbLine
 62
7
  6
BYLAYER
 10
34.6017576369
 20
58.6966643901
 11
34.5431733712
 21
58.6149810274
  0
LINE
  5
223
100
AcDbEntity
  8
0
100
AcDbLine
 62
7
  6
BYLAYER
 10
34.2340623817
 20
59.0897187134
 11
30.4821330863
 21
56.9235542549
  0
LINE
  5
224
100
AcDbEntity
  8
0
100
AcDbLine
 62
7
  6
BYLAYER
 10
29.1386357956
 20
56.1478903626
 11
26.0168756673
 21
54.3455520707
  0
LINE
  5
225
100
AcDbEntity
  8
0
100
AcDbLine
 62
7
  6
BYLAYER
 10
26.4385379639
 20
53.9357955243
 11
34.5431719105
 21
58.6149801841
  0
LINE
  5
226
100
AcDbEntity
  8
0
100
AcDbLine
 62
7
  6
BYLAYER
 10
34.5431719107
 20
59.3294532059
 11
34.5431719105
 21
58.6149801841
  0
LINE
  5
227
100
AcDbEntity
  8
0
100
AcDbLine
 62
7
  6
BYLAYER
 10
34.6017711938
 20
59.676467273
 11
34.6017711938
 21
58.6966643724
  0
LINE
  5
228
100
AcDbEntity
  8
0
100
AcDbLine
 62
7
  6
BYLAYER
 10
28.4661940831
 20
50.9629048122
 11
26.9448022765
 21
50.9245509734
  0
LINE
  5
229
100
AcDbEntity
  8
0
100
AcDbLine
 62
7
  6
BYLAYER
 10
26.9448022765
 20
51.0266137756
 11
28.4661940831
 21
51.0649676143
  0
LINE
  5
22A
100
AcDbEntity
  8
0
100
AcDbLine
 62
7
  6
BYLAYER
 10
27.6792010136
 20
56.9904763649
 11
29.1386357956
 21
56.1478903626
  0
LINE
  5
22B
100
AcDbEntity
  8
0
100
AcDbLine
 62
7
  6
BYLAYER
 10
27.9358447723
 20
57.7561359442
 11
29.1522125933
 21
57.0538815425
  0
LINE
  5
22C
100
AcDbEntity
  8
0
100
AcDbLine
 62
7
  6
BYLAYER
 10
29.2521884675
 20
58.5161227945
 11
30.4685562885
 21
57.8138683927
  0
LINE
  5
22D
100
AcDbEntity
  8
0
100
AcDbLine
 62
7
  6
BYLAYER
 10
33.6118582934
 20
59.4489402845
 11
34.2340623817
 21
59.0897187134
  0
LINE
  5
22E
100
AcDbEntity
  8
0
100
AcDbLine
 62
7
  6
BYLAYER
 10
34.6016780575
 20
59.5892324082
 11
34.5020930123
 21
59.6467265603
  0
LINE
  5
22F
100
AcDbEntity
  8
0
100
AcDbLine
 62
7
  6
BYLAYER
 10
34.6057987653
 20
59.6697671969
 11
34.5848237334
 21
59.6651071074
  0
LINE
  5
230
100
AcDbEntity
  8
0
100
AcDbLine
 62
7
  6
BYLAYER
 10
34.6057987653
 20
59.6697671969
 11
34.5843632315
 21
59.66597159
  0
LINE
  5
231
100
AcDbEntity
  8
0
100
AcDbLine
 62
7
  6
BYLAYER
 10
46.4327310428
 20
58.8102382563
 11
46.4004507451
 21
58.8215619559
  0
LINE
  5
232
100
AcDbEntity
  8
0
100
AcDbLine
 62
7
  6
BYLAYER
 10
46.4311764996
 20
58.8087654583
 11
46.4004507451
 21
58.8215619559
  0
LINE
  5
233
100
AcDbEntity
  8
0
100
AcDbLine
 62
7
  6
BYLAYER
 10
47.8434113019
 20
57.417270137
 11
47.8559251656
 21
57.4087233873
  0
LWPOLYLINE
  5
234
100
AcDbEntity
  8
0
100
AcDbPolyline
 62
7
  6
BYLAYER
 90
3
 70
0
 10
47.8453403086
 20
57.4182094181
 10
47.8531805573
 20
57.4105945572
 10
47.8561939008
 20
57.4088548419
  0
LINE
  5
235
100
AcDbEntity
  8
0
100
AcDbLine
 62
7
  6
BYLAYER
 10
51.0907771541
 20
64.9672156568
 11
51.0908200984
 21
64.9747679306
  0
LINE
  5
236
100
AcDbEntity
  8
0
100
AcDbLine
 62
7
  6
BYLAYER
 10
51.0243580754
 20
64.0888519256
 11
51.0907771541
 21
64.9672156568
  0
LINE
  5
237
100
AcDbEntity
  8
0
100
AcDbLine
 62
7
  6
BYLAYER
 10
50.7779755691
 20
65.1478076506
 11
49.2565837625
 21
65.1094538119
  0
LINE
  5
238
100
AcDbEntity
  8
0
100
AcDbLine
 62
7
  6
BYLAYER
 10
52.1238837182
 20
54.885971262
 11
51.359902592
 21
55.9165432814
  0
LWPOLYLINE
  5
239
100
AcDbEntity
  8
0
100
AcDbPolyline
 62
7
  6
BYLAYER
 90
3
 70
0
 10
58.130128933
 20
46.9626501524
 10
55.3264391618
 20
45.5512474977
 10
48.8527922175
 20
43.4503185757
  0
LINE
  5
23A
100
AcDbEntity
  8
0
100
AcDbLine
 62
7
  6
BYLAYER
 10
68.8613889228
 20
58.0872107131
 11
68.8613889228
 21
50.9019894423
  0
ARC
  5
23B
100
AcDbEntity
  8
0
100
AcDbCircle
 62
7
  6
BYLAYER
 10
38.5643608847
 20
37.2466453027
 40
22.7698610557
100
AcDbArc
 50
100.0665747239
 51
101.7796592045
  0
ARC
  5
23C
100
AcDbEntity
  8
0
100
AcDbCircle
 62
7
  6
BYLAYER
 10
35.8102851891
 20
45.5945498645
 40
14.4905375882
100
AcDbArc
 50
116.9091984695
 51
119.9638187212
  0
ARC
  5
23D
100
AcDbEntity
  8
0
100
AcDbCircle
 62
7
  6
BYLAYER
 10
43.6079835178
 20
53.109932187
 40
13.2491241297
100
AcDbArc
 50
55.6384482392
 51
55.9605642516
  0
ARC
  5
23E
100
AcDbEntity
  8
0
100
AcDbCircle
 62
7
  6
BYLAYER
 10
34.1101456934
 20
62.9556020426
 40
13.2408668933
100
AcDbArc
 50
235.6383860763
 51
235.9149824836
  0
ARC
  5
23F
100
AcDbEntity
  8
0
100
AcDbCircle
 62
7
  6
BYLAYER
 10
35.155884966
 20
46.7401596195
 40
13.1712077953
100
AcDbArc
 50
119.986632822
 51
123.241449588
  0
ARC
  5
240
100
AcDbEntity
  8
0
100
AcDbCircle
 62
7
  6
BYLAYER
 10
54.151934176
 20
68.6087686733
 40
13.015867722
100
AcDbArc
 50
257.2573290399
 51
257.5594410612
  0
ARC
  5
241
100
AcDbEntity
  8
0
100
AcDbCircle
 62
7
  6
BYLAYER
 10
44.9990540428
 20
49.3714253414
 40
9.1418959898
100
AcDbArc
 50
45.7700645845
 51
46.3799134907
  0
ARC
  5
242
100
AcDbEntity
  8
0
100
AcDbCircle
 62
7
  6
BYLAYER
 10
57.0249462765
 20
58.0875133167
 40
9.0864210212
100
AcDbArc
 50
359.3592339073
 51
359.9980919739
  0
ARC
  5
243
100
AcDbEntity
  8
0
100
AcDbCircle
 62
7
  6
BYLAYER
 10
20.6958812079
 20
58.0869107089
 40
9.08447066
100
AcDbArc
 50
179.9981079591
 51
180.6282716219
  0
ARC
  5
244
100
AcDbEntity
  8
0
100
AcDbCircle
 62
7
  6
BYLAYER
 10
49.7854591368
 20
61.0974491403
 40
4.0789636292
100
AcDbArc
 50
213.9146429072
 51
214.6687779333
  0
ARC
  5
245
100
AcDbEntity
  8
0
100
AcDbCircle
 62
7
  6
BYLAYER
 10
48.6847768566
 20
58.0053122601
 40
2.8670969628
100
AcDbArc
 50
179.9981414422
 51
181.5970103667
  0
ARC
  5
246
100
AcDbEntity
  8
0
100
AcDbCircle
 62
7
  6
BYLAYER
 10
52.22683325
 20
54.2314587549
 40
1.7011665094
100
AcDbArc
 50
208.404817978
 51
211.7311173537
  0
SPLINE
  5
247
100
AcDbEntity
  8
0
100
AcDbSpline
 62
7
  6
BYLAYER
 70
0
 71
3
 72
22
 73
18
 74
0
 42
0.0000001
 43
0.0000001
 44
0.0000000001
 40
0.0
 40
0.0
 40
0.0
 40
0.0
 40
0.1561436039
 40
0.2312746034
 40
0.3041865815
 40
0.3747325844
 40
0.4428048857
 40
0.5083334478
 40
0.5712987514
 40
0.6317309968
 40
0.6897227904
 40
0.7454291858
 40
0.7990770353
 40
0.8509629684
 40
0.9014534924
 40
0.9509751546
 40
1.0
 40
1.0
 40
1.0
 40
1.0
 10
50.8702580756
 20
53.400703009
 30
0.0
 10
50.5047117392
 20
53.4962613127
 30
0.0
 10
49.9691113048
 20
53.66253693
 30
0.0
 10
49.2849158924
 20
53.9346286254
 30
0.0
 10
48.8044446311
 20
54.156495241
 30
0.0
 10
48.3526269902
 20
54.3976582294
 30
0.0
 10
47.9317115597
 20
54.6568630791
 30
0.0
 10
47.5438770558
 20
54.932870211
 30
0.0
 10
47.1910626758
 20
55.224252512
 30
0.0
 10
46.8751182191
 20
55.5296252475
 30
0.0
 10
46.59763615
 20
55.8474367895
 30
0.0
 10
46.3601264363
 20
56.1761682385
 30
0.0
 10
46.1638344117
 20
56.5141609201
 30
0.0
 10
46.0099139408
 20
56.8597407915
 30
0.0
 10
45.8992468799
 20
57.2111324667
 30
0.0
 10
45.8325627752
 20
57.5664083707
 30
0.0
 10
45.8176762049
 20
57.8051266755
 30
0.0
 10
45.8176801149
 20
57.9237550224
 30
0.0
  0
SPLINE
  5
248
100
AcDbEntity
  8
0
100
AcDbSpline
 62
7
  6
BYLAYER
 70
0
 71
3
 72
9
 73
5
 74
0
 42
0.0000001
 43
0.0000001
 44
0.0000000001
 40
0.0
 40
0.0
 40
0.0
 40
0.0
 40
0.5041717531
 40
1.0
 40
1.0
 40
1.0
 40
1.0
 10
45.9648360648
 20
58.9199746635
 30
0.0
 10
45.9166253304
 20
58.7714416627
 30
0.0
 10
45.8427548921
 20
58.4692162845
 30
0.0
 10
45.8176850158
 20
58.1589821826
 30
0.0
 10
45.8176798953
 20
58.0054052628
 30
0.0
  0
SPLINE
  5
249
100
AcDbEntity
  8
0
100
AcDbSpline
 62
7
  6
BYLAYER
 70
0
 71
3
 72
22
 73
18
 74
0
 42
0.0000001
 43
0.0000001
 44
0.0000000001
 40
0.0
 40
0.0
 40
0.0
 40
0.0
 40
0.0488552129
 40
0.0983050331
 40
0.1488044761
 40
0.2007597439
 40
0.2545177123
 40
0.310355114
 40
0.3684821382
 40
0.4290386656
 40
0.4921056376
 40
0.5577036914
 40
0.6258063769
 40
0.6963389507
 40
0.7691906253
 40
0.8442134777
 40
1.0
 40
1.0
 40
1.0
 40
1.0
 10
45.8187935585
 20
57.9254077584
 30
0.0
 10
45.8220787081
 20
57.8075792263
 30
0.0
 10
45.8434058138
 20
57.5706496656
 30
0.0
 10
45.9189069529
 20
57.218817728
 30
0.0
 10
46.037610033
 20
56.8712047109
 30
0.0
 10
46.1987119767
 20
56.5296598546
 30
0.0
 10
46.4013496303
 20
56.1959181341
 30
0.0
 10
46.6443369226
 20
55.8715848149
 30
0.0
 10
46.9264454706
 20
55.558284691
 30
0.0
 10
47.2461595462
 20
55.2574809114
 30
0.0
 10
47.6019012392
 20
54.9706879949
 30
0.0
 10
47.9918349366
 20
54.6992464172
 30
0.0
 10
48.4140396401
 20
54.4445390822
 30
0.0
 10
48.8663673037
 20
54.2077712675
 30
0.0
 10
49.3465964634
 20
53.9901492208
 30
0.0
 10
50.0293139042
 20
53.723624757
 30
0.0
 10
50.5631099546
 20
53.5609563591
 30
0.0
 10
50.9272048403
 20
53.4676102249
 30
0.0
  0
SPLINE
  5
24A
100
AcDbEntity
  8
0
100
AcDbSpline
 62
7
  6
BYLAYER
 70
0
 71
3
 72
9
 73
5
 74
0
 42
0.0000001
 43
0.0000001
 44
0.0000000001
 40
0.0
 40
0.0
 40
0.0
 40
0.0
 40
0.2411198847
 40
1.0
 40
1.0
 40
1.0
 40
1.0
 10
49.9852164022
 20
34.7523944644
 30
0.0
 10
49.9279434745
 20
34.7045566429
 30
0.0
 10
49.6856402532
 20
34.5118996729
 30
0.0
 10
49.4258183545
 20
34.3416597419
 30
0.0
 10
49.2224205747
 20
34.2242286799
 30
0.0
  0
SPLINE
  5
24B
100
AcDbEntity
  8
0
100
AcDbSpline
 62
7
  6
BYLAYER
 70
0
 71
3
 72
15
 73
11
 74
0
 42
0.0000001
 43
0.0000001
 44
0.0000000001
 40
0.0
 40
0.0
 40
0.0
 40
0.0
 40
0.1485900458
 40
0.2895075386
 40
0.422722825
 40
0.5486437925
 40
0.6680017471
 40
0.7819385179
 40
0.8919876428
 40
1.0
 40
1.0
 40
1.0
 40
1.0
 10
17.6480971684
 20
70.3344333487
 30
0.0
 10
16.9714734764
 20
69.9437868098
 30
0.0
 10
15.6837471722
 20
69.1275937089
 30
0.0
 10
13.9232859996
 20
67.7649613894
 30
0.0
 10
12.400592328
 20
66.307426212
 30
0.0
 10
11.1307890873
 20
64.7683771492
 30
0.0
 10
10.1269180008
 20
63.1613557628
 30
0.0
 10
9.4002816055
 20
61.5009694852
 30
0.0
 10
8.9600100889
 20
59.8040376248
 30
0.0
 10
8.8614307309
 20
58.6551470209
 30
0.0
 10
8.8614117958
 20
58.0872106945
 30
0.0
  0
SPLINE
  5
24C
100
AcDbEntity
  8
0
100
AcDbSpline
 62
7
  6
BYLAYER
 70
0
 71
3
 72
30
 73
26
 74
0
 42
0.0000001
 43
0.0000001
 44
0.0000000001
 40
0.0
 40
0.0
 40
0.0
 40
0.0
 40
0.0306637328
 40
0.0623990225
 40
0.1287229719
 40
0.198301951
 40
0.2702636867
 40
0.3436262724
 40
0.4173431539
 40
0.4903528866
 40
0.5616252208
 40
0.6302090264
 40
0.6952838715
 40
0.7263130866
 40
0.7562489914
 40
0.7850537999
 40
0.8127122546
 40
0.8392321692
 40
0.8646501756
 40
0.8890317737
 40
0.9124764056
 40
0.9351161869
 40
0.9571168104
 40
0.9786726032
 40
1.0
 40
1.0
 40
1.0
 40
1.0
 10
60.0746806772
 20
38.6547668067
 30
0.0
 10
59.5447716146
 20
38.348825493
 30
0.0
 10
58.4459617645
 20
37.7611062463
 30
0.0
 10
56.1122011049
 20
36.685279022
 30
0.0
 10
52.960610464
 20
35.5434425788
 30
0.0
 10
48.9345261458
 20
34.5213587904
 30
0.0
 10
44.6934743341
 20
33.8488713957
 30
0.0
 10
40.3281775043
 20
33.5402731919
 30
0.0
 10
35.9315466953
 20
33.6021375508
 30
0.0
 10
31.5974546544
 20
34.0331292643
 30
0.0
 10
27.4181048827
 20
34.82412586
 30
0.0
 10
23.4827582623
 20
35.9582781481
 30
0.0
 10
20.4277519486
 20
37.1889310092
 30
0.0
 10
18.1852822511
 20
38.3307545452
 30
0.0
 10
16.6414062313
 20
39.2417236101
 30
0.0
 10
15.2173395621
 20
40.2159968472
 30
0.0
 10
13.9206295282
 20
41.2483600103
 30
0.0
 10
12.7584252327
 20
42.3335818078
 30
0.0
 10
11.7369184148
 20
43.4658503519
 30
0.0
 10
10.8619805631
 20
44.6394735131
 30
0.0
 10
10.1384242385
 20
45.8481837332
 30
0.0
 10
9.5707824715
 20
47.0857049173
 30
0.0
 10
9.1624588808
 20
48.3453068733
 30
0.0
 10
8.9163572107
 20
49.6197040532
 30
0.0
 10
8.8613985295
 20
50.4764077792
 30
0.0
 10
8.8614125567
 20
50.9019894281
 30
0.0
  0
SPLINE
  5
24D
100
AcDbEntity
  8
0
100
AcDbSpline
 62
7
  6
BYLAYER
 70
0
 71
3
 72
13
 73
9
 74
0
 42
0.0000001
 43
0.0000001
 44
0.0000000001
 40
0.0
 40
0.0
 40
0.0
 40
0.0
 40
0.0902549765
 40
0.1874367507
 40
0.295779514
 40
0.417022016
 40
0.6944475831
 40
1.0
 40
1.0
 40
1.0
 40
1.0
 10
51.0910557166
 20
64.9747680573
 30
0.0
 10
51.0910367659
 20
64.9865095956
 30
0.0
 10
51.0865053862
 20
65.0110444176
 30
0.0
 10
51.0674903525
 20
65.0451206247
 30
0.0
 10
51.0373496688
 20
65.075673597
 30
0.0
 10
50.9820390612
 20
65.1122587701
 30
0.0
 10
50.8939605038
 20
65.1421657467
 30
0.0
 10
50.8177132183
 20
65.148809425
 30
0.0
 10
50.7779755691
 20
65.1478076506
 30
0.0
  0
SPLINE
  5
24E
100
AcDbEntity
  8
0
100
AcDbSpline
 62
7
  6
BYLAYER
 70
0
 71
3
 72
15
 73
11
 74
0
 42
0.0000001
 43
0.0000001
 44
0.0000000001
 40
0.0
 40
0.0
 40
0.0
 40
0.0
 40
0.1105130355
 40
0.2226940164
 40
0.3380906845
 40
0.4580349873
 40
0.5835675052
 40
0.7154628178
 40
0.8542371772
 40
1.0
 40
1.0
 40
1.0
 40
1.0
 10
54.8613667169
 20
58.0872107007
 30
0.0
 10
54.8613544669
 20
58.3575464254
 30
0.0
 10
54.8196465554
 20
58.90318076
 30
0.0
 10
54.6329481081
 20
59.711794297
 30
0.0
 10
54.3241450352
 20
60.5068141904
 30
0.0
 10
53.8961144688
 20
61.2816326027
 30
0.0
 10
53.3529272633
 20
62.0306271228
 30
0.0
 10
52.6989005031
 20
62.748344664
 30
0.0
 10
51.9393657
 20
63.4294090554
 30
0.0
 10
51.3803033859
 20
63.8457336218
 30
0.0
 10
51.0859638689
 20
64.0469838954
 30
0.0
  0
SPLINE
  5
24F
100
AcDbEntity
  8
0
100
AcDbSpline
 62
7
  6
BYLAYER
 70
0
 71
3
 72
15
 73
11
 74
0
 42
0.0000001
 43
0.0000001
 44
0.0000000001
 40
0.0
 40
0.0
 40
0.0
 40
0.0
 40
0.1080128257
 40
0.2180594657
 40
0.3319947683
 40
0.4513561742
 40
0.5772667084
 40
0.7104867992
 40
0.8514339984
 40
1.0
 40
1.0
 40
1.0
 40
1.0
 10
53.4113629208
 20
58.0872108729
 30
0.0
 10
53.4113450074
 20
57.8117609276
 30
0.0
 10
53.3635520467
 20
57.2545533909
 30
0.0
 10
53.1500065347
 20
56.4315569831
 30
0.0
 10
52.7976378356
 20
55.6262478677
 30
0.0
 10
52.3106993044
 20
54.8469071676
 30
0.0
 10
51.694920201
 20
54.1004215789
 30
0.0
 10
50.9563649131
 20
53.3934714283
 30
0.0
 10
50.1024733467
 20
52.732645317
 30
0.0
 10
49.477944375
 20
52.3367403954
 30
0.0
 10
49.1498354237
 20
52.1473077348
 30
0.0
  0
SPLINE
  5
250
100
AcDbEntity
  8
0
100
AcDbSpline
 62
7
  6
BYLAYER
 70
0
 71
3
 72
9
 73
5
 74
0
 42
0.0000001
 43
0.0000001
 44
0.0000000001
 40
0.0
 40
0.0
 40
0.0
 40
0.0
 40
0.2679557904
 40
1.0
 40
1.0
 40
1.0
 40
1.0
 10
27.9277624893
 20
57.1792742385
 30
0.0
 10
27.6745324536
 20
57.0127623089
 30
0.0
 10
26.7532901611
 20
56.3576615254
 30
0.0
 10
25.9286297284
 20
55.5538387157
 30
0.0
 10
25.4422634768
 20
54.8837700809
 30
0.0
  0
SPLINE
  5
251
100
AcDbEntity
  8
0
100
AcDbSpline
 62
7
  6
BYLAYER
 70
0
 71
3
 72
9
 73
5
 74
0
 42
0.0000001
 43
0.0000001
 44
0.0000000001
 40
0.0
 40
0.0
 40
0.0
 40
0.0
 40
0.5137494804
 40
1.0
 40
1.0
 40
1.0
 40
1.0
 10
33.9159272793
 20
59.5369713998
 30
0.0
 10
33.1886482109
 20
59.3852244169
 30
0.0
 10
31.7865280521
 20
59.0195206542
 30
0.0
 10
30.4326437864
 20
58.5002655921
 30
0.0
 10
29.7938207792
 20
58.2063950469
 30
0.0
  0
SPLINE
  5
252
100
AcDbEntity
  8
0
100
AcDbSpline
 62
7
  6
BYLAYER
 70
0
 71
3
 72
15
 73
11
 74
0
 42
0.0000001
 43
0.0000001
 44
0.0000000001
 40
0.0
 40
0.0
 40
0.0
 40
0.0
 40
0.1080119482
 40
0.2180607543
 40
0.3319973692
 40
0.451355358
 40
0.5772764004
 40
0.7104919049
 40
0.8514098983
 40
1.0
 40
1.0
 40
1.0
 40
1.0
 10
68.8613652888
 20
50.9019894566
 30
0.0
 10
68.8613465696
 20
50.3340552957
 30
0.0
 10
68.7627678943
 20
49.1851685937
 30
0.0
 10
68.3224999162
 20
47.4882406846
 30
0.0
 10
67.5958650032
 20
45.8278562704
 30
0.0
 10
66.5919953942
 20
44.2208344478
 30
0.0
 10
65.3221938061
 20
42.6817818139
 30
0.0
 10
63.7994973662
 20
41.224243402
 30
0.0
 10
62.0390329368
 20
39.8616087842
 30
0.0
 10
60.7513046061
 20
39.0454134824
 30
0.0
 10
60.0746806772
 20
38.6547668067
 30
0.0
  0
SPLINE
  5
253
100
AcDbEntity
  8
0
100
AcDbSpline
 62
7
  6
BYLAYER
 70
0
 71
3
 72
30
 73
26
 74
0
 42
0.0000001
 43
0.0000001
 44
0.0000000001
 40
0.0
 40
0.0
 40
0.0
 40
0.0
 40
0.0213274413
 40
0.0428832771
 40
0.0648839492
 40
0.0875237824
 40
0.1109684836
 40
0.1353501617
 40
0.1607682623
 40
0.1872882687
 40
0.2149468093
 40
0.2437516703
 40
0.2736875959
 40
0.3047167784
 40
0.3697914487
 40
0.438375003
 40
0.5096470982
 40
0.582656612
 40
0.6563732722
 40
0.7297357134
 40
0.8016974818
 40
0.8712766285
 40
0.9376008164
 40
0.9693362344
 40
1.0
 40
1.0
 40
1.0
 40
1.0
 10
68.8613660498
 20
58.0872107316
 30
0.0
 10
68.8613802388
 20
58.5127932702
 30
0.0
 10
68.8064195512
 20
59.3694986038
 30
0.0
 10
68.5603188094
 20
60.6438987087
 30
0.0
 10
68.151991984
 20
61.9035027037
 30
0.0
 10
67.5843488084
 20
63.1410269406
 30
0.0
 10
66.8607883081
 20
64.3497394043
 30
0.0
 10
65.9858467171
 20
65.5233658365
 30
0.0
 10
64.9643342011
 20
66.6556364184
 30
0.0
 10
63.8021249536
 20
67.7408608805
 30
0.0
 10
62.5054090574
 20
68.7732240655
 30
0.0
 10
61.0813390418
 20
69.7474980314
 30
0.0
 10
59.5374603572
 20
70.6584642078
 30
0.0
 10
57.2949932249
 20
71.8002844851
 30
0.0
 10
54.2399939501
 20
73.0309303583
 30
0.0
 10
50.3046596743
 20
74.1650771134
 30
0.0
 10
46.1253237022
 20
74.9560703377
 30
0.0
 10
41.791245266
 20
75.3870613789
 30
0.0
 10
37.3946261869
 20
75.4489273463
 30
0.0
 10
33.0293358162
 20
75.1403323468
 30
0.0
 10
28.788282433
 20
74.4678477025
 30
0.0
 10
24.7621888766
 20
73.4457646435
 30
0.0
 10
21.610587561
 20
72.3039260165
 30
0.0
 10
19.2768197828
 20
71.2280951964
 30
0.0
 10
18.1780067985
 20
70.6403749901
 30
0.0
 10
17.6480971684
 20
70.3344333487
 30
0.0
  0
SPLINE
  5
254
100
AcDbEntity
  8
0
100
AcDbSpline
 62
7
  6
BYLAYER
 70
0
 71
3
 72
12
 73
8
 74
0
 42
0.0000001
 43
0.0000001
 44
0.0000000001
 40
0.0
 40
0.0
 40
0.0
 40
0.0
 40
0.118172965
 40
0.2400577992
 40
0.4914595717
 40
0.7472672793
 40
1.0
 40
1.0
 40
1.0
 40
1.0
 10
46.4004507451
 20
58.8215619559
 30
0.0
 10
45.9563375166
 20
58.9768962949
 30
0.0
 10
45.0419961884
 20
59.2586459551
 30
0.0
 10
43.1357289206
 20
59.70516757
 30
0.0
 10
40.6454223665
 20
60.0351943528
 30
0.0
 10
37.6133734386
 20
60.0675000568
 30
0.0
 10
35.5947069254
 20
59.8444809411
 30
0.0
 10
34.6038052982
 20
59.669504308
 30
0.0
  0
SPLINE
  5
255
100
AcDbEntity
  8
0
100
AcDbSpline
 62
7
  6
BYLAYER
 70
0
 71
3
 72
15
 73
11
 74
0
 42
0.0000001
 43
0.0000001
 44
0.0000000001
 40
0.0
 40
0.0
 40
0.0
 40
0.0
 40
0.107955111
 40
0.2180400237
 40
0.3320596139
 40
0.4515045727
 40
0.5774815278
 40
0.7106984941
 40
0.851550084
 40
1.0
 40
1.0
 40
1.0
 40
1.0
 10
66.1107990835
 20
57.9858976449
 30
0.0
 10
66.1050737653
 20
57.4739630868
 30
0.0
 10
66.0053249404
 20
56.4389463623
 30
0.0
 10
65.5949020973
 20
54.9118123856
 30
0.0
 10
64.9289888804
 20
53.4180146153
 30
0.0
 10
64.0157578248
 20
51.9723883316
 30
0.0
 10
62.8652637229
 20
50.5878421449
 30
0.0
 10
61.4890751544
 20
49.2763834279
 30
0.0
 10
59.9006396025
 20
48.0498799618
 30
0.0
 10
58.7398197214
 20
47.314653192
 30
0.0
 10
58.130128933
 20
46.9626501524
 30
0.0
  0
SPLINE
  5
256
100
AcDbEntity
  8
0
100
AcDbSpline
 62
7
  6
BYLAYER
 70
0
 71
3
 72
15
 73
11
 74
0
 42
0.0000001
 43
0.0000001
 44
0.0000000001
 40
0.0
 40
0.0
 40
0.0
 40
0.0
 40
0.1117132882
 40
0.2311799329
 40
0.3567197197
 40
0.4863529462
 40
0.6178175841
 40
0.7487713191
 40
0.8768870122
 40
1.0
 40
1.0
 40
1.0
 40
1.0
 10
49.2224205747
 20
34.2242286799
 30
0.0
 10
48.9569887475
 20
34.0709824578
 30
0.0
 10
48.3839913192
 20
33.7939582186
 30
0.0
 10
47.4560124929
 20
33.4769614129
 30
0.0
 10
46.4513650814
 20
33.251080956
 30
0.0
 10
45.396798503
 20
33.122145179
 30
0.0
 10
44.3199606142
 20
33.0936209471
 30
0.0
 10
43.249315609
 20
33.1662285706
 30
0.0
 10
42.2133105767
 20
33.3380234917
 30
0.0
 10
41.546938602
 20
33.5203677578
 30
0.0
 10
41.2268716808
 20
33.6282824009
 30
0.0
  0
SPLINE
  5
257
100
AcDbEntity
  8
0
100
AcDbSpline
 62
7
  6
BYLAYER
 70
0
 71
3
 72
13
 73
9
 74
0
 42
0.0000001
 43
0.0000001
 44
0.0000000001
 40
0.0
 40
0.0
 40
0.0
 40
0.0
 40
0.2866156187
 40
0.4220102938
 40
0.5511613342
 40
0.6736213773
 40
0.7892015012
 40
1.0
 40
1.0
 40
1.0
 40
1.0
 10
51.2809894613
 20
55.9134747026
 30
0.0
 10
50.7357098747
 20
56.0367871211
 30
0.0
 10
49.9425104427
 20
56.270303264
 30
0.0
 10
48.9522855721
 20
56.6911819379
 30
0.0
 10
48.2835979959
 20
57.043422672
 30
0.0
 10
47.682117099
 20
57.4347557885
 30
0.0
 10
47.0004178646
 20
57.9849382024
 30
0.0
 10
46.5725788523
 20
58.4691118682
 30
0.0
 10
46.3509139337
 20
58.8154100148
 30
0.0
  0
SPLINE
  5
258
100
AcDbEntity
  8
0
100
AcDbSpline
 62
7
  6
BYLAYER
 70
0
 71
3
 72
14
 73
10
 74
0
 42
0.0000001
 43
0.0000001
 44
0.0000000001
 40
0.0
 40
0.0
 40
0.0
 40
0.0
 40
0.2920697915
 40
0.4286847311
 40
0.5579470844
 40
0.6794823068
 40
0.7932784409
 40
0.8997935784
 40
1.0
 40
1.0
 40
1.0
 40
1.0
 10
51.8609362072
 20
54.5741324771
 30
0.0
 10
51.4091090751
 20
54.6837490168
 30
0.0
 10
50.7551695255
 20
54.8920374239
 30
0.0
 10
49.95061383
 20
55.2705500442
 30
0.0
 10
49.4193014357
 20
55.5858082294
 30
0.0
 10
48.9538087539
 20
55.934534619
 30
0.0
 10
48.5603225047
 20
56.3127129544
 30
0.0
 10
48.2441944142
 20
56.7154538135
 30
0.0
 10
48.084003327
 20
57.0050651485
 30
0.0
 10
48.0198841988
 20
57.1511254433
 30
0.0
  0
SPLINE
  5
259
100
AcDbEntity
  8
0
100
AcDbSpline
 62
7
  6
BYLAYER
 70
0
 71
3
 72
15
 73
11
 74
0
 42
0.0000001
 43
0.0000001
 44
0.0000000001
 40
0.0
 40
0.0
 40
0.0
 40
0.0
 40
0.1485808798
 40
0.2895106185
 40
0.4227259153
 40
0.5486427183
 40
0.6680028307
 40
0.7819401017
 40
0.8919879554
 40
1.0
 40
1.0
 40
1.0
 40
1.0
 10
27.5476333204
 20
64.6190627854
 30
0.0
 10
27.1867899723
 20
64.4107310248
 30
0.0
 10
26.5000078748
 20
63.9754058799
 30
0.0
 10
25.5610725896
 20
63.2486880479
 30
0.0
 10
24.7489434465
 20
62.4713275188
 30
0.0
 10
24.0717615532
 20
61.650472439
 30
0.0
 10
23.5363411968
 20
60.7934194439
 30
0.0
 10
23.1487742511
 20
59.9078815098
 30
0.0
 10
22.9140412146
 20
59.0028407447
 30
0.0
 10
22.8613974031
 20
58.3901089204
 30
0.0
 10
22.8614111287
 20
58.0872107255
 30
0.0
  0
SPLINE
  5
25A
100
AcDbEntity
  8
0
100
AcDbSpline
 62
7
  6
BYLAYER
 70
0
 71
3
 72
18
 73
14
 74
0
 42
0.0000001
 43
0.0000001
 44
0.0000000001
 40
0.0
 40
0.0
 40
0.0
 40
0.0
 40
0.0574609061
 40
0.1171475226
 40
0.2419814431
 40
0.3721082999
 40
0.5046424404
 40
0.6365334579
 40
0.7647762904
 40
0.8266838195
 40
0.886687187
 40
0.9445426435
 40
1.0
 40
1.0
 40
1.0
 40
1.0
 10
49.2565837625
 20
65.1094538119
 30
0.0
 10
48.8706441621
 20
65.2998869151
 30
0.0
 10
48.0687241472
 20
65.6581867128
 30
0.0
 10
46.3660204268
 20
66.2822705506
 30
0.0
 10
44.0786325457
 20
66.8756920515
 30
0.0
 10
41.1988687796
 20
67.2790613701
 30
0.0
 10
38.2394282377
 20
67.3706568817
 30
0.0
 10
35.3014508845
 20
67.1473923434
 30
0.0
 10
32.925316304
 20
66.6999543872
 30
0.0
 10
31.1221376952
 20
66.1874091088
 30
0.0
 10
29.8521348311
 20
65.7372675045
 30
0.0
 10
28.6600882546
 20
65.2208803426
 30
0.0
 10
27.9073454196
 20
64.826741423
 30
0.0
 10
27.5476333204
 20
64.6190627854
 30
0.0
  0
SPLINE
  5
25B
100
AcDbEntity
  8
0
100
AcDbSpline
 62
7
  6
BYLAYER
 70
0
 71
3
 72
25
 73
21
 74
0
 42
0.0000001
 43
0.0000001
 44
0.0000000001
 40
0.0
 40
0.0
 40
0.0
 40
0.0
 40
0.0623807103
 40
0.1287233768
 40
0.1983142605
 40
0.2702909678
 40
0.3436681816
 40
0.4174013644
 40
0.4904267518
 40
0.5617141765
 40
0.6303119851
 40
0.6953997304
 40
0.7563471591
 40
0.8127840872
 40
0.864684165
 40
0.9124584772
 40
0.9351031096
 40
0.9571079304
 40
0.9786681832
 40
1.0
 40
1.0
 40
1.0
 40
1.0
 10
49.1498354237
 20
52.1473077348
 30
0.0
 10
48.6271026693
 20
51.8455096399
 30
0.0
 10
47.5068210578
 20
51.293168601
 30
0.0
 10
45.6997032653
 20
50.6383495065
 30
0.0
 10
43.746800093
 20
50.1426224785
 30
0.0
 10
41.689978585
 20
49.8164520614
 30
0.0
 10
39.5727787535
 20
49.6667969899
 30
0.0
 10
37.4404047654
 20
49.6967882491
 30
0.0
 10
35.3383333876
 20
49.9058266223
 30
0.0
 10
33.3113757633
 20
50.2894496071
 30
0.0
 10
31.4025940942
 20
50.8395555977
 30
0.0
 10
29.6523396448
 20
51.5446856338
 30
0.0
 10
28.0973967734
 20
52.3903924664
 30
0.0
 10
26.770274733
 20
53.3602250148
 30
0.0
 10
25.6993921716
 20
54.4353945721
 30
0.0
 10
25.0290589714
 20
55.4218553751
 30
0.0
 10
24.6554399113
 20
56.2362806982
 30
0.0
 10
24.4574450592
 20
56.8472323492
 30
0.0
 10
24.3380454572
 20
57.4652957556
 30
0.0
 10
24.3114015014
 20
57.8808028211
 30
0.0
 10
24.3114149247
 20
58.0872105533
 30
0.0
  0
SPLINE
  5
25C
100
AcDbEntity
  8
0
100
AcDbSpline
 62
7
  6
BYLAYER
 70
0
 71
3
 72
9
 73
5
 74
0
 42
0.0000001
 43
0.0000001
 44
0.0000000001
 40
0.0
 40
0.0
 40
0.0
 40
0.0
 40
0.2334993623
 40
1.0
 40
1.0
 40
1.0
 40
1.0
 10
46.4306986325
 20
58.7772064273
 30
0.0
 10
46.5177958816
 20
58.6512704706
 30
0.0
 10
46.9208906804
 20
58.1327257054
 30
0.0
 10
47.4286421156
 20
57.7011999309
 30
0.0
 10
47.8434113019
 20
57.417270137
 30
0.0
  0
SPLINE
  5
25D
100
AcDbEntity
  8
0
100
AcDbSpline
 62
7
  6
BYLAYER
 70
0
 71
3
 72
11
 73
7
 74
0
 42
0.0000001
 43
0.0000001
 44
0.0000000001
 40
0.0
 40
0.0
 40
0.0
 40
0.0
 40
0.2304109701
 40
0.4749088559
 40
0.7321460849
 40
1.0
 40
1.0
 40
1.0
 40
1.0
 10
47.8559251656
 20
57.4087233873
 30
0.0
 10
48.0939791936
 20
57.2465085698
 30
0.0
 10
48.6051120324
 20
56.9415807777
 30
0.0
 10
49.4363738481
 20
56.5551426095
 30
0.0
 10
50.3436341879
 20
56.2311190609
 30
0.0
 10
50.9790283218
 20
56.0627470245
 30
0.0
 10
51.3058047146
 20
55.9895185905
 30
0.0
  0
SPLINE
  5
25E
100
AcDbEntity
  8
0
100
AcDbSpline
 62
7
  6
BYLAYER
 70
0
 71
3
 72
10
 73
6
 74
0
 42
0.0000001
 43
0.0000001
 44
0.0000000001
 40
0.0
 40
0.0
 40
0.0
 40
0.0
 40
0.2323618737
 40
0.4767509625
 40
1.0
 40
1.0
 40
1.0
 40
1.0
 10
51.3058047146
 20
55.9895185905
 30
0.0
 10
51.0759776801
 20
56.208539469
 30
0.0
 10
50.5809698969
 20
56.6338323521
 30
0.0
 10
49.4675332579
 20
57.4278389035
 30
0.0
 10
48.5393180825
 20
57.9277001444
 30
0.0
 10
47.8890132983
 20
58.2246938437
 30
0.0
  0
SPLINE
  5
25F
100
AcDbEntity
  8
0
100
AcDbSpline
 62
7
  6
BYLAYER
 70
0
 71
3
 72
9
 73
5
 74
0
 42
0.0000001
 43
0.0000001
 44
0.0000000001
 40
0.0
 40
0.0
 40
0.0
 40
0.0
 40
0.2455200131
 40
1.0
 40
1.0
 40
1.0
 40
1.0
 10
47.8890132983
 20
58.2246938437
 30
0.0
 10
47.7721443118
 20
58.2780678208
 30
0.0
 10
47.2935582035
 20
58.4897809157
 30
0.0
 10
46.8051707995
 20
58.6792048641
 30
0.0
 10
46.4327310428
 20
58.8102382563
 30
0.0
  0
SPLINE
  5
260
100
AcDbEntity
  8
0
100
AcDbSpline
 62
7
  6
BYLAYER
 70
0
 71
3
 72
30
 73
26
 74
0
 42
0.0000001
 43
0.0000001
 44
0.0000000001
 40
0.0
 40
0.0
 40
0.0
 40
0.0
 40
0.0213274413
 40
0.0428832771
 40
0.0648839492
 40
0.0875237824
 40
0.1109684836
 40
0.1353501617
 40
0.1607682623
 40
0.1872882687
 40
0.2149468093
 40
0.2437516703
 40
0.2736875959
 40
0.3047167784
 40
0.3697914487
 40
0.438375003
 40
0.5096470982
 40
0.582656612
 40
0.6563732722
 40
0.7297357134
 40
0.8016974818
 40
0.8712766285
 40
0.9376008164
 40
0.9693362344
 40
1.0
 40
1.0
 40
1.0
 40
1.0
 10
8.8614117958
 20
58.0872106945
 30
0.0
 10
8.8613976068
 20
57.661628156
 30
0.0
 10
8.9163582944
 20
56.8049228223
 30
0.0
 10
9.1624590362
 20
55.5305227175
 30
0.0
 10
9.5707858616
 20
54.2709187224
 30
0.0
 10
10.1384290371
 20
53.0333944856
 30
0.0
 10
10.8619895375
 20
51.8246820218
 30
0.0
 10
11.7369311285
 20
50.6510555896
 30
0.0
 10
12.7584436444
 20
49.5187850077
 30
0.0
 10
13.920652892
 20
48.4335605456
 30
0.0
 10
15.2173687881
 20
47.4011973607
 30
0.0
 10
16.6414388038
 20
46.4269233948
 30
0.0
 10
18.1853174884
 20
45.5159572184
 30
0.0
 10
20.4277846206
 20
44.374136941
 30
0.0
 10
23.4827838955
 20
43.1434910678
 30
0.0
 10
27.4181181713
 20
42.0093443127
 30
0.0
 10
31.5974541434
 20
41.2183510885
 30
0.0
 10
35.9315325796
 20
40.7873600473
 30
0.0
 10
40.3281516587
 20
40.7254940798
 30
0.0
 10
44.6934420294
 20
41.0340890793
 30
0.0
 10
48.9344954126
 20
41.7065737237
 30
0.0
 10
52.9605889689
 20
42.7286567827
 30
0.0
 10
56.1121902846
 20
43.8704954096
 30
0.0
 10
58.4459580627
 20
44.9463262297
 30
0.0
 10
59.5447710471
 20
45.5340464361
 30
0.0
 10
60.0746806772
 20
45.8399880775
 30
0.0
  0
LINE
  5
261
100
AcDbEntity
  8
0
100
AcDbLine
 62
7
  6
BYLAYER
 10
34.5431721012
 20
59.3294530958
 11
34.5515095666
 21
59.3387833339
  0
SPLINE
  5
262
100
AcDbEntity
  8
0
100
AcDbSpline
 62
7
  6
BYLAYER
 70
0
 71
3
 72
15
 73
11
 74
0
 42
0.0000001
 43
0.0000001
 44
0.0000000001
 40
0.0
 40
0.0
 40
0.0
 40
0.0
 40
0.1457628228
 40
0.2845371822
 40
0.4164324948
 40
0.5419650127
 40
0.6619093155
 40
0.7773059836
 40
0.8894869645
 40
1.0
 40
1.0
 40
1.0
 40
1.0
 10
26.6368139767
 20
52.0253747286
 30
0.0
 10
26.3424744597
 20
52.2266250022
 30
0.0
 10
25.7834121455
 20
52.6429495686
 30
0.0
 10
25.0238773425
 20
53.32401396
 30
0.0
 10
24.3698505823
 20
54.0417315012
 30
0.0
 10
23.8266633768
 20
54.7907260213
 30
0.0
 10
23.3986328104
 20
55.5655444336
 30
0.0
 10
23.0898297374
 20
56.360564327
 30
0.0
 10
22.9031312901
 20
57.169177864
 30
0.0
 10
22.8614233787
 20
57.7148121986
 30
0.0
 10
22.8614111287
 20
57.9851479233
 30
0.0
  0
SPLINE
  5
263
100
AcDbEntity
  8
0
100
AcDbSpline
 62
7
  6
BYLAYER
 70
0
 71
3
 72
9
 73
5
 74
0
 42
0.0000001
 43
0.0000001
 44
0.0000000001
 40
0.0
 40
0.0
 40
0.0
 40
0.0
 40
0.4918918737
 40
1.0
 40
1.0
 40
1.0
 40
1.0
 10
34.5515095666
 20
59.3387833339
 30
0.0
 10
34.5693270344
 20
59.3596513803
 30
0.0
 10
34.5928018273
 20
59.4127790321
 30
0.0
 10
34.5983793929
 20
59.4684291908
 30
0.0
 10
34.5999475081
 20
59.4967300953
 30
0.0
  0
SPLINE
  5
264
100
AcDbEntity
  8
0
100
AcDbSpline
 62
7
  6
BYLAYER
 70
0
 71
3
 72
9
 73
5
 74
0
 42
0.0000001
 43
0.0000001
 44
0.0000000001
 40
0.0
 40
0.0
 40
0.0
 40
0.0
 40
0.2655786758
 40
1.0
 40
1.0
 40
1.0
 40
1.0
 10
34.5999475081
 20
59.4967300953
 30
0.0
 10
34.6004006736
 20
59.5049087001
 30
0.0
 10
34.6016844709
 20
59.5357290106
 30
0.0
 10
34.6016766765
 20
59.5665808578
 30
0.0
 10
34.601681068
 20
59.5892323561
 30
0.0
  0
SPLINE
  5
265
100
AcDbEntity
  8
0
100
AcDbSpline
 62
7
  6
BYLAYER
 70
0
 71
3
 72
15
 73
11
 74
0
 42
0.0000001
 43
0.0000001
 44
0.0000000001
 40
0.0
 40
0.0
 40
0.0
 40
0.0
 40
0.1080119452
 40
0.2180607214
 40
0.3319973131
 40
0.4513553368
 40
0.5772764711
 40
0.7104920193
 40
0.8514099611
 40
1.0
 40
1.0
 40
1.0
 40
1.0
 10
11.6114105529
 20
58.0872106994
 30
0.0
 10
11.6114275571
 20
58.6030842128
 30
0.0
 10
11.7009697001
 20
59.6466561463
 30
0.0
 10
12.1008796105
 20
61.1880321023
 30
0.0
 10
12.7609063094
 20
62.6962145183
 30
0.0
 10
13.6727547801
 20
64.1559264284
 30
0.0
 10
14.8261583538
 20
65.5538999142
 30
0.0
 10
16.2092746782
 20
66.8778308065
 30
0.0
 10
17.8083629492
 20
68.1155570113
 30
0.0
 10
18.9780491055
 20
68.8569340278
 30
0.0
 10
19.5926489125
 20
69.2117712738
 30
0.0
  0
SPLINE
  5
266
100
AcDbEntity
  8
0
100
AcDbSpline
 62
7
  6
BYLAYER
 70
0
 71
3
 72
29
 73
25
 74
0
 42
0.0000001
 43
0.0000001
 44
0.0000000001
 40
0.0
 40
0.0
 40
0.0
 40
0.0
 40
0.0213202457
 40
0.0428866857
 40
0.0649130407
 40
0.087590247
 40
0.111080652
 40
0.1355129949
 40
0.1609837966
 40
0.1875559696
 40
0.215263983
 40
0.2441140242
 40
0.2740894578
 40
0.3051516745
 40
0.3702708516
 40
0.4388687142
 40
0.5101264256
 40
0.5830966907
 40
0.6567546133
 40
0.7300452978
 40
0.8019292568
 40
0.8714314758
 40
0.9376858939
 40
1.0
 40
1.0
 40
1.0
 40
1.0
 10
66.1108218491
 20
58.0850691166
 30
0.0
 10
66.1065919762
 20
58.470767097
 30
0.0
 10
66.0483219939
 20
59.2469489885
 30
0.0
 10
65.8132656319
 20
60.4005119055
 30
0.0
 10
65.4317903825
 20
61.5401762784
 30
0.0
 10
64.9066357732
 20
62.6594234983
 30
0.0
 10
64.2408785648
 20
63.7521947508
 30
0.0
 10
63.4386714234
 20
64.8128688687
 30
0.0
 10
62.5043835468
 20
65.8358075151
 30
0.0
 10
61.4433435394
 20
66.8158928123
 30
0.0
 10
60.2611798463
 20
67.7479114824
 30
0.0
 10
58.9643587464
 20
68.6271454936
 30
0.0
 10
57.5597307794
 20
69.4489341291
 30
0.0
 10
55.5213290389
 20
70.4783842241
 30
0.0
 10
52.7470102995
 20
71.5871275198
 30
0.0
 10
49.1760715849
 20
72.6076885689
 30
0.0
 10
45.3863528362
 20
73.3178170422
 30
0.0
 10
41.4583634546
 20
73.7024620667
 30
0.0
 10
37.4752418043
 20
73.7535274765
 30
0.0
 10
33.5215309429
 20
73.4699006187
 30
0.0
 10
29.6811079702
 20
72.8576442707
 30
0.0
 10
26.0350587607
 20
71.929500515
 30
0.0
 10
22.6608759928
 20
70.7052933109
 30
0.0
 10
20.5689840582
 20
69.673392466
 30
0.0
 10
19.5926489125
 20
69.1097084716
 30
0.0
  0
SPLINE
  5
267
100
AcDbEntity
  8
0
100
AcDbSpline
 62
7
  6
BYLAYER
 70
0
 71
3
 72
18
 73
14
 74
0
 42
0.0000001
 43
0.0000001
 44
0.0000000001
 40
0.0
 40
0.0
 40
0.0
 40
0.0
 40
0.0554573565
 40
0.113312813
 40
0.1733161805
 40
0.2352237096
 40
0.3634665421
 40
0.4953575596
 40
0.6278917001
 40
0.7580185569
 40
0.8828524774
 40
0.9425390939
 40
1.0
 40
1.0
 40
1.0
 40
1.0
 10
50.1751445251
 20
51.4532958386
 30
0.0
 10
49.815432426
 20
51.245617201
 30
0.0
 10
49.062689591
 20
50.8514782814
 30
0.0
 10
47.8706430145
 20
50.3350911195
 30
0.0
 10
46.6006401503
 20
49.8849495152
 30
0.0
 10
44.7974615416
 20
49.3724042368
 30
0.0
 10
42.4213269611
 20
48.9249662806
 30
0.0
 10
39.4833496079
 20
48.7017017423
 30
0.0
 10
36.523909066
 20
48.7932972539
 30
0.0
 10
33.6441452999
 20
49.1966665725
 30
0.0
 10
31.3567574188
 20
49.7900880734
 30
0.0
 10
29.6540536984
 20
50.4141719112
 30
0.0
 10
28.8521336835
 20
50.7724717089
 30
0.0
 10
28.4661940831
 20
50.9629048122
 30
0.0
  0
SPLINE
  5
268
100
AcDbEntity
  8
0
100
AcDbSpline
 62
7
  6
BYLAYER
 70
0
 71
3
 72
15
 73
11
 74
0
 42
0.0000001
 43
0.0000001
 44
0.0000000001
 40
0.0
 40
0.0
 40
0.0
 40
0.0
 40
0.1103356752
 40
0.2223645299
 40
0.3376557034
 40
0.4575558244
 40
0.5831128478
 40
0.7151034949
 40
0.8540371721
 40
1.0
 40
1.0
 40
1.0
 40
1.0
 10
22.8614111287
 20
58.0872107255
 30
0.0
 10
22.861423483
 20
57.8145729748
 30
0.0
 10
22.9038556456
 20
57.2642085733
 30
0.0
 10
23.0937722785
 20
56.4487655234
 30
0.0
 10
23.407851959
 20
55.6472849568
 30
0.0
 10
23.843101902
 20
54.8665328319
 30
0.0
 10
24.3953307627
 20
54.1122657107
 30
0.0
 10
25.0600647466
 20
53.390051704
 30
0.0
 10
25.8317904783
 20
52.705417287
 30
0.0
 10
26.399548937
 20
52.2874616532
 30
0.0
 10
26.6984197702
 20
52.0855695006
 30
0.0
  0
SPLINE
  5
269
100
AcDbEntity
  8
0
100
AcDbSpline
 62
7
  6
BYLAYER
 70
0
 71
3
 72
9
 73
5
 74
0
 42
0.0000001
 43
0.0000001
 44
0.0000000001
 40
0.0
 40
0.0
 40
0.0
 40
0.0
 40
0.5002224107
 40
1.0
 40
1.0
 40
1.0
 40
1.0
 10
34.148919283
 20
59.5682452645
 30
0.0
 10
34.2161434163
 20
59.5300844451
 30
0.0
 10
34.3506453626
 20
59.4539961209
 30
0.0
 10
34.4847097843
 20
59.3771390065
 30
0.0
 10
34.551681342
 20
59.338674473
 30
0.0
  0
SPLINE
  5
26A
100
AcDbEntity
  8
0
100
AcDbSpline
 62
7
  6
BYLAYER
 70
0
 71
3
 72
15
 73
11
 74
0
 42
0.0000001
 43
0.0000001
 44
0.0000000001
 40
0.0
 40
0.0
 40
0.0
 40
0.0
 40
0.1080128257
 40
0.2180594657
 40
0.3319947683
 40
0.4513561742
 40
0.5772667084
 40
0.7104867992
 40
0.8514339984
 40
1.0
 40
1.0
 40
1.0
 40
1.0
 10
24.3114149247
 20
58.0872105533
 30
0.0
 10
24.3114328381
 20
58.3626604986
 30
0.0
 10
24.3592257989
 20
58.9198680353
 30
0.0
 10
24.5727713109
 20
59.7428644431
 30
0.0
 10
24.92514001
 20
60.5481735584
 30
0.0
 10
25.4120785411
 20
61.3275142585
 30
0.0
 10
26.0278576446
 20
62.0739998472
 30
0.0
 10
26.7664129325
 20
62.7809499978
 30
0.0
 10
27.6203044988
 20
63.4417761091
 30
0.0
 10
28.2448334706
 20
63.8376810308
 30
0.0
 10
28.5729424219
 20
64.0271136913
 30
0.0
  0
SPLINE
  5
26B
100
AcDbEntity
  8
0
100
AcDbSpline
 62
7
  6
BYLAYER
 70
0
 71
3
 72
15
 73
11
 74
0
 42
0.0000001
 43
0.0000001
 44
0.0000000001
 40
0.0
 40
0.0
 40
0.0
 40
0.0
 40
0.1485900458
 40
0.2895075386
 40
0.422722825
 40
0.5486437925
 40
0.6680017471
 40
0.7819385179
 40
0.8919876428
 40
1.0
 40
1.0
 40
1.0
 40
1.0
 10
60.0746806772
 20
45.8399880775
 30
0.0
 10
60.7513043692
 20
46.2306346163
 30
0.0
 10
62.0390306734
 20
47.0468277172
 30
0.0
 10
63.7994918459
 20
48.4094600367
 30
0.0
 10
65.3221855175
 20
49.8669952141
 30
0.0
 10
66.5919887582
 20
51.4060442769
 30
0.0
 10
67.5958598447
 20
53.0130656633
 30
0.0
 10
68.3224962401
 20
54.6734519409
 30
0.0
 10
68.7627677567
 20
56.3703838013
 30
0.0
 10
68.8613471147
 20
57.5192744053
 30
0.0
 10
68.8613660498
 20
58.0872107316
 30
0.0
  0
SPLINE
  5
26C
100
AcDbEntity
  8
0
100
AcDbSpline
 62
7
  6
BYLAYER
 70
0
 71
3
 72
29
 73
25
 74
0
 42
0.0000001
 43
0.0000001
 44
0.0000000001
 40
0.0
 40
0.0
 40
0.0
 40
0.0
 40
0.0623732211
 40
0.1286990074
 40
0.1982799498
 40
0.2702436671
 40
0.3436082761
 40
0.4173271935
 40
0.4903389258
 40
0.5616131465
 40
0.6301987662
 40
0.6952753906
 40
0.7263054641
 40
0.7562422062
 40
0.7850478204
 40
0.8127070511
 40
0.8392277071
 40
0.8646464172
 40
0.8890286804
 40
0.9124739555
 40
0.9351143759
 40
0.9571156194
 40
0.9786720116
 40
1.0
 40
1.0
 40
1.0
 40
1.0
 10
19.5926489125
 20
69.2117712738
 30
0.0
 10
20.5717055278
 20
69.7770265
 30
0.0
 10
22.669782608
 20
70.8115104752
 30
0.0
 10
26.054293771
 20
72.037794608
 30
0.0
 10
29.7117100197
 20
72.9663112556
 30
0.0
 10
33.5638901718
 20
73.5771190303
 30
0.0
 10
37.5290654192
 20
73.8574383734
 30
0.0
 10
41.5226636626
 20
73.8012422341
 30
0.0
 10
45.4594647185
 20
73.4097583691
 30
0.0
 10
49.2557041846
 20
72.6912704777
 30
0.0
 10
52.830308093
 20
71.6610829647
 30
0.0
 10
55.6052711537
 20
70.5432412259
 30
0.0
 10
57.6421812193
 20
69.5060846846
 30
0.0
 10
59.0445361555
 20
68.6786214502
 30
0.0
 10
60.3380639766
 20
67.7936560819
 30
0.0
 10
61.5159098395
 20
66.8559261696
 30
0.0
 10
62.571579157
 20
65.8701826106
 30
0.0
 10
63.4994481468
 20
64.841705367
 30
0.0
 10
64.2941837593
 20
63.7756646556
 30
0.0
 10
64.9514139607
 20
62.6777525987
 30
0.0
 10
65.4670225278
 20
61.5536705491
 30
0.0
 10
65.8379166859
 20
60.4095314562
 30
0.0
 10
66.0614595413
 20
59.2519536085
 30
0.0
 10
66.1113800348
 20
58.4737808174
 30
0.0
 10
66.1113672927
 20
58.0872107268
 30
0.0
  0
SPLINE
  5
26D
100
AcDbEntity
  8
0
100
AcDbSpline
 62
7
  6
BYLAYER
 70
0
 71
3
 72
13
 73
9
 74
0
 42
0.0000001
 43
0.0000001
 44
0.0000000001
 40
0.0
 40
0.0
 40
0.0
 40
0.0
 40
0.0902549765
 40
0.1874367507
 40
0.295779514
 40
0.417022016
 40
0.6944475831
 40
1.0
 40
1.0
 40
1.0
 40
1.0
 10
26.631722129
 20
51.1996533688
 30
0.0
 10
26.6317410797
 20
51.1879118305
 30
0.0
 10
26.6362724594
 20
51.1633770085
 30
0.0
 10
26.655287493
 20
51.1293008014
 30
0.0
 10
26.6854281767
 20
51.0987478292
 30
0.0
 10
26.7407387844
 20
51.0621626561
 30
0.0
 10
26.8288173418
 20
51.0322556794
 30
0.0
 10
26.9050646273
 20
51.0256120011
 30
0.0
 10
26.9448022765
 20
51.0266137756
 30
0.0
  0
SPLINE
  5
26E
100
AcDbEntity
  8
0
100
AcDbSpline
 62
7
  6
BYLAYER
 70
0
 71
3
 72
15
 73
11
 74
0
 42
0.0000001
 43
0.0000001
 44
0.0000000001
 40
0.0
 40
0.0
 40
0.0
 40
0.0
 40
0.1484499072
 40
0.2893010033
 40
0.4225177398
 40
0.5484946085
 40
0.6679394993
 40
0.781959221
 40
0.892044457
 40
1.0
 40
1.0
 40
1.0
 40
1.0
 10
19.5926489125
 20
69.1097084716
 30
0.0
 10
18.9829573756
 20
68.7577049998
 30
0.0
 10
17.8221376768
 20
68.022479087
 30
0.0
 10
16.2337031652
 20
66.7959756573
 30
0.0
 10
14.85751601
 20
65.484517626
 30
0.0
 10
13.7070198447
 20
64.0999725316
 30
0.0
 10
12.7937878904
 20
62.6543441588
 30
0.0
 10
12.1278745797
 20
61.160542214
 30
0.0
 10
11.7174495588
 20
59.6334022597
 30
0.0
 10
11.6177025351
 20
58.5983803192
 30
0.0
 10
11.6119778485
 20
58.0864430459
 30
0.0
  0
SPLINE
  5
26F
100
AcDbEntity
  8
0
100
AcDbSpline
 62
7
  6
BYLAYER
 70
0
 71
3
 72
18
 73
14
 74
0
 42
0.0000001
 43
0.0000001
 44
0.0000000001
 40
0.0
 40
0.0
 40
0.0
 40
0.0
 40
0.0574609061
 40
0.1171475226
 40
0.2419814431
 40
0.3721082999
 40
0.5046424404
 40
0.6365334579
 40
0.7647762904
 40
0.8266838195
 40
0.886687187
 40
0.9445426435
 40
1.0
 40
1.0
 40
1.0
 40
1.0
 10
28.4661940831
 20
51.0649676143
 30
0.0
 10
28.8521336835
 20
50.874534511
 30
0.0
 10
29.6540536984
 20
50.5162347133
 30
0.0
 10
31.3567574188
 20
49.8921508756
 30
0.0
 10
33.6441452999
 20
49.2987293747
 30
0.0
 10
36.523909066
 20
48.8953600561
 30
0.0
 10
39.4833496079
 20
48.8037645444
 30
0.0
 10
42.4213269611
 20
49.0270290827
 30
0.0
 10
44.7974615416
 20
49.474467039
 30
0.0
 10
46.6006401503
 20
49.9870123173
 30
0.0
 10
47.8706430145
 20
50.4371539216
 30
0.0
 10
49.062689591
 20
50.9535410836
 30
0.0
 10
49.815432426
 20
51.3476800031
 30
0.0
 10
50.1751445251
 20
51.5553586407
 30
0.0
  0
SPLINE
  5
270
100
AcDbEntity
  8
0
100
AcDbSpline
 62
7
  6
BYLAYER
 70
0
 71
3
 72
13
 73
9
 74
0
 42
0.0000001
 43
0.0000001
 44
0.0000000001
 40
0.0
 40
0.0
 40
0.0
 40
0.0
 40
0.3055524169
 40
0.582977984
 40
0.704220486
 40
0.8125632493
 40
0.9097450235
 40
1.0
 40
1.0
 40
1.0
 40
1.0
 10
26.9448022765
 20
50.9245509734
 30
0.0
 10
26.9050646273
 20
50.923549199
 30
0.0
 10
26.8288173418
 20
50.9301928773
 30
0.0
 10
26.7407387844
 20
50.9600998539
 30
0.0
 10
26.6854281767
 20
50.996685027
 30
0.0
 10
26.655287493
 20
51.0272379993
 30
0.0
 10
26.6362724594
 20
51.0613142064
 30
0.0
 10
26.6317410797
 20
51.0858490284
 30
0.0
 10
26.631722129
 20
51.0975905667
 30
0.0
  0
SPLINE
  5
271
100
AcDbEntity
  8
0
100
AcDbSpline
 62
7
  6
BYLAYER
 70
0
 71
3
 72
15
 73
11
 74
0
 42
0.0000001
 43
0.0000001
 44
0.0000000001
 40
0.0
 40
0.0
 40
0.0
 40
0.0
 40
0.1485808798
 40
0.2895106185
 40
0.4227259153
 40
0.5486427183
 40
0.6680028307
 40
0.7819401017
 40
0.8919879554
 40
1.0
 40
1.0
 40
1.0
 40
1.0
 10
50.1751445251
 20
51.5553586407
 30
0.0
 10
50.5359878732
 20
51.7636904013
 30
0.0
 10
51.2227699708
 20
52.1990155462
 30
0.0
 10
52.161705256
 20
52.9257333782
 30
0.0
 10
52.973834399
 20
53.7030939074
 30
0.0
 10
53.6510162924
 20
54.5239489872
 30
0.0
 10
54.1864366488
 20
55.3810019823
 30
0.0
 10
54.5740035945
 20
56.2665399164
 30
0.0
 10
54.808736631
 20
57.1715806814
 30
0.0
 10
54.8613804425
 20
57.7843125057
 30
0.0
 10
54.8613667169
 20
58.0872107007
 30
0.0
  0
SPLINE
  5
272
100
AcDbEntity
  8
0
100
AcDbSpline
 62
7
  6
BYLAYER
 70
0
 71
3
 72
25
 73
21
 74
0
 42
0.0000001
 43
0.0000001
 44
0.0000000001
 40
0.0
 40
0.0
 40
0.0
 40
0.0
 40
0.0623807103
 40
0.1287233768
 40
0.1983142605
 40
0.2702909678
 40
0.3436681816
 40
0.4174013644
 40
0.4904267518
 40
0.5617141765
 40
0.6303119851
 40
0.6953997304
 40
0.7563471591
 40
0.8127840872
 40
0.864684165
 40
0.9124584772
 40
0.9351031096
 40
0.9571079304
 40
0.9786681832
 40
1.0
 40
1.0
 40
1.0
 40
1.0
 10
28.5729424219
 20
64.0271136913
 30
0.0
 10
29.0956751762
 20
64.3289117863
 30
0.0
 10
30.2159567878
 20
64.8812528252
 30
0.0
 10
32.0230745803
 20
65.5360719197
 30
0.0
 10
33.9759777526
 20
66.0317989476
 30
0.0
 10
36.0327992606
 20
66.3579693647
 30
0.0
 10
38.1499990921
 20
66.5076244363
 30
0.0
 10
40.2823730801
 20
66.477633177
 30
0.0
 10
42.384444458
 20
66.2685948038
 30
0.0
 10
44.4114020822
 20
65.884971819
 30
0.0
 10
46.3201837514
 20
65.3348658284
 30
0.0
 10
48.0704382008
 20
64.6297357923
 30
0.0
 10
49.6253810722
 20
63.7840289598
 30
0.0
 10
50.9525031126
 20
62.8141964113
 30
0.0
 10
52.023385674
 20
61.739026854
 30
0.0
 10
52.6937188742
 20
60.752566051
 30
0.0
 10
53.0673379342
 20
59.938140728
 30
0.0
 10
53.2653327864
 20
59.327189077
 30
0.0
 10
53.3847323883
 20
58.7091256705
 30
0.0
 10
53.4113763442
 20
58.2936186051
 30
0.0
 10
53.4113629208
 20
58.0872108729
 30
0.0
  0
SPLINE
  5
273
100
AcDbEntity
  8
0
100
AcDbSpline
 62
7
  6
BYLAYER
 70
0
 71
3
 72
15
 73
11
 74
0
 42
0.0000001
 43
0.0000001
 44
0.0000000001
 40
0.0
 40
0.0
 40
0.0
 40
0.0
 40
0.1080120446
 40
0.2180598983
 40
0.3319971693
 40
0.4513572817
 40
0.5772740847
 40
0.7104893815
 40
0.8514191202
 40
1.0
 40
1.0
 40
1.0
 40
1.0
 10
54.8613667169
 20
57.9851478985
 30
0.0
 10
54.8613804425
 20
57.6822497036
 30
0.0
 10
54.808736631
 20
57.0695178793
 30
0.0
 10
54.5740035945
 20
56.1644771142
 30
0.0
 10
54.1864366488
 20
55.2789391801
 30
0.0
 10
53.6510162924
 20
54.421886185
 30
0.0
 10
52.973834399
 20
53.6010311052
 30
0.0
 10
52.161705256
 20
52.8236705761
 30
0.0
 10
51.2227699708
 20
52.0969527441
 30
0.0
 10
50.5359878732
 20
51.6616275992
 30
0.0
 10
50.1751445251
 20
51.4532958386
 30
0.0
  0
SPLINE
  5
274
100
AcDbEntity
  8
0
100
AcDbSpline
 62
7
  6
BYLAYER
 70
0
 71
3
 72
9
 73
5
 74
0
 42
0.0000001
 43
0.0000001
 44
0.0000000001
 40
0.0
 40
0.0
 40
0.0
 40
0.0
 40
0.2518768234
 40
1.0
 40
1.0
 40
1.0
 40
1.0
 10
34.6016780575
 20
59.5892324082
 30
0.0
 10
34.6016794004
 20
59.5961589098
 30
0.0
 10
34.602381266
 20
59.6236544151
 30
0.0
 10
34.6045106144
 20
59.651106842
 30
0.0
 10
34.6045166401
 20
59.6716798992
 30
0.0
  0
SPLINE
  5
275
100
AcDbEntity
  8
0
100
AcDbSpline
 62
7
  6
BYLAYER
 70
0
 71
3
 72
9
 73
5
 74
0
 42
0.0000001
 43
0.0000001
 44
0.0000000001
 40
0.0
 40
0.0
 40
0.0
 40
0.0
 40
0.5187711011
 40
1.0
 40
1.0
 40
1.0
 40
1.0
 10
34.5431719107
 20
59.3294532059
 30
0.0
 10
34.4966120484
 20
59.2801526049
 30
0.0
 10
34.3977139784
 20
59.1936140249
 30
0.0
 10
34.2884466226
 20
59.1213297974
 30
0.0
 10
34.2340623817
 20
59.0897187134
 30
0.0
  0
ENDSEC
  0
SECTION
  2
OBJECTS
  0
DICTIONARY
  5
C
100
AcDbDictionary
280
0
281
1
  3
ACAD_GROUP
350
D
  3
ACAD_MLINESTYLE
350
17
  3
ACAD_LAYOUT
350
1A
  3
ACAD_PLOTSETTINGS
350
19
  3
ACAD_PLOTSTYLENAME
350
E
  0
DICTIONARY
  5
D
102
{ACAD_REACTORS
330
C
102
}
100
AcDbDictionary
280
0
281
1
  0
ACDBDICTIONARYWDFLT
  5
E
102
{ACAD_REACTORS
330
C
102
}
100
AcDbDictionary
281
1
  3
Normal
350
F
100
AcDbDictionaryWithDefault
340
F
  0
DICTIONARY
  5
17
102
{ACAD_REACTORS
330
C
102
}
100
AcDbDictionary
280
0
281
1
  3
Standard
350
18
  0
DICTIONARY
  5
19
102
{ACAD_REACTORS
330
C
102
}
100
AcDbDictionary
281
1
  0
DICTIONARY
  5
1A
102
{ACAD_REACTORS
330
C
102
}
100
AcDbDictionary
281
1
  3
Model
350
276
  3
Layout1
350
277
  0
ACDBPLACEHOLDER
  5
F
102
{ACAD_REACTORS
330
E
102
}
  0
MLINESTYLE
  5
18
102
{ACAD_REACTORS
330
17
102
}
100
AcDbMlineStyle
  2
STANDARD
 70
0
  3

 62
256
 51
90.0
 52
90.0
 71
2
 49
0.5
 62
256
  6
BYLAYER
 49
-0.5
 62
256
  6
BYLAYER
  0
LAYOUT
  5
276
102
{ACAD_REACTORS
330
1A
102
}
100
AcDbPlotSettings
  1

  2
none_device
  4

  6

 40
0.0
 41
0.0
 42
0.0
 43
0.0
 44
210.0
 45
297.0
 46
0.0
 47
0.0
 48
0.0
 49
0.0
140
0.0
141
0.0
142
1.0
143
1.0
 70
1024
 72
1
 73
0
 74
0
  7

 75
0
147
1.0
148
0.0
149
0.0
100
AcDbLayout
  1
Model
 70
0
 71
0
 10
0.0
 20
0.0
 11
210.0
 21
297.0
 12
0.0
 22
0.0
 32
0.0
 14
0.0
 24
0.0
 34
0.0
 15
0.0
 25
0.0
 35
0.0
146
0.0
 13
0.0
 23
0.0
 33
0.0
 16
1.0
 26
0.0
 36
0.0
 17
0.0
 27
1.0
 37
0.0
 76
0
330
210
345
0
346
0
  0
LAYOUT
  5
277
102
{ACAD_REACTORS
330
1A
102
}
100
AcDbPlotSettings
  1

  2
none_device
  4

  6

 40
0.0
 41
0.0
 42
0.0
 43
0.0
 44
210.0
 45
297.0
 46
0.0
 47
0.0
 48
0.0
 49
0.0
140
0.0
141
0.0
142
1.0
143
1.0
 70
0
 72
1
 73
0
 74
0
  7

 75
0
147
1.0
148
0.0
149
0.0
100
AcDbLayout
  1
Layout1
 70
0
 71
1
 10
0.0
 20
0.0
 11
210.0
 21
297.0
 12
0.0
 22
0.0
 32
0.0
 14
0.0
 24
0.0
 34
0.0
 15
0.0
 25
0.0
 35
0.0
146
0.0
 13
0.0
 23
0.0
 33
0.0
 16
1.0
 26
0.0
 36
0.0
 17
0.0
 27
1.0
 37
0.0
 76
0
330
211
345
0
346
0
  0
ENDSEC
  0
EOF
