999
DXF file: C:\Users\sesa63760\Dev\_Creo\CAD\MCADID0001186_3D-CAD\drw0001_6.dxf
999
Pro/ENGINEER 2019471 by Parametric Technology Corporation
  0
SECTION
  2
HEADER
  9
$ACADVER
  1
AC1024
  9
$DWGCODEPAGE
  3
ANSI_1252
  9
$EXTMAX
 10
71.3202109067
 20
100.8671554252
 30
0.0
  9
$EXTMIN
 10
0.0
 20
0.0
 30
0.0
  9
$LIMMIN
 10
0.0
 20
0.0
  9
$LIMMAX
 10
71.3202109067
 20
100.8671554252
  9
$VIEWCTR
 10
35.6601054534
 20
50.4335777126
  9
$VIEWSIZE
 40
100.8671554252
  9
$CLAYER
  8
0
  9
$LTSCALE
 40
6.5750442055
  9
$CELTYPE
  6
BYLAYER
  9
$DIMSCALE
 40
1.0
  9
$DIMASZ
 40
0.8490501298
  9
$DIMEXO
 40
1.0
  9
$DIMDLI
 40
4.5427578147
  9
$DIMEXE
 40
1.0
  9
$DIMCEN
 40
1.0759163245
  9
$DIMLFAC
 40
1.0
  9
$DIMBLK
  1
_FILLED
  9
$DIMALT
 70
0
  9
$DIMALTF
 40
0.0393700787
  9
$DIMTXT
 40
1.1886701818
  9
$DIMTOL
 70
1
  9
$DIMLIM
 70
0
  9
$DIMTFAC
 40
1.0
  9
$DIMTP
 40
0.01
  9
$DIMTM
 40
0.01
  9
$DIMGAP
 40
0.625
  9
$DIMDSEP
 70
46
  9
$AUNITS
 70
0
  9
$PDMODE
 70
3
  9
$PDSIZE
 40
0.3125
  9
$HANDSEED
  5
28B
  9
$TILEMODE
 70
1
  9
$MEASUREMENT
 70
1
  9
$INSUNITS
 70
4
  0
ENDSEC
  0
SECTION
  2
CLASSES
  0
CLASS
  1
ACDBDICTIONARYWDFLT
  2
AcDbDictionaryWithDefault
  3
AutoCAD 2000
 90
0
 91
1
280
0
281
0
  0
CLASS
  1
ACDBPLACEHOLDER
  2
AcDbPlaceHolder
  3
AutoCAD 2000
 90
0
 91
1
280
0
281
0
  0
CLASS
  1
LAYOUT
  2
AcDbLayout
  3
AutoCAD 2000
 90
0
 91
0
280
0
281
0
  0
ENDSEC
  0
SECTION
  2
TABLES
  0
TABLE
  2
VPORT
  5
8
100
AcDbSymbolTable
 70
2
  0
VPORT
  5
1F4
100
AcDbSymbolTableRecord
100
AcDbViewportTableRecord
  2
*ACTIVE
 70
0
 10
0.0
 20
0.0
 11
1.0
 21
1.0
 12
35.6601054534
 22
50.4335777126
 13
0.0
 23
0.0
 14
1.0
 24
1.0
 15
0.0
 25
0.0
 16
0.0
 26
0.0
 36
1.0
 17
0.0
 27
0.0
 37
0.0
 40
100.8671554252
 41
0.7070707071
 42
50.0
 43
0.0
 44
0.0
 50
0.0
 51
0.0
 71
0
 72
100
 73
1
 74
1
 75
0
 76
0
 77
0
 78
0
  0
ENDTAB
  0
TABLE
  2
LTYPE
  5
5
100
AcDbSymbolTable
 70
6
  0
LTYPE
  5
14
100
AcDbSymbolTableRecord
100
AcDbLinetypeTableRecord
  2
BYBLOCK
 70
0
  3

 72
65
 73
0
 40
0.0
  0
LTYPE
  5
15
100
AcDbSymbolTableRecord
100
AcDbLinetypeTableRecord
  2
BYLAYER
 70
0
  3

 72
65
 73
0
 40
0.0
  0
LTYPE
  5
16
100
AcDbSymbolTableRecord
100
AcDbLinetypeTableRecord
  2
CONTINUOUS
 70
64
  3
Solid line
 72
65
 73
0
 40
0.0
  0
LTYPE
  5
1F5
100
AcDbSymbolTableRecord
100
AcDbLinetypeTableRecord
  2
CENTER
 70
64
  3
____ _ ____ _ ____ _ ____ _ ____ _ ____ _ ____
 72
65
 73
4
 40
0.6
 49
0.375
 74
0
 49
-0.075
 74
0
 49
0.075
 74
0
 49
-0.075
 74
0
  0
LTYPE
  5
1F6
100
AcDbSymbolTableRecord
100
AcDbLinetypeTableRecord
  2
HIDDEN
 70
64
  3
- - - - - - - - - - - - - - - - - - - -
 72
65
 73
2
 40
0.2
 49
0.1
 74
0
 49
-0.1
 74
0
  0
LTYPE
  5
1F7
100
AcDbSymbolTableRecord
100
AcDbLinetypeTableRecord
  2
PHANTOM
 70
64
  3
_____ _ _ _____ _ _ _____ _ _ _____
 72
65
 73
6
 40
0.8
 49
0.45
 74
0
 49
-0.05
 74
0
 49
0.1
 74
0
 49
-0.05
 74
0
 49
0.1
 74
0
 49
-0.05
 74
0
  0
LTYPE
  5
1F8
100
AcDbSymbolTableRecord
100
AcDbLinetypeTableRecord
  2
DOT
 70
64
  3
. . . . . . . . . . . . . . . . . . . .
 72
65
 73
2
 40
0.2
 49
0.1
 74
0
 49
-0.1
 74
0
  0
LTYPE
  5
1F9
100
AcDbSymbolTableRecord
100
AcDbLinetypeTableRecord
  2
DASHED
 70
64
  3
- - - - - - - - - - - - - - - - - - - -
 72
65
 73
2
 40
0.2
 49
0.1
 74
0
 49
-0.1
 74
0
  0
ENDTAB
  0
TABLE
  2
LAYER
  5
2
100
AcDbSymbolTable
 70
36
  0
LAYER
  5
10
100
AcDbSymbolTableRecord
100
AcDbLayerTableRecord
  2
0
 70
0
 62
7
  6
CONTINUOUS
370
-3
390
F
  0
LAYER
  5
1FA
100
AcDbSymbolTableRecord
100
AcDbLayerTableRecord
  2
DEFAULT_1
 70
0
 62
7
  6
CENTER
370
-3
390
F
  0
LAYER
  5
1FB
100
AcDbSymbolTableRecord
100
AcDbLayerTableRecord
  2
DEFAULT_2
 70
0
 62
8
  6
HIDDEN
370
-3
390
F
  0
LAYER
  5
1FC
100
AcDbSymbolTableRecord
100
AcDbLayerTableRecord
  2
DEFAULT_3
 70
0
 62
7
  6
PHANTOM
370
-3
390
F
  0
LAYER
  5
1FD
100
AcDbSymbolTableRecord
100
AcDbLayerTableRecord
  2
00_COMPONENTS
 70
0
 62
7
  6
CONTINUOUS
370
-3
390
F
  0
LAYER
  5
1FE
100
AcDbSymbolTableRecord
100
AcDbLayerTableRecord
  2
01_1_DEFAULT_DATUMS
 70
0
 62
7
  6
CONTINUOUS
370
-3
390
F
  0
LAYER
  5
1FF
100
AcDbSymbolTableRecord
100
AcDbLayerTableRecord
  2
01_PLANES
 70
0
 62
7
  6
CONTINUOUS
370
-3
390
F
  0
LAYER
  5
200
100
AcDbSymbolTableRecord
100
AcDbLayerTableRecord
  2
02_COORD_SYS
 70
0
 62
7
  6
CONTINUOUS
370
-3
390
F
  0
LAYER
  5
201
100
AcDbSymbolTableRecord
100
AcDbLayerTableRecord
  2
03_AXES
 70
0
 62
7
  6
CONTINUOUS
370
-3
390
F
  0
LAYER
  5
202
100
AcDbSymbolTableRecord
100
AcDbLayerTableRecord
  2
04_POINTS
 70
0
 62
7
  6
CONTINUOUS
370
-3
390
F
  0
LAYER
  5
203
100
AcDbSymbolTableRecord
100
AcDbLayerTableRecord
  2
05_CURVES
 70
0
 62
7
  6
CONTINUOUS
370
-3
390
F
  0
LAYER
  5
204
100
AcDbSymbolTableRecord
100
AcDbLayerTableRecord
  2
06_SURFS
 70
0
 62
7
  6
CONTINUOUS
370
-3
390
F
  0
LAYER
  5
205
100
AcDbSymbolTableRecord
100
AcDbLayerTableRecord
  2
07_COSMETICS
 70
0
 62
7
  6
CONTINUOUS
370
-3
390
F
  0
LAYER
  5
206
100
AcDbSymbolTableRecord
100
AcDbLayerTableRecord
  2
10_NOTES
 70
0
 62
7
  6
CONTINUOUS
370
-3
390
F
  0
LAYER
  5
207
100
AcDbSymbolTableRecord
100
AcDbLayerTableRecord
  2
11_NOTES_PUB
 70
0
 62
7
  6
CONTINUOUS
370
-3
390
F
  0
LAYER
  5
208
100
AcDbSymbolTableRecord
100
AcDbLayerTableRecord
  2
13_REF_GTOL
 70
0
 62
7
  6
CONTINUOUS
370
-3
390
F
  0
LAYER
  5
209
100
AcDbSymbolTableRecord
100
AcDbLayerTableRecord
  2
16_MISC
 70
0
 62
7
  6
CONTINUOUS
370
-3
390
F
  0
LAYER
  5
20A
100
AcDbSymbolTableRecord
100
AcDbLayerTableRecord
  2
17_NO_PRINT
 70
0
 62
7
  6
CONTINUOUS
370
-3
390
F
  0
LAYER
  5
20B
100
AcDbSymbolTableRecord
100
AcDbLayerTableRecord
  2
18_DATUM_CAMS_JOINTS
 70
0
 62
7
  6
CONTINUOUS
370
-3
390
F
  0
LAYER
  5
20C
100
AcDbSymbolTableRecord
100
AcDbLayerTableRecord
  2
19_DATUM_FUNCTIONAL
 70
0
 62
7
  6
CONTINUOUS
370
-3
390
F
  0
LAYER
  5
20D
100
AcDbSymbolTableRecord
100
AcDbLayerTableRecord
  2
20_DATUM_KINEMATIC_SCHEME
 70
0
 62
7
  6
CONTINUOUS
370
-3
390
F
  0
LAYER
  5
20E
100
AcDbSymbolTableRecord
100
AcDbLayerTableRecord
  2
_1
 70
0
 62
7
  6
CONTINUOUS
370
-3
390
F
  0
ENDTAB
  0
TABLE
  2
STYLE
  5
3
100
AcDbSymbolTable
 70
1
  0
STYLE
  5
11
100
AcDbSymbolTableRecord
100
AcDbTextStyleTableRecord
  2
STANDARD
 70
0
 40
0.0
 41
0.8
 50
0.0
 71
0
 42
0.2
  3
txt
  4

  0
STYLE
  5
20F
100
AcDbSymbolTableRecord
100
AcDbTextStyleTableRecord
  2
TEXTSTYLE_1
 70
0
 40
0.0
 41
0.8
 50
0.0
 71
0
 42
0.2
  3
gdt
  4

  0
ENDTAB
  0
TABLE
  2
VIEW
  5
6
100
AcDbSymbolTable
 70
0
  0
ENDTAB
  0
TABLE
  2
UCS
  5
7
100
AcDbSymbolTable
 70
0
  0
ENDTAB
  0
TABLE
  2
APPID
  5
9
100
AcDbSymbolTable
 70
1
  0
APPID
  5
210
100
AcDbSymbolTableRecord
100
AcDbRegAppTableRecord
  2
ACAD
 70
0
  0
ENDTAB
  0
TABLE
  2
BLOCK_RECORD
  5
1
100
AcDbSymbolTable
 70
0
  0
BLOCK_RECORD
  5
211
100
AcDbSymbolTableRecord
100
AcDbBlockTableRecord
  2
*Model_Space
  0
BLOCK_RECORD
  5
212
100
AcDbSymbolTableRecord
100
AcDbBlockTableRecord
  2
*Paper_Space
  0
BLOCK_RECORD
  5
213
100
AcDbSymbolTableRecord
100
AcDbBlockTableRecord
  2
_FILLED
  0
ENDTAB
  0
TABLE
  2
DIMSTYLE
  5
A
100
AcDbSymbolTable
 70
1
100
AcDbDimStyleTable
 71
0
  0
DIMSTYLE
105
214
100
AcDbSymbolTableRecord
100
AcDbDimStyleTableRecord
  2
STANDARD
 70
0
  3

  4

 40
1.0
 41
0.8490501298
 42
1.0
 43
0.38
 44
1.0
 45
0.0
 46
0.0
 47
0.01
 48
0.01
140
1.1886701818
141
0.09
142
0.0
143
25.4
144
1.0
145
0.0
146
1.0
147
0.625
 71
1
 72
0
 73
0
 74
0
 75
0
 76
0
 77
1
 78
8
 79
2
170
0
171
1
172
0
173
0
174
0
175
0
176
0
177
0
178
0
270
2
179
2
271
2
272
2
273
2
274
2
275
0
280
0
281
0
282
0
283
1
284
8
285
0
286
0
287
3
288
0
340
11
278
46
341
213
342
213
343
213
344
213
  0
ENDTAB
  0
ENDSEC
  0
SECTION
  2
BLOCKS
  0
BLOCK
  5
20
100
AcDbEntity
  8
0
100
AcDbBlockBegin
  2
*Model_Space
 70
0
 10
0.0
 20
0.0
 30
0.0
  3
*Model_Space
  1

  0
ENDBLK
  5
21
100
AcDbEntity
  8
0
100
AcDbBlockEnd
  0
BLOCK
  5
1C
100
AcDbEntity
  8
0
100
AcDbBlockBegin
  2
*Paper_Space
 70
0
 10
0.0
 20
0.0
 30
0.0
  3
*Paper_Space
  1

  0
ENDBLK
  5
1D
100
AcDbEntity
  8
0
100
AcDbBlockEnd
  0
BLOCK
  5
215
100
AcDbEntity
  8
0
100
AcDbBlockBegin
  2
_FILLED
 70
64
 10
0.0
 20
0.0
  3
_FILLED
  1

  0
SOLID
  5
216
100
AcDbEntity
  8
0
  6
BYBLOCK
 62
0
100
AcDbTrace
 10
0.0
 20
0.0
 11
-1.0
 21
0.25
 12
-1.0
 22
-0.25
 13
-1.0
 23
-0.25
  0
ENDBLK
  5
217
100
AcDbEntity
  8
0
  6
BYBLOCK
 62
0
100
AcDbBlockEnd
  0
ENDSEC
  0
SECTION
  2
ENTITIES
  0
LWPOLYLINE
  5
218
100
AcDbEntity
  8
_1
100
AcDbPolyline
 62
7
  6
CONTINUOUS
 90
7
 70
0
 10
22.4147100743
 20
91.856683528
 10
22.2999443837
 20
91.8196507483
 10
22.2026861371
 20
91.6944082133
 10
22.1633249977
 20
91.5662022177
 10
22.1297625487
 20
91.3867667077
 10
22.0968582588
 20
91.1355199569
 10
22.0644549576
 20
90.8022192359
  0
LINE
  5
219
100
AcDbEntity
  8
_1
100
AcDbLine
 62
7
  6
CONTINUOUS
 10
22.4152465569
 20
8.7104402925
 11
36.8070478498
 21
8.3335777126
  0
LINE
  5
21A
100
AcDbEntity
  8
_1
100
AcDbLine
 62
7
  6
CONTINUOUS
 10
22.4142591006
 20
8.7104946659
 11
22.415247239
 21
8.7104663395
  0
LINE
  5
21B
100
AcDbEntity
  8
_1
100
AcDbLine
 62
7
  6
CONTINUOUS
 10
22.3003824351
 20
8.7473628854
 11
22.4143175067
 21
8.7104835961
  0
LWPOLYLINE
  5
21C
100
AcDbEntity
  8
_1
100
AcDbPolyline
 62
7
  6
CONTINUOUS
 90
7
 70
0
 10
22.3003819755
 20
91.8197919511
 10
22.202914118
 20
91.694953289
 10
22.1635378494
 20
91.5671147024
 10
22.13000945
 20
91.3883543897
 10
22.0971437183
 20
91.1380564459
 10
22.0647710903
 20
90.8059407344
 10
22.0486901574
 20
90.6029305402
  0
LINE
  5
21D
100
AcDbEntity
  8
_1
100
AcDbLine
 62
7
  6
CONTINUOUS
 10
36.8070478498
 20
13.3335777127
 11
21.94731459
 21
13.3335777136
  0
LWPOLYLINE
  5
21E
100
AcDbEntity
  8
_1
100
AcDbPolyline
 62
7
  6
CONTINUOUS
 90
7
 70
0
 10
22.0486901574
 20
90.6029305402
 10
22.0187591271
 20
90.1374490408
 10
21.9921307469
 20
89.583672276
 10
21.9703625474
 20
88.9469685281
 10
21.9550605565
 20
88.2379254792
 10
21.9477494087
 20
87.4717590082
 10
21.9473163672
 20
87.2335777017
  0
LWPOLYLINE
  5
21F
100
AcDbEntity
  8
_1
100
AcDbPolyline
 62
7
  6
CONTINUOUS
 90
7
 70
0
 10
22.0490163075
 20
90.6073391873
 10
22.0190910166
 20
90.1433703432
 10
21.9924429558
 20
89.5912603724
 10
21.9706232447
 20
88.9563132058
 10
21.9552340186
 20
88.2489989379
 10
21.947796039
 20
87.484332571
 10
21.9473303179
 20
87.2412508597
  0
LWPOLYLINE
  5
220
100
AcDbEntity
  8
_1
100
AcDbPolyline
 62
7
  6
CONTINUOUS
 90
14
 70
0
 10
21.9473156169
 20
13.3335777216
 10
21.947796039
 20
13.0828228526
 10
21.9552340186
 20
12.3181564859
 10
21.9706232447
 20
11.6108422183
 10
21.9924429558
 20
10.9758950519
 10
22.0190910167
 20
10.4237850813
 10
22.0490163076
 20
9.9598162374
 10
22.0647710903
 20
9.7612146905
 10
22.0971437183
 20
9.429098979
 10
22.1300094501
 20
9.1788010353
 10
22.1635378494
 20
9.0000407228
 10
22.202914118
 20
8.8722021362
 10
22.3006197588
 20
8.7470589168
 10
22.4142591006
 20
8.7104946659
  0
LINE
  5
221
100
AcDbEntity
  8
_1
100
AcDbLine
 62
7
  6
CONTINUOUS
 10
21.9473143061
 20
87.2335777086
 11
21.9473143061
 21
13.3335777136
  0
LINE
  5
222
100
AcDbEntity
  8
_1
100
AcDbLine
 62
7
  6
CONTINUOUS
 10
22.1420789165
 20
13.3335777124
 11
22.1420789165
 21
87.2335777108
  0
LINE
  5
223
100
AcDbEntity
  8
_1
100
AcDbLine
 62
7
  6
CONTINUOUS
 10
26.8070478498
 20
63.2835777126
 11
26.8070478498
 21
77.2835777126
  0
LINE
  5
224
100
AcDbEntity
  8
_1
100
AcDbLine
 62
7
  6
CONTINUOUS
 10
27.3070478498
 20
92.5335777126
 11
27.3070478498
 21
91.9848114079
  0
LINE
  5
225
100
AcDbEntity
  8
_1
100
AcDbLine
 62
7
  6
CONTINUOUS
 10
27.8070478498
 20
77.2835777126
 11
27.8070478498
 21
63.2835777126
  0
LINE
  5
226
100
AcDbEntity
  8
_1
100
AcDbLine
 62
7
  6
CONTINUOUS
 10
28.3070478498
 20
92.0109974291
 11
28.3070478498
 21
92.5335777126
  0
LINE
  5
227
100
AcDbEntity
  8
_1
100
AcDbLine
 62
7
  6
CONTINUOUS
 10
28.8070478498
 20
65.2835777126
 11
28.8070478498
 21
75.2835777126
  0
LINE
  5
228
100
AcDbEntity
  8
_1
100
AcDbLine
 62
7
  6
CONTINUOUS
 10
29.3070478498
 20
92.5335777126
 11
29.3070478498
 21
92.0371832511
  0
LINE
  5
229
100
AcDbEntity
  8
_1
100
AcDbLine
 62
7
  6
CONTINUOUS
 10
29.8070478498
 20
75.2835777126
 11
29.8070478498
 21
65.2835777126
  0
LINE
  5
22A
100
AcDbEntity
  8
_1
100
AcDbLine
 62
7
  6
CONTINUOUS
 10
30.3070478498
 20
92.0633692722
 11
30.3070478498
 21
92.5335777126
  0
LINE
  5
22B
100
AcDbEntity
  8
_1
100
AcDbLine
 62
7
  6
CONTINUOUS
 10
38.1105383311
 20
43.7513302236
 11
36.8070478498
 21
43.7285777126
  0
LINE
  5
22C
100
AcDbEntity
  8
_1
100
AcDbLine
 62
7
  6
CONTINUOUS
 10
36.8070478498
 20
43.9285472516
 11
38.1105380654
 21
43.951299758
  0
LINE
  5
22D
100
AcDbEntity
  8
_1
100
AcDbLine
 62
7
  6
CONTINUOUS
 10
38.3070478498
 20
43.9512997626
 11
38.1105381982
 21
43.9512997626
  0
LINE
  5
22E
100
AcDbEntity
  8
_1
100
AcDbLine
 62
7
  6
CONTINUOUS
 10
30.8070478498
 20
67.2835777126
 11
30.8070478498
 21
73.2835777126
  0
LINE
  5
22F
100
AcDbEntity
  8
_1
100
AcDbLine
 62
7
  6
CONTINUOUS
 10
31.3070478498
 20
92.5335777126
 11
31.3070478498
 21
92.0895550942
  0
LINE
  5
230
100
AcDbEntity
  8
_1
100
AcDbLine
 62
7
  6
CONTINUOUS
 10
31.8070478498
 20
73.2835777126
 11
31.8070478498
 21
67.2835777126
  0
LINE
  5
231
100
AcDbEntity
  8
_1
100
AcDbLine
 62
7
  6
CONTINUOUS
 10
32.3070478498
 20
92.1157411153
 11
32.3070478498
 21
92.5335777126
  0
LINE
  5
232
100
AcDbEntity
  8
_1
100
AcDbLine
 62
7
  6
CONTINUOUS
 10
38.1105383311
 20
45.2513302236
 11
36.8070478498
 21
45.2285777126
  0
LINE
  5
233
100
AcDbEntity
  8
_1
100
AcDbLine
 62
7
  6
CONTINUOUS
 10
36.8070478498
 20
45.4285472516
 11
38.1105380654
 21
45.451299758
  0
LINE
  5
234
100
AcDbEntity
  8
_1
100
AcDbLine
 62
7
  6
CONTINUOUS
 10
38.3070478498
 20
45.4512997626
 11
38.1105380654
 21
45.4512997626
  0
LINE
  5
235
100
AcDbEntity
  8
_1
100
AcDbLine
 62
7
  6
CONTINUOUS
 10
49.7570478498
 20
45.4885777126
 11
49.1070478498
 21
45.4885777126
  0
LINE
  5
236
100
AcDbEntity
  8
_1
100
AcDbLine
 62
7
  6
CONTINUOUS
 10
45.1070478498
 20
46.5585777126
 11
49.1070478498
 21
46.5585777126
  0
LINE
  5
237
100
AcDbEntity
  8
_1
100
AcDbLine
 62
7
  6
CONTINUOUS
 10
38.3070478498
 20
46.5885777126
 11
45.0070478498
 21
46.5885777126
  0
LINE
  5
238
100
AcDbEntity
  8
_1
100
AcDbLine
 62
7
  6
CONTINUOUS
 10
50.6070478498
 20
46.7527912755
 11
50.1070478498
 21
46.7527912755
  0
LINE
  5
239
100
AcDbEntity
  8
_1
100
AcDbLine
 62
7
  6
CONTINUOUS
 10
45.0070478498
 20
46.8585777126
 11
45.1070478498
 21
46.8585777126
  0
LINE
  5
23A
100
AcDbEntity
  8
_1
100
AcDbLine
 62
7
  6
CONTINUOUS
 10
45.0070478498
 20
47.0385777126
 11
38.3070478498
 21
47.0385777126
  0
LINE
  5
23B
100
AcDbEntity
  8
_1
100
AcDbLine
 62
7
  6
CONTINUOUS
 10
48.3070474539
 20
47.0585777855
 11
45.1070478498
 21
47.0585777125
  0
LINE
  5
23C
100
AcDbEntity
  8
_1
100
AcDbLine
 62
7
  6
CONTINUOUS
 10
45.1070478498
 20
47.3585777126
 11
45.0070478498
 21
47.3585777126
  0
LINE
  5
23D
100
AcDbEntity
  8
_1
100
AcDbLine
 62
7
  6
CONTINUOUS
 10
49.1007732431
 20
47.5585777126
 11
49.1070478498
 21
47.5585777126
  0
LINE
  5
23E
100
AcDbEntity
  8
_1
100
AcDbLine
 62
7
  6
CONTINUOUS
 10
50.6070478498
 20
48.0585777126
 11
48.3070478498
 21
48.0585777126
  0
LINE
  5
23F
100
AcDbEntity
  8
_1
100
AcDbLine
 62
7
  6
CONTINUOUS
 10
41.6070478498
 20
48.0885777126
 11
39.4570478498
 21
48.0885777126
  0
LINE
  5
240
100
AcDbEntity
  8
_1
100
AcDbLine
 62
7
  6
CONTINUOUS
 10
39.7270478498
 20
48.1935777126
 11
39.4570478498
 21
48.1935777126
  0
LINE
  5
241
100
AcDbEntity
  8
_1
100
AcDbLine
 62
7
  6
CONTINUOUS
 10
40.1803776598
 20
48.5885777126
 11
41.6070478498
 21
48.5885777126
  0
LINE
  5
242
100
AcDbEntity
  8
_1
100
AcDbLine
 62
7
  6
CONTINUOUS
 10
40.1803776599
 20
49.3885777126
 11
41.6070478498
 21
49.3885777126
  0
LINE
  5
243
100
AcDbEntity
  8
_1
100
AcDbLine
 62
7
  6
CONTINUOUS
 10
50.4070478498
 20
49.6585777126
 11
50.6070478498
 21
49.6585777126
  0
LINE
  5
244
100
AcDbEntity
  8
_1
100
AcDbLine
 62
7
  6
CONTINUOUS
 10
39.4570478498
 20
49.8885777126
 11
41.6070478498
 21
49.8885777126
  0
LINE
  5
245
100
AcDbEntity
  8
_1
100
AcDbLine
 62
7
  6
CONTINUOUS
 10
36.8070478498
 20
92.2335777126
 11
36.8070478498
 21
8.3335777126
  0
LINE
  5
246
100
AcDbEntity
  8
_1
100
AcDbLine
 62
7
  6
CONTINUOUS
 10
38.1105380654
 20
54.3058404356
 11
38.1105380654
 21
45.451299758
  0
LINE
  5
247
100
AcDbEntity
  8
_1
100
AcDbLine
 62
7
  6
CONTINUOUS
 10
38.1105383311
 20
45.2513302236
 11
38.1105380654
 21
43.951299758
  0
LINE
  5
248
100
AcDbEntity
  8
_1
100
AcDbLine
 62
7
  6
CONTINUOUS
 10
38.3070478498
 20
43.9512997626
 11
38.3070478498
 21
54.3058556626
  0
LINE
  5
249
100
AcDbEntity
  8
_1
100
AcDbLine
 62
7
  6
CONTINUOUS
 10
39.4570478498
 20
48.0885777126
 11
39.4570478498
 21
49.8885777126
  0
LINE
  5
24A
100
AcDbEntity
  8
_1
100
AcDbLine
 62
7
  6
CONTINUOUS
 10
45.0070478498
 20
51.4185777126
 11
38.3070478498
 21
51.4185777126
  0
LINE
  5
24B
100
AcDbEntity
  8
_1
100
AcDbLine
 62
7
  6
CONTINUOUS
 10
38.3070478498
 20
52.4085777126
 11
39.9770478498
 21
52.4085777126
  0
LINE
  5
24C
100
AcDbEntity
  8
_1
100
AcDbLine
 62
7
  6
CONTINUOUS
 10
41.9770478498
 20
52.4085777126
 11
45.1070478498
 21
52.4085777126
  0
LINE
  5
24D
100
AcDbEntity
  8
_1
100
AcDbLine
 62
7
  6
CONTINUOUS
 10
49.9070478498
 20
52.5085777126
 11
50.4070478498
 21
52.5085777126
  0
LINE
  5
24E
100
AcDbEntity
  8
_1
100
AcDbLine
 62
7
  6
CONTINUOUS
 10
45.1070478498
 20
52.7085777126
 11
49.7070478498
 21
52.7085777126
  0
LINE
  5
24F
100
AcDbEntity
  8
_1
100
AcDbLine
 62
7
  6
CONTINUOUS
 10
39.9770478498
 20
52.8668352821
 11
41.9770478498
 21
52.8668352821
  0
LINE
  5
250
100
AcDbEntity
  8
_1
100
AcDbLine
 62
7
  6
CONTINUOUS
 10
45.1070478498
 20
52.9085777126
 11
38.3070478498
 21
52.9085777126
  0
LINE
  5
251
100
AcDbEntity
  8
_1
100
AcDbLine
 62
7
  6
CONTINUOUS
 10
49.7070478498
 20
53.2085777126
 11
45.1070478498
 21
53.2085777126
  0
LINE
  5
252
100
AcDbEntity
  8
_1
100
AcDbLine
 62
7
  6
CONTINUOUS
 10
39.7270478498
 20
48.1935777126
 11
39.7270478498
 21
49.8885777126
  0
LINE
  5
253
100
AcDbEntity
  8
_1
100
AcDbLine
 62
7
  6
CONTINUOUS
 10
39.9770478498
 20
48.0885777126
 11
39.9770478498
 21
49.8885777126
  0
LINE
  5
254
100
AcDbEntity
  8
_1
100
AcDbLine
 62
7
  6
CONTINUOUS
 10
39.9770478498
 20
51.4185777126
 11
39.9770478498
 21
52.8668352821
  0
LINE
  5
255
100
AcDbEntity
  8
_1
100
AcDbLine
 62
7
  6
CONTINUOUS
 10
39.9901663566
 20
49.1885777126
 11
39.9901663566
 21
48.7885777126
  0
LINE
  5
256
100
AcDbEntity
  8
_1
100
AcDbLine
 62
7
  6
CONTINUOUS
 10
40.6525393526
 20
49.3885777126
 11
40.6525393526
 21
48.5885777126
  0
LINE
  5
257
100
AcDbEntity
  8
_1
100
AcDbLine
 62
7
  6
CONTINUOUS
 10
40.8070478498
 20
48.5885777126
 11
40.8070478498
 21
49.3885777126
  0
LINE
  5
258
100
AcDbEntity
  8
_1
100
AcDbLine
 62
7
  6
CONTINUOUS
 10
41.8070478498
 20
49.6885777126
 11
41.8070478498
 21
49.5885777126
  0
LINE
  5
259
100
AcDbEntity
  8
_1
100
AcDbLine
 62
7
  6
CONTINUOUS
 10
41.9770478498
 20
51.4185777126
 11
41.9770478498
 21
52.8668352821
  0
LINE
  5
25A
100
AcDbEntity
  8
_1
100
AcDbLine
 62
7
  6
CONTINUOUS
 10
38.1105380654
 20
54.3058556626
 11
38.3070478498
 21
54.3058556626
  0
LINE
  5
25B
100
AcDbEntity
  8
_1
100
AcDbLine
 62
7
  6
CONTINUOUS
 10
38.1105380654
 20
54.3058404356
 11
36.8070478498
 21
54.3286081736
  0
LINE
  5
25C
100
AcDbEntity
  8
_1
100
AcDbLine
 62
7
  6
CONTINUOUS
 10
36.8070478498
 20
54.5285777126
 11
38.1105383311
 21
54.5058252016
  0
LINE
  5
25D
100
AcDbEntity
  8
_1
100
AcDbLine
 62
7
  6
CONTINUOUS
 10
45.0070478498
 20
46.5885777126
 11
45.0070478498
 21
51.4185777126
  0
LINE
  5
25E
100
AcDbEntity
  8
_1
100
AcDbLine
 62
7
  6
CONTINUOUS
 10
45.1070478498
 20
46.5585777126
 11
45.1070478498
 21
53.2085777126
  0
LINE
  5
25F
100
AcDbEntity
  8
_1
100
AcDbLine
 62
7
  6
CONTINUOUS
 10
49.9606012419
 20
46.3992378859
 11
50.3141546325
 21
46.0456844954
  0
LINE
  5
260
100
AcDbEntity
  8
_1
100
AcDbLine
 62
7
  6
CONTINUOUS
 10
48.3070478441
 20
48.0585777126
 11
48.307048432
 21
46.5585777126
  0
LINE
  5
261
100
AcDbEntity
  8
_1
100
AcDbLine
 62
7
  6
CONTINUOUS
 10
49.1007732431
 20
47.5585777126
 11
49.1007732431
 21
48.0585777126
  0
LINE
  5
262
100
AcDbEntity
  8
_1
100
AcDbLine
 62
7
  6
CONTINUOUS
 10
49.1070478498
 20
45.4885777126
 11
49.1070478498
 21
46.5585777126
  0
LINE
  5
263
100
AcDbEntity
  8
_1
100
AcDbLine
 62
7
  6
CONTINUOUS
 10
49.1070478498
 20
47.3585777126
 11
49.1070478498
 21
48.0585777126
  0
LINE
  5
264
100
AcDbEntity
  8
_1
100
AcDbLine
 62
7
  6
CONTINUOUS
 10
49.7070478498
 20
53.2085777126
 11
49.7070478498
 21
52.7085777126
  0
LINE
  5
265
100
AcDbEntity
  8
_1
100
AcDbLine
 62
7
  6
CONTINUOUS
 10
49.9070478498
 20
52.5085777126
 11
49.9070478498
 21
48.0585777126
  0
LINE
  5
266
100
AcDbEntity
  8
_1
100
AcDbLine
 62
7
  6
CONTINUOUS
 10
50.1070478638
 20
48.0585777126
 11
50.1070479482
 21
46.7527884983
  0
LINE
  5
267
100
AcDbEntity
  8
_1
100
AcDbLine
 62
7
  6
CONTINUOUS
 10
50.4070478498
 20
48.0585777126
 11
50.4070478498
 21
52.5085777126
  0
LINE
  5
268
100
AcDbEntity
  8
_1
100
AcDbLine
 62
7
  6
CONTINUOUS
 10
50.6070478498
 20
46.7527912754
 11
50.6070478498
 21
49.6585777126
  0
LINE
  5
269
100
AcDbEntity
  8
_1
100
AcDbLine
 62
7
  6
CONTINUOUS
 10
49.1070478498
 20
45.5456844938
 11
49.960602397
 21
46.3992388422
  0
LINE
  5
26A
100
AcDbEntity
  8
_1
100
AcDbLine
 62
7
  6
CONTINUOUS
 10
49.7570478498
 20
45.4885777126
 11
50.3141546315
 21
46.0456844943
  0
LINE
  5
26B
100
AcDbEntity
  8
_1
100
AcDbLine
 62
7
  6
CONTINUOUS
 10
21.9473145069
 20
87.2335777086
 11
36.8070478498
 21
87.233577712
  0
LINE
  5
26C
100
AcDbEntity
  8
_1
100
AcDbLine
 62
7
  6
CONTINUOUS
 10
36.8070478498
 20
92.2335777126
 11
22.4152485151
 21
91.856715184
  0
LINE
  5
26D
100
AcDbEntity
  8
_1
100
AcDbLine
 62
7
  6
CONTINUOUS
 10
27.3070478498
 20
92.5335777126
 11
28.3070478498
 21
92.5335777126
  0
LINE
  5
26E
100
AcDbEntity
  8
_1
100
AcDbLine
 62
7
  6
CONTINUOUS
 10
29.3070478498
 20
92.5335777126
 11
30.3070478498
 21
92.5335777126
  0
LINE
  5
26F
100
AcDbEntity
  8
_1
100
AcDbLine
 62
7
  6
CONTINUOUS
 10
31.3070478498
 20
92.5335777126
 11
32.3070478498
 21
92.5335777126
  0
ARC
  5
270
100
AcDbEntity
  8
_1
100
AcDbCircle
 62
7
  6
CONTINUOUS
 10
49.6070478498
 20
46.752791275
 40
1.0
100
AcDbArc
 50
315.0000000258
 51
360.0
  0
ARC
  5
271
100
AcDbEntity
  8
_1
100
AcDbCircle
 62
7
  6
CONTINUOUS
 10
48.3070478498
 20
47.3585777126
 40
0.8
100
AcDbArc
 50
270.0
 51
360.0
  0
ARC
  5
272
100
AcDbEntity
  8
_1
100
AcDbCircle
 62
7
  6
CONTINUOUS
 10
49.7070478498
 20
52.5085777126
 40
0.7
100
AcDbArc
 50
0.0
 51
90.0000000028
  0
ARC
  5
273
100
AcDbEntity
  8
_1
100
AcDbCircle
 62
7
  6
CONTINUOUS
 10
49.6070478498
 20
46.752791275
 40
0.5000002531
100
AcDbArc
 50
315.0001713334
 51
359.9996818122
  0
ARC
  5
274
100
AcDbEntity
  8
_1
100
AcDbCircle
 62
7
  6
CONTINUOUS
 10
29.3070478498
 20
75.2835777126
 40
0.5
100
AcDbArc
 50
0.0
 51
180.0
  0
ARC
  5
275
100
AcDbEntity
  8
_1
100
AcDbCircle
 62
7
  6
CONTINUOUS
 10
29.3070478498
 20
65.2835777126
 40
0.5
100
AcDbArc
 50
180.0
 51
360.0
  0
ARC
  5
276
100
AcDbEntity
  8
_1
100
AcDbCircle
 62
7
  6
CONTINUOUS
 10
31.3070478498
 20
67.2835777126
 40
0.5
100
AcDbArc
 50
180.0
 51
360.0
  0
ARC
  5
277
100
AcDbEntity
  8
_1
100
AcDbCircle
 62
7
  6
CONTINUOUS
 10
31.3070478498
 20
73.2835777126
 40
0.5
100
AcDbArc
 50
0.0
 51
180.0
  0
ARC
  5
278
100
AcDbEntity
  8
_1
100
AcDbCircle
 62
7
  6
CONTINUOUS
 10
27.3070478498
 20
63.2835777126
 40
0.5
100
AcDbArc
 50
180.0
 51
360.0
  0
ARC
  5
279
100
AcDbEntity
  8
_1
100
AcDbCircle
 62
7
  6
CONTINUOUS
 10
27.3070478498
 20
77.2835777126
 40
0.5
100
AcDbArc
 50
0.0
 51
180.0
  0
ARC
  5
27A
100
AcDbEntity
  8
_1
100
AcDbCircle
 62
7
  6
CONTINUOUS
 10
41.6070478498
 20
48.3385777126
 40
0.25
100
AcDbArc
 50
270.0
 51
90.0
  0
ARC
  5
27B
100
AcDbEntity
  8
_1
100
AcDbCircle
 62
7
  6
CONTINUOUS
 10
41.6070478498
 20
49.5885777126
 40
0.2
100
AcDbArc
 50
270.0
 51
360.0
  0
ARC
  5
27C
100
AcDbEntity
  8
_1
100
AcDbCircle
 62
7
  6
CONTINUOUS
 10
41.6070478498
 20
49.6885777126
 40
0.2
100
AcDbArc
 50
0.0
 51
90.0
  0
ARC
  5
27D
100
AcDbEntity
  8
_1
100
AcDbCircle
 62
7
  6
CONTINUOUS
 10
49.7070478498
 20
52.5085777126
 40
0.2
100
AcDbArc
 50
0.0
 51
90.0
  0
ARC
  5
27E
100
AcDbEntity
  8
_1
100
AcDbCircle
 62
7
  6
CONTINUOUS
 10
38.1070478498
 20
45.4512997626
 40
0.2
100
AcDbArc
 50
270.9999999999
 51
360.0
  0
ARC
  5
27F
100
AcDbEntity
  8
_1
100
AcDbCircle
 62
7
  6
CONTINUOUS
 10
38.1070478498
 20
54.3058556626
 40
0.2
100
AcDbArc
 50
0.0
 51
89.0000000001
  0
ARC
  5
280
100
AcDbEntity
  8
_1
100
AcDbCircle
 62
7
  6
CONTINUOUS
 10
38.1070478498
 20
43.9512997626
 40
0.2
100
AcDbArc
 50
270.9999999999
 51
360.0
  0
SPLINE
  5
281
100
AcDbEntity
  8
_1
100
AcDbSpline
 62
7
  6
CONTINUOUS
 70
0
 71
3
 72
11
 73
7
 74
0
 42
0.0000001
 43
0.0000001
 44
0.0000000001
 40
0.0
 40
0.0
 40
0.0
 40
0.0
 40
0.2442150992
 40
0.491809968
 40
0.7441979607
 40
1.0
 40
1.0
 40
1.0
 40
1.0
 10
40.1803776598
 20
49.3885777126
 30
0.0
 10
40.1555857748
 20
49.3885777126
 30
0.0
 10
40.1050732079
 20
49.3779815449
 30
0.0
 10
40.0418769104
 20
49.3330779532
 30
0.0
 10
39.9998967754
 20
49.2666649544
 30
0.0
 10
39.9901663566
 20
49.2145458644
 30
0.0
 10
39.9901663566
 20
49.1885777126
 30
0.0
  0
SPLINE
  5
282
100
AcDbEntity
  8
_1
100
AcDbSpline
 62
7
  6
CONTINUOUS
 70
0
 71
3
 72
11
 73
7
 74
0
 42
0.0000001
 43
0.0000001
 44
0.0000000001
 40
0.0
 40
0.0
 40
0.0
 40
0.0
 40
0.2558022839
 40
0.5081903429
 40
0.7557851363
 40
1.0
 40
1.0
 40
1.0
 40
1.0
 10
39.9901663566
 20
48.7885777126
 30
0.0
 10
39.9901663566
 20
48.762609536
 30
0.0
 10
39.9998967911
 20
48.7104904128
 30
0.0
 10
40.0418769684
 20
48.6440774104
 30
0.0
 10
40.1050732649
 20
48.5991738627
 30
0.0
 10
40.1555857986
 20
48.5885777126
 30
0.0
 10
40.1803776598
 20
48.5885777126
 30
0.0
  0
SPLINE
  5
283
100
AcDbEntity
  8
_1
100
AcDbSpline
 62
7
  6
CONTINUOUS
 70
0
 71
3
 72
19
 73
15
 74
0
 42
0.0000001
 43
0.0000001
 44
0.0000000001
 40
0.0
 40
0.0
 40
0.0
 40
0.0
 40
0.1775452708
 40
0.347969141
 40
0.504924108
 40
0.6437831677
 40
0.7054770176
 40
0.761699341
 40
0.812481071
 40
0.8580040365
 40
0.8986329808
 40
0.9349664354
 40
0.968153473
 40
1.0
 40
1.0
 40
1.0
 40
1.0
 10
48.3070478498
 20
47.0585777855
 30
0.0
 10
48.3608234799
 20
47.0585846535
 30
0.0
 10
48.4662660408
 20
47.0625057553
 30
0.0
 10
48.6183407631
 20
47.0801507768
 30
0.0
 10
48.7569357352
 20
47.1081638352
 30
0.0
 10
48.8606010514
 20
47.140394146
 30
0.0
 10
48.9322488257
 20
47.1707974774
 30
0.0
 10
48.9777018968
 20
47.1942644473
 30
0.0
 10
49.0167270927
 20
47.2191336871
 30
0.0
 10
49.0490684899
 20
47.2452676842
 30
0.0
 10
49.0745783553
 20
47.2723936076
 30
0.0
 10
49.0931561812
 20
47.3003441121
 30
0.0
 10
49.1045269772
 20
47.3291450225
 30
0.0
 10
49.1070478498
 20
47.3489319076
 30
0.0
 10
49.1070478498
 20
47.3585777126
 30
0.0
  0
SPLINE
  5
284
100
AcDbEntity
  8
_1
100
AcDbSpline
 62
7
  6
CONTINUOUS
 70
0
 71
3
 72
18
 73
14
 74
0
 42
0.0000001
 43
0.0000001
 44
0.0000000001
 40
0.0
 40
0.0
 40
0.0
 40
0.0
 40
0.194588527
 40
0.3824831229
 40
0.5553439102
 40
0.7067332268
 40
0.8309633563
 40
0.8814416884
 40
0.9234433452
 40
0.956491061
 40
0.9803510998
 40
0.9948644184
 40
1.0
 40
1.0
 40
1.0
 40
1.0
 10
38.1105383311
 20
43.9512997626
 30
0.0
 10
38.1107647296
 20
43.93832545
 30
0.0
 10
38.1111660094
 20
43.9128221933
 30
0.0
 10
38.1116211371
 20
43.8757920909
 30
0.0
 10
38.1119067565
 20
43.8416380878
 30
0.0
 10
38.1120099579
 20
43.8117379103
 30
0.0
 10
38.111956276
 20
43.7899744901
 30
0.0
 10
38.1117842219
 20
43.7755510642
 30
0.0
 10
38.1116552775
 20
43.7671223266
 30
0.0
 10
38.1113927411
 20
43.7606844548
 30
0.0
 10
38.1113208608
 20
43.7555700628
 30
0.0
 10
38.1108044646
 20
43.7533157888
 30
0.0
 10
38.1108807492
 20
43.7513362005
 30
0.0
 10
38.1105383311
 20
43.7513302236
 30
0.0
  0
SPLINE
  5
285
100
AcDbEntity
  8
_1
100
AcDbSpline
 62
7
  6
CONTINUOUS
 70
0
 71
3
 72
18
 73
14
 74
0
 42
0.0000001
 43
0.0000001
 44
0.0000000001
 40
0.0
 40
0.0
 40
0.0
 40
0.0
 40
0.0051356167
 40
0.019649066
 40
0.0435093218
 40
0.0765573363
 40
0.1185593485
 40
0.1690380541
 40
0.2932688836
 40
0.4446586246
 40
0.6175194491
 40
0.8054134075
 40
1.0
 40
1.0
 40
1.0
 40
1.0
 10
38.1105383311
 20
54.5058252016
 30
0.0
 10
38.1108807646
 20
54.5058192244
 30
0.0
 10
38.1108044605
 20
54.5038395388
 30
0.0
 10
38.1113208838
 20
54.5015851633
 30
0.0
 10
38.1113927543
 20
54.4964705274
 30
0.0
 10
38.1116552972
 20
54.4900323548
 30
0.0
 10
38.1117842382
 20
54.4816032268
 30
0.0
 10
38.1119562883
 20
54.4671791569
 30
0.0
 10
38.1120099573
 20
54.4454148083
 30
0.0
 10
38.1119067341
 20
54.4155134155
 30
0.0
 10
38.1116210841
 20
54.3813581244
 30
0.0
 10
38.1111659195
 20
54.3443267819
 30
0.0
 10
38.1107646117
 20
54.3188227264
 30
0.0
 10
38.1105381982
 20
54.3058480491
 30
0.0
  0
SPLINE
  5
286
100
AcDbEntity
  8
_1
100
AcDbSpline
 62
7
  6
CONTINUOUS
 70
0
 71
3
 72
18
 73
14
 74
0
 42
0.0000001
 43
0.0000001
 44
0.0000000001
 40
0.0
 40
0.0
 40
0.0
 40
0.0
 40
0.1945885329
 40
0.3824831386
 40
0.5553439222
 40
0.7067332262
 40
0.8309633503
 40
0.8814416816
 40
0.9234433374
 40
0.9564910536
 40
0.9803510952
 40
0.9948644169
 40
1.0
 40
1.0
 40
1.0
 40
1.0
 10
38.1105383311
 20
45.4512997626
 30
0.0
 10
38.1107647296
 20
45.4383254496
 30
0.0
 10
38.1111660094
 20
45.4128221919
 30
0.0
 10
38.1116211372
 20
45.3757920886
 30
0.0
 10
38.1119067565
 20
45.341638086
 30
0.0
 10
38.1120099579
 20
45.31173791
 30
0.0
 10
38.111956276
 20
45.289974491
 30
0.0
 10
38.1117842219
 20
45.2755510656
 30
0.0
 10
38.1116552775
 20
45.2671223281
 30
0.0
 10
38.1113927411
 20
45.2606844561
 30
0.0
 10
38.1113208609
 20
45.2555700637
 30
0.0
 10
38.1108044645
 20
45.2533157893
 30
0.0
 10
38.1108807493
 20
45.2513362005
 30
0.0
 10
38.1105383311
 20
45.2513302236
 30
0.0
  0
SPLINE
  5
287
100
AcDbEntity
  8
_1
100
AcDbSpline
 62
7
  6
CONTINUOUS
 70
0
 71
3
 72
25
 73
21
 74
0
 42
0.0000001
 43
0.0000001
 44
0.0000000001
 40
0.0
 40
0.0
 40
0.0
 40
0.0
 40
0.0029239882
 40
0.004945436
 40
0.0074487394
 40
0.0140368704
 40
0.0228386637
 40
0.0338940846
 40
0.0472069532
 40
0.0627618634
 40
0.0805336377
 40
0.1225751077
 40
0.172967683
 40
0.2312511315
 40
0.2968824018
 40
0.3692438122
 40
0.4476500382
 40
0.6195594292
 40
0.8060558791
 40
1.0
 40
1.0
 40
1.0
 40
1.0
 10
22.415246555
 20
8.7104402926
 30
0.0
 10
22.41071614
 20
8.7105650193
 30
0.0
 10
22.4034563472
 20
8.7150082836
 30
0.0
 10
22.3962103815
 20
8.7238613037
 30
0.0
 10
22.3871591346
 20
8.7386334211
 30
0.0
 10
22.3765394924
 20
8.7643426592
 30
0.0
 10
22.3644156718
 20
8.8035251338
 30
0.0
 10
22.3522560818
 20
8.8535050356
 30
0.0
 10
22.3400514216
 20
8.9141796846
 30
0.0
 10
22.3278845096
 20
8.9854474968
 30
0.0
 10
22.3107993139
 20
9.1010177314
 30
0.0
 10
22.2903976565
 20
9.2706399618
 30
0.0
 10
22.2677700514
 20
9.5031625397
 30
0.0
 10
22.246199378
 20
9.7724845354
 30
0.0
 10
22.2259778471
 20
10.0760433833
 30
0.0
 10
22.2073956803
 20
10.4109488958
 30
0.0
 10
22.1844477397
 20
10.91057203
 30
0.0
 10
22.1620895098
 20
11.5872842686
 30
0.0
 10
22.1457556253
 20
12.4432837023
 30
0.0
 10
22.1420819799
 20
13.0329676557
 30
0.0
 10
22.1420789165
 20
13.3335777126
 30
0.0
  0
SPLINE
  5
288
100
AcDbEntity
  8
_1
100
AcDbSpline
 62
7
  6
CONTINUOUS
 70
0
 71
3
 72
25
 73
21
 74
0
 42
0.0000001
 43
0.0000001
 44
0.0000000001
 40
0.0
 40
0.0
 40
0.0
 40
0.0
 40
0.1939440957
 40
0.380440519
 40
0.5523498156
 40
0.6307559848
 40
0.7031173401
 40
0.7687485644
 40
0.8270319709
 40
0.8774245176
 40
0.9194659528
 40
0.9372377109
 40
0.9527926226
 40
0.9661054912
 40
0.9771608756
 40
0.9859626219
 40
0.9925508202
 40
0.9950542383
 40
0.9970758288
 40
1.0
 40
1.0
 40
1.0
 40
1.0
 10
22.1420789165
 20
87.2335777114
 30
0.0
 10
22.1420820113
 20
87.5341878684
 30
0.0
 10
22.1457557401
 20
88.1238720154
 30
0.0
 10
22.1620896665
 20
88.9798716115
 30
0.0
 10
22.1844472334
 20
89.6565839175
 30
0.0
 10
22.2073959806
 20
90.1562069243
 30
0.0
 10
22.2259776412
 20
90.4911123763
 30
0.0
 10
22.2461996008
 20
90.7946711133
 30
0.0
 10
22.2677698216
 20
91.06399309
 30
0.0
 10
22.290397837
 20
91.296515575
 30
0.0
 10
22.3107993666
 20
91.4661377691
 30
0.0
 10
22.3278842669
 20
91.5817080262
 30
0.0
 10
22.3400514643
 20
91.6529758054
 30
0.0
 10
22.3522564733
 20
91.7136503539
 30
0.0
 10
22.3644156978
 20
91.7636302239
 30
0.0
 10
22.3765387673
 20
91.8028129124
 30
0.0
 10
22.3871587271
 20
91.8285223425
 30
0.0
 10
22.3962111279
 20
91.8432943929
 30
0.0
 10
22.4034582248
 20
91.8521473436
 30
0.0
 10
22.4107186001
 20
91.8565906448
 30
0.0
 10
22.4152493054
 20
91.8567152047
 30
0.0
  0
ENDSEC
  0
SECTION
  2
OBJECTS
  0
DICTIONARY
  5
C
100
AcDbDictionary
280
0
281
1
  3
ACAD_GROUP
350
D
  3
ACAD_MLINESTYLE
350
17
  3
ACAD_LAYOUT
350
1A
  3
ACAD_PLOTSETTINGS
350
19
  3
ACAD_PLOTSTYLENAME
350
E
  0
DICTIONARY
  5
D
102
{ACAD_REACTORS
330
C
102
}
100
AcDbDictionary
280
0
281
1
  0
ACDBDICTIONARYWDFLT
  5
E
102
{ACAD_REACTORS
330
C
102
}
100
AcDbDictionary
281
1
  3
Normal
350
F
100
AcDbDictionaryWithDefault
340
F
  0
DICTIONARY
  5
17
102
{ACAD_REACTORS
330
C
102
}
100
AcDbDictionary
280
0
281
1
  3
Standard
350
18
  0
DICTIONARY
  5
19
102
{ACAD_REACTORS
330
C
102
}
100
AcDbDictionary
281
1
  0
DICTIONARY
  5
1A
102
{ACAD_REACTORS
330
C
102
}
100
AcDbDictionary
281
1
  3
Model
350
289
  3
Layout1
350
28A
  0
ACDBPLACEHOLDER
  5
F
102
{ACAD_REACTORS
330
E
102
}
  0
MLINESTYLE
  5
18
102
{ACAD_REACTORS
330
17
102
}
100
AcDbMlineStyle
  2
STANDARD
 70
0
  3

 62
256
 51
90.0
 52
90.0
 71
2
 49
0.5
 62
256
  6
BYLAYER
 49
-0.5
 62
256
  6
BYLAYER
  0
LAYOUT
  5
289
102
{ACAD_REACTORS
330
1A
102
}
100
AcDbPlotSettings
  1

  2
none_device
  4

  6

 40
0.0
 41
0.0
 42
0.0
 43
0.0
 44
210.0
 45
297.0
 46
0.0
 47
0.0
 48
0.0
 49
0.0
140
0.0
141
0.0
142
1.0
143
1.0
 70
1024
 72
1
 73
0
 74
0
  7

 75
0
147
1.0
148
0.0
149
0.0
100
AcDbLayout
  1
Model
 70
0
 71
0
 10
0.0
 20
0.0
 11
210.0
 21
297.0
 12
0.0
 22
0.0
 32
0.0
 14
0.0
 24
0.0
 34
0.0
 15
0.0
 25
0.0
 35
0.0
146
0.0
 13
0.0
 23
0.0
 33
0.0
 16
1.0
 26
0.0
 36
0.0
 17
0.0
 27
1.0
 37
0.0
 76
0
330
211
345
0
346
0
  0
LAYOUT
  5
28A
102
{ACAD_REACTORS
330
1A
102
}
100
AcDbPlotSettings
  1

  2
none_device
  4

  6

 40
0.0
 41
0.0
 42
0.0
 43
0.0
 44
210.0
 45
297.0
 46
0.0
 47
0.0
 48
0.0
 49
0.0
140
0.0
141
0.0
142
1.0
143
1.0
 70
0
 72
1
 73
0
 74
0
  7

 75
0
147
1.0
148
0.0
149
0.0
100
AcDbLayout
  1
Layout1
 70
0
 71
1
 10
0.0
 20
0.0
 11
210.0
 21
297.0
 12
0.0
 22
0.0
 32
0.0
 14
0.0
 24
0.0
 34
0.0
 15
0.0
 25
0.0
 35
0.0
146
0.0
 13
0.0
 23
0.0
 33
0.0
 16
1.0
 26
0.0
 36
0.0
 17
0.0
 27
1.0
 37
0.0
 76
0
330
212
345
0
346
0
  0
ENDSEC
  0
EOF
