999
DXF file: C:\Users\sesa63760\Dev\_Creo\CAD\MCADID0002245_3D-CAD\drw0001_5.dxf
999
Pro/ENGINEER 2019471 by Parametric Technology Corporation
  0
SECTION
  2
HEADER
  9
$ACADVER
  1
AC1024
  9
$DWGCODEPAGE
  3
ANSI_1252
  9
$EXTMAX
 10
96.1175587966
 20
135.937690298
 30
0.0
  9
$EXTMIN
 10
0.0
 20
0.0
 30
0.0
  9
$LIMMIN
 10
0.0
 20
0.0
  9
$LIMMAX
 10
96.1175587966
 20
135.937690298
  9
$VIEWCTR
 10
48.0587793983
 20
67.968845149
  9
$VIEWSIZE
 40
135.937690298
  9
$CLAYER
  8
0
  9
$LTSCALE
 40
8.8611235157
  9
$CELTYPE
  6
BYLAYER
  9
$DIMSCALE
 40
1.0
  9
$DIMASZ
 40
1.1442566523
  9
$DIMEXO
 40
1.0
  9
$DIMDLI
 40
6.1222307927
  9
$DIMEXE
 40
1.0
  9
$DIMCEN
 40
1.4500020298
  9
$DIMLFAC
 40
1.0
  9
$DIMBLK
  1
_FILLED
  9
$DIMALT
 70
0
  9
$DIMALTF
 40
0.0393700787
  9
$DIMTXT
 40
1.6019593133
  9
$DIMTOL
 70
1
  9
$DIMLIM
 70
0
  9
$DIMTFAC
 40
1.0
  9
$DIMTP
 40
0.01
  9
$DIMTM
 40
0.01
  9
$DIMGAP
 40
0.625
  9
$DIMDSEP
 70
46
  9
$AUNITS
 70
0
  9
$PDMODE
 70
3
  9
$PDSIZE
 40
0.3125
  9
$HANDSEED
  5
2AA
  9
$TILEMODE
 70
1
  9
$MEASUREMENT
 70
1
  9
$INSUNITS
 70
4
  0
ENDSEC
  0
SECTION
  2
CLASSES
  0
CLASS
  1
ACDBDICTIONARYWDFLT
  2
AcDbDictionaryWithDefault
  3
AutoCAD 2000
 90
0
 91
1
280
0
281
0
  0
CLASS
  1
ACDBPLACEHOLDER
  2
AcDbPlaceHolder
  3
AutoCAD 2000
 90
0
 91
1
280
0
281
0
  0
CLASS
  1
LAYOUT
  2
AcDbLayout
  3
AutoCAD 2000
 90
0
 91
0
280
0
281
0
  0
ENDSEC
  0
SECTION
  2
TABLES
  0
TABLE
  2
VPORT
  5
8
100
AcDbSymbolTable
 70
2
  0
VPORT
  5
1F4
100
AcDbSymbolTableRecord
100
AcDbViewportTableRecord
  2
*ACTIVE
 70
0
 10
0.0
 20
0.0
 11
1.0
 21
1.0
 12
48.0587793983
 22
67.968845149
 13
0.0
 23
0.0
 14
1.0
 24
1.0
 15
0.0
 25
0.0
 16
0.0
 26
0.0
 36
1.0
 17
0.0
 27
0.0
 37
0.0
 40
135.937690298
 41
0.7070707071
 42
50.0
 43
0.0
 44
0.0
 50
0.0
 51
0.0
 71
0
 72
100
 73
1
 74
1
 75
0
 76
0
 77
0
 78
0
  0
ENDTAB
  0
TABLE
  2
LTYPE
  5
5
100
AcDbSymbolTable
 70
6
  0
LTYPE
  5
14
100
AcDbSymbolTableRecord
100
AcDbLinetypeTableRecord
  2
BYBLOCK
 70
0
  3

 72
65
 73
0
 40
0.0
  0
LTYPE
  5
15
100
AcDbSymbolTableRecord
100
AcDbLinetypeTableRecord
  2
BYLAYER
 70
0
  3

 72
65
 73
0
 40
0.0
  0
LTYPE
  5
16
100
AcDbSymbolTableRecord
100
AcDbLinetypeTableRecord
  2
CONTINUOUS
 70
64
  3
Solid line
 72
65
 73
0
 40
0.0
  0
LTYPE
  5
1F5
100
AcDbSymbolTableRecord
100
AcDbLinetypeTableRecord
  2
CENTER
 70
64
  3
____ _ ____ _ ____ _ ____ _ ____ _ ____ _ ____
 72
65
 73
4
 40
0.6
 49
0.375
 74
0
 49
-0.075
 74
0
 49
0.075
 74
0
 49
-0.075
 74
0
  0
LTYPE
  5
1F6
100
AcDbSymbolTableRecord
100
AcDbLinetypeTableRecord
  2
HIDDEN
 70
64
  3
- - - - - - - - - - - - - - - - - - - -
 72
65
 73
2
 40
0.2
 49
0.1
 74
0
 49
-0.1
 74
0
  0
LTYPE
  5
1F7
100
AcDbSymbolTableRecord
100
AcDbLinetypeTableRecord
  2
PHANTOM
 70
64
  3
_____ _ _ _____ _ _ _____ _ _ _____
 72
65
 73
6
 40
0.8
 49
0.45
 74
0
 49
-0.05
 74
0
 49
0.1
 74
0
 49
-0.05
 74
0
 49
0.1
 74
0
 49
-0.05
 74
0
  0
LTYPE
  5
1F8
100
AcDbSymbolTableRecord
100
AcDbLinetypeTableRecord
  2
DOT
 70
64
  3
. . . . . . . . . . . . . . . . . . . .
 72
65
 73
2
 40
0.2
 49
0.1
 74
0
 49
-0.1
 74
0
  0
LTYPE
  5
1F9
100
AcDbSymbolTableRecord
100
AcDbLinetypeTableRecord
  2
DASHED
 70
64
  3
- - - - - - - - - - - - - - - - - - - -
 72
65
 73
2
 40
0.2
 49
0.1
 74
0
 49
-0.1
 74
0
  0
ENDTAB
  0
TABLE
  2
LAYER
  5
2
100
AcDbSymbolTable
 70
36
  0
LAYER
  5
10
100
AcDbSymbolTableRecord
100
AcDbLayerTableRecord
  2
0
 70
0
 62
7
  6
CONTINUOUS
370
-3
390
F
  0
LAYER
  5
1FA
100
AcDbSymbolTableRecord
100
AcDbLayerTableRecord
  2
DEFAULT_1
 70
0
 62
7
  6
CENTER
370
-3
390
F
  0
LAYER
  5
1FB
100
AcDbSymbolTableRecord
100
AcDbLayerTableRecord
  2
DEFAULT_2
 70
0
 62
8
  6
HIDDEN
370
-3
390
F
  0
LAYER
  5
1FC
100
AcDbSymbolTableRecord
100
AcDbLayerTableRecord
  2
DEFAULT_3
 70
0
 62
7
  6
PHANTOM
370
-3
390
F
  0
LAYER
  5
1FD
100
AcDbSymbolTableRecord
100
AcDbLayerTableRecord
  2
00_COMPONENTS
 70
0
 62
7
  6
CONTINUOUS
370
-3
390
F
  0
LAYER
  5
1FE
100
AcDbSymbolTableRecord
100
AcDbLayerTableRecord
  2
01_1_DEFAULT_DATUMS
 70
0
 62
7
  6
CONTINUOUS
370
-3
390
F
  0
LAYER
  5
1FF
100
AcDbSymbolTableRecord
100
AcDbLayerTableRecord
  2
01_PLANES
 70
0
 62
7
  6
CONTINUOUS
370
-3
390
F
  0
LAYER
  5
200
100
AcDbSymbolTableRecord
100
AcDbLayerTableRecord
  2
02_COORD_SYS
 70
0
 62
7
  6
CONTINUOUS
370
-3
390
F
  0
LAYER
  5
201
100
AcDbSymbolTableRecord
100
AcDbLayerTableRecord
  2
03_AXES
 70
0
 62
7
  6
CONTINUOUS
370
-3
390
F
  0
LAYER
  5
202
100
AcDbSymbolTableRecord
100
AcDbLayerTableRecord
  2
04_POINTS
 70
0
 62
7
  6
CONTINUOUS
370
-3
390
F
  0
LAYER
  5
203
100
AcDbSymbolTableRecord
100
AcDbLayerTableRecord
  2
05_CURVES
 70
0
 62
7
  6
CONTINUOUS
370
-3
390
F
  0
LAYER
  5
204
100
AcDbSymbolTableRecord
100
AcDbLayerTableRecord
  2
06_SURFS
 70
0
 62
7
  6
CONTINUOUS
370
-3
390
F
  0
LAYER
  5
205
100
AcDbSymbolTableRecord
100
AcDbLayerTableRecord
  2
07_COSMETICS
 70
0
 62
7
  6
CONTINUOUS
370
-3
390
F
  0
LAYER
  5
206
100
AcDbSymbolTableRecord
100
AcDbLayerTableRecord
  2
10_NOTES
 70
0
 62
7
  6
CONTINUOUS
370
-3
390
F
  0
LAYER
  5
207
100
AcDbSymbolTableRecord
100
AcDbLayerTableRecord
  2
11_NOTES_PUB
 70
0
 62
7
  6
CONTINUOUS
370
-3
390
F
  0
LAYER
  5
208
100
AcDbSymbolTableRecord
100
AcDbLayerTableRecord
  2
13_REF_GTOL
 70
0
 62
7
  6
CONTINUOUS
370
-3
390
F
  0
LAYER
  5
209
100
AcDbSymbolTableRecord
100
AcDbLayerTableRecord
  2
16_MISC
 70
0
 62
7
  6
CONTINUOUS
370
-3
390
F
  0
LAYER
  5
20A
100
AcDbSymbolTableRecord
100
AcDbLayerTableRecord
  2
17_NO_PRINT
 70
0
 62
7
  6
CONTINUOUS
370
-3
390
F
  0
LAYER
  5
20B
100
AcDbSymbolTableRecord
100
AcDbLayerTableRecord
  2
18_DATUM_CAMS_JOINTS
 70
0
 62
7
  6
CONTINUOUS
370
-3
390
F
  0
LAYER
  5
20C
100
AcDbSymbolTableRecord
100
AcDbLayerTableRecord
  2
19_DATUM_FUNCTIONAL
 70
0
 62
7
  6
CONTINUOUS
370
-3
390
F
  0
LAYER
  5
20D
100
AcDbSymbolTableRecord
100
AcDbLayerTableRecord
  2
20_DATUM_KINEMATIC_SCHEME
 70
0
 62
7
  6
CONTINUOUS
370
-3
390
F
  0
ENDTAB
  0
TABLE
  2
STYLE
  5
3
100
AcDbSymbolTable
 70
1
  0
STYLE
  5
11
100
AcDbSymbolTableRecord
100
AcDbTextStyleTableRecord
  2
STANDARD
 70
0
 40
0.0
 41
0.8
 50
0.0
 71
0
 42
0.2
  3
txt
  4

  0
STYLE
  5
20E
100
AcDbSymbolTableRecord
100
AcDbTextStyleTableRecord
  2
TEXTSTYLE_1
 70
0
 40
0.0
 41
0.8
 50
0.0
 71
0
 42
0.2
  3
gdt
  4

  0
ENDTAB
  0
TABLE
  2
VIEW
  5
6
100
AcDbSymbolTable
 70
0
  0
ENDTAB
  0
TABLE
  2
UCS
  5
7
100
AcDbSymbolTable
 70
0
  0
ENDTAB
  0
TABLE
  2
APPID
  5
9
100
AcDbSymbolTable
 70
1
  0
APPID
  5
20F
100
AcDbSymbolTableRecord
100
AcDbRegAppTableRecord
  2
ACAD
 70
0
  0
ENDTAB
  0
TABLE
  2
BLOCK_RECORD
  5
1
100
AcDbSymbolTable
 70
0
  0
BLOCK_RECORD
  5
210
100
AcDbSymbolTableRecord
100
AcDbBlockTableRecord
  2
*Model_Space
  0
BLOCK_RECORD
  5
211
100
AcDbSymbolTableRecord
100
AcDbBlockTableRecord
  2
*Paper_Space
  0
BLOCK_RECORD
  5
212
100
AcDbSymbolTableRecord
100
AcDbBlockTableRecord
  2
_FILLED
  0
ENDTAB
  0
TABLE
  2
DIMSTYLE
  5
A
100
AcDbSymbolTable
 70
1
100
AcDbDimStyleTable
 71
0
  0
DIMSTYLE
105
213
100
AcDbSymbolTableRecord
100
AcDbDimStyleTableRecord
  2
STANDARD
 70
0
  3

  4

 40
1.0
 41
1.1442566523
 42
1.0
 43
0.38
 44
1.0
 45
0.0
 46
0.0
 47
0.01
 48
0.01
140
1.6019593133
141
0.09
142
0.0
143
25.4
144
1.0
145
0.0
146
1.0
147
0.625
 71
1
 72
0
 73
0
 74
0
 75
0
 76
0
 77
1
 78
8
 79
2
170
0
171
1
172
0
173
0
174
0
175
0
176
0
177
0
178
0
270
2
179
2
271
2
272
2
273
2
274
2
275
0
280
0
281
0
282
0
283
1
284
8
285
0
286
0
287
3
288
0
340
11
278
46
341
212
342
212
343
212
344
212
  0
ENDTAB
  0
ENDSEC
  0
SECTION
  2
BLOCKS
  0
BLOCK
  5
20
100
AcDbEntity
  8
0
100
AcDbBlockBegin
  2
*Model_Space
 70
0
 10
0.0
 20
0.0
 30
0.0
  3
*Model_Space
  1

  0
ENDBLK
  5
21
100
AcDbEntity
  8
0
100
AcDbBlockEnd
  0
BLOCK
  5
1C
100
AcDbEntity
  8
0
100
AcDbBlockBegin
  2
*Paper_Space
 70
0
 10
0.0
 20
0.0
 30
0.0
  3
*Paper_Space
  1

  0
ENDBLK
  5
1D
100
AcDbEntity
  8
0
100
AcDbBlockEnd
  0
BLOCK
  5
214
100
AcDbEntity
  8
0
100
AcDbBlockBegin
  2
_FILLED
 70
64
 10
0.0
 20
0.0
  3
_FILLED
  1

  0
SOLID
  5
215
100
AcDbEntity
  8
0
  6
BYBLOCK
 62
0
100
AcDbTrace
 10
0.0
 20
0.0
 11
-1.0
 21
0.25
 12
-1.0
 22
-0.25
 13
-1.0
 23
-0.25
  0
ENDBLK
  5
216
100
AcDbEntity
  8
0
  6
BYBLOCK
 62
0
100
AcDbBlockEnd
  0
ENDSEC
  0
SECTION
  2
ENTITIES
  0
LINE
  5
217
100
AcDbEntity
  8
0
100
AcDbLine
 62
7
  6
CONTINUOUS
 10
85.8267817325
 20
26.4552288301
 11
12.7153628942
 21
26.4552288301
  0
LINE
  5
218
100
AcDbEntity
  8
0
100
AcDbLine
 62
7
  6
CONTINUOUS
 10
12.4893600437
 20
26.4676311798
 11
13.0939133605
 21
26.4676311798
  0
LINE
  5
219
100
AcDbEntity
  8
0
100
AcDbLine
 62
7
  6
CONTINUOUS
 10
66.1981249079
 20
26.4676311798
 11
73.0888628092
 21
26.4676311798
  0
LINE
  5
21A
100
AcDbEntity
  8
0
100
AcDbLine
 62
7
  6
CONTINUOUS
 10
11.490135069
 20
41.0552288301
 11
11.2550688354
 21
45.9361168017
  0
LINE
  5
21B
100
AcDbEntity
  8
0
100
AcDbLine
 62
7
  6
CONTINUOUS
 10
11.251957694
 20
46.0302288301
 11
11.2550688354
 21
45.9361168017
  0
LINE
  5
21C
100
AcDbEntity
  8
0
100
AcDbLine
 62
7
  6
CONTINUOUS
 10
11.2041913922
 20
40.5552288301
 11
11.189998316
 21
41.0552288301
  0
LINE
  5
21D
100
AcDbEntity
  8
0
100
AcDbLine
 62
7
  6
CONTINUOUS
 10
11.451957694
 20
40.5552288301
 11
11.451957694
 21
33.3552288301
  0
LINE
  5
21E
100
AcDbEntity
  8
0
100
AcDbLine
 62
7
  6
CONTINUOUS
 10
11.189998316
 20
32.8552288301
 11
11.2041913922
 21
33.3552288301
  0
LINE
  5
21F
100
AcDbEntity
  8
0
100
AcDbLine
 62
7
  6
CONTINUOUS
 10
11.2550688354
 20
27.9743408585
 11
87.2488465525
 21
27.9743408585
  0
LINE
  5
220
100
AcDbEntity
  8
0
100
AcDbLine
 62
7
  6
CONTINUOUS
 10
87.251957694
 20
28.1552288301
 11
87.2337114984
 21
28.1552288301
  0
LINE
  5
221
100
AcDbEntity
  8
0
100
AcDbLine
 62
7
  6
CONTINUOUS
 10
14.276957694
 20
47.4552288301
 11
14.276957694
 21
100.5552288301
  0
LINE
  5
222
100
AcDbEntity
  8
0
100
AcDbLine
 62
7
  6
CONTINUOUS
 10
11.2550688354
 20
27.9743408585
 11
11.251957694
 21
27.8802288301
  0
LINE
  5
223
100
AcDbEntity
  8
0
100
AcDbLine
 62
7
  6
CONTINUOUS
 10
11.2550688354
 20
27.9743408585
 11
11.490135069
 21
32.8552288301
  0
LINE
  5
224
100
AcDbEntity
  8
0
100
AcDbLine
 62
7
  6
CONTINUOUS
 10
14.8630750724
 20
32.8552288301
 11
11.1901965348
 21
32.8552288301
  0
LINE
  5
225
100
AcDbEntity
  8
0
100
AcDbLine
 62
7
  6
CONTINUOUS
 10
83.6408401081
 20
32.8552288301
 11
87.2070701218
 21
32.8552288301
  0
LINE
  5
226
100
AcDbEntity
  8
0
100
AcDbLine
 62
7
  6
CONTINUOUS
 10
11.2042052446
 20
33.3552288301
 11
14.3288633214
 21
33.3552288301
  0
LINE
  5
227
100
AcDbEntity
  8
0
100
AcDbLine
 62
7
  6
CONTINUOUS
 10
87.2519857717
 20
33.3552245539
 11
84.1750520666
 21
33.3552288301
  0
LINE
  5
228
100
AcDbEntity
  8
0
100
AcDbLine
 62
7
  6
CONTINUOUS
 10
16.301957694
 20
102.2274720165
 11
16.301957694
 21
109.5552288301
  0
LINE
  5
229
100
AcDbEntity
  8
0
100
AcDbLine
 62
7
  6
CONTINUOUS
 10
16.3630858358
 20
100.5552288301
 11
16.3630858358
 21
97.1552287972
  0
LINE
  5
22A
100
AcDbEntity
  8
0
100
AcDbLine
 62
7
  6
CONTINUOUS
 10
17.151957694
 20
100.5552288301
 11
17.151957694
 21
100.7552288301
  0
LINE
  5
22B
100
AcDbEntity
  8
0
100
AcDbLine
 62
7
  6
CONTINUOUS
 10
18.968801121
 20
97.601248188
 11
18.9688189937
 21
100.5552288301
  0
LINE
  5
22C
100
AcDbEntity
  8
0
100
AcDbLine
 62
7
  6
CONTINUOUS
 10
79.1253321315
 20
37.4543690882
 11
79.5019580442
 21
37.4552184085
  0
LINE
  5
22D
100
AcDbEntity
  8
0
100
AcDbLine
 62
7
  6
CONTINUOUS
 10
19.3784965091
 20
37.4543999121
 11
19.0018029719
 21
37.4552376436
  0
LINE
  5
22E
100
AcDbEntity
  8
0
100
AcDbLine
 62
7
  6
CONTINUOUS
 10
20.602114945
 20
100.5552288301
 11
20.6021150227
 21
97.6801605277
  0
LINE
  5
22F
100
AcDbEntity
  8
0
100
AcDbLine
 62
7
  6
CONTINUOUS
 10
83.2581079923
 20
39.2052288301
 11
79.5243586398
 21
39.2052288301
  0
LINE
  5
230
100
AcDbEntity
  8
0
100
AcDbLine
 62
7
  6
CONTINUOUS
 10
18.9795567692
 20
39.2052288301
 11
15.2458074023
 21
39.2052288301
  0
LINE
  5
231
100
AcDbEntity
  8
0
100
AcDbLine
 62
7
  6
CONTINUOUS
 10
22.8931186883
 20
39.9552248409
 11
22.4652427927
 21
39.9552250089
  0
LINE
  5
232
100
AcDbEntity
  8
0
100
AcDbLine
 62
7
  6
CONTINUOUS
 10
75.6107947864
 20
39.9552321431
 11
76.0386777665
 21
39.9552320031
  0
LINE
  5
233
100
AcDbEntity
  8
0
100
AcDbLine
 62
7
  6
CONTINUOUS
 10
87.4119022466
 20
40.5552288301
 11
84.1750520666
 21
40.5552288301
  0
LINE
  5
234
100
AcDbEntity
  8
0
100
AcDbLine
 62
7
  6
CONTINUOUS
 10
14.3288633214
 20
40.5552288301
 11
11.2042052446
 21
40.5552288301
  0
LINE
  5
235
100
AcDbEntity
  8
0
100
AcDbLine
 62
7
  6
CONTINUOUS
 10
15.2087233197
 20
40.7052288301
 11
18.9379047904
 21
40.7052288301
  0
LINE
  5
236
100
AcDbEntity
  8
0
100
AcDbLine
 62
7
  6
CONTINUOUS
 10
79.5660106661
 20
40.7052288301
 11
83.2951920752
 21
40.7052288301
  0
LINE
  5
237
100
AcDbEntity
  8
0
100
AcDbLine
 62
7
  6
CONTINUOUS
 10
87.611957694
 20
40.7552288301
 11
87.2847014814
 21
40.7552288301
  0
LINE
  5
238
100
AcDbEntity
  8
0
100
AcDbLine
 62
7
  6
CONTINUOUS
 10
11.1901965348
 20
41.0552288301
 11
14.8630752814
 21
41.0552288301
  0
LINE
  5
239
100
AcDbEntity
  8
0
100
AcDbLine
 62
7
  6
CONTINUOUS
 10
83.6408403156
 20
41.0552288301
 11
86.984017986
 21
41.0552288301
  0
LINE
  5
23A
100
AcDbEntity
  8
0
100
AcDbLine
 62
7
  6
CONTINUOUS
 10
79.2635262043
 20
42.4552203398
 11
79.6409313853
 21
42.455220719
  0
LINE
  5
23B
100
AcDbEntity
  8
0
100
AcDbLine
 62
7
  6
CONTINUOUS
 10
19.2404766573
 20
42.4552389985
 11
18.8631436924
 21
42.4552385371
  0
LINE
  5
23C
100
AcDbEntity
  8
0
100
AcDbLine
 62
7
  6
CONTINUOUS
 10
87.2847014814
 20
45.5552288301
 11
87.611957694
 21
45.5552288301
  0
LINE
  5
23D
100
AcDbEntity
  8
0
100
AcDbLine
 62
7
  6
CONTINUOUS
 10
86.9064802512
 20
45.7552288301
 11
87.4119022466
 21
45.7552288301
  0
LINE
  5
23E
100
AcDbEntity
  8
0
100
AcDbLine
 62
7
  6
CONTINUOUS
 10
11.2550688354
 20
45.9361168017
 11
87.2488465525
 21
45.9361168017
  0
LINE
  5
23F
100
AcDbEntity
  8
0
100
AcDbLine
 62
7
  6
CONTINUOUS
 10
12.6770964992
 20
47.4552288301
 11
85.8268188888
 21
47.4552288301
  0
LINE
  5
240
100
AcDbEntity
  8
0
100
AcDbLine
 62
7
  6
CONTINUOUS
 10
84.1947770565
 20
49.1552288301
 11
84.5269571309
 21
49.1552288301
  0
LINE
  5
241
100
AcDbEntity
  8
0
100
AcDbLine
 62
7
  6
CONTINUOUS
 10
84.1947770565
 20
52.1552288301
 11
84.495050989
 21
52.1552288301
  0
LINE
  5
242
100
AcDbEntity
  8
0
100
AcDbLine
 62
7
  6
CONTINUOUS
 10
84.518983724
 20
52.1552288301
 11
84.5260716661
 21
52.1552288301
  0
LINE
  5
243
100
AcDbEntity
  8
0
100
AcDbLine
 62
7
  6
CONTINUOUS
 10
84.2080462194
 20
53.3052288301
 11
84.50820714
 21
53.3052288301
  0
LINE
  5
244
100
AcDbEntity
  8
0
100
AcDbLine
 62
7
  6
CONTINUOUS
 10
84.226957694
 20
54.4552288301
 11
84.5269503366
 21
54.4552288301
  0
LINE
  5
245
100
AcDbEntity
  8
0
100
AcDbLine
 62
7
  6
CONTINUOUS
 10
17.151957694
 20
100.7552288301
 11
16.301957694
 21
102.2274720165
  0
LINE
  5
246
100
AcDbEntity
  8
0
100
AcDbLine
 62
7
  6
CONTINUOUS
 10
72.3264853064
 20
26.4552288301
 11
72.319668636
 21
26.4676311798
  0
LINE
  5
247
100
AcDbEntity
  8
0
100
AcDbLine
 62
7
  6
CONTINUOUS
 10
87.451957694
 20
33.1552288301
 11
87.2519857717
 21
33.3552245539
  0
LINE
  5
248
100
AcDbEntity
  8
0
100
AcDbLine
 62
7
  6
CONTINUOUS
 10
81.351957694
 20
100.7552288301
 11
82.201957694
 21
102.2274720165
  0
LINE
  5
249
100
AcDbEntity
  8
0
100
AcDbLine
 62
7
  6
CONTINUOUS
 10
87.411957694
 20
45.7552288301
 11
87.611957694
 21
45.5552288301
  0
LINE
  5
24A
100
AcDbEntity
  8
0
100
AcDbLine
 62
7
  6
CONTINUOUS
 10
79.5773743185
 20
100.5552288301
 11
79.577737673
 21
97.2331474512
  0
LINE
  5
24B
100
AcDbEntity
  8
0
100
AcDbLine
 62
7
  6
CONTINUOUS
 10
77.9444453711
 20
97.1552308328
 11
77.944912907
 21
100.5552288301
  0
LINE
  5
24C
100
AcDbEntity
  8
0
100
AcDbLine
 62
7
  6
CONTINUOUS
 10
16.3630858358
 20
97.1552287972
 11
17.5853839811
 21
97.1552288346
  0
LINE
  5
24D
100
AcDbEntity
  8
0
100
AcDbLine
 62
7
  6
CONTINUOUS
 10
81.351957694
 20
100.5552288301
 11
81.351957694
 21
100.7552288301
  0
LINE
  5
24E
100
AcDbEntity
  8
0
100
AcDbLine
 62
7
  6
CONTINUOUS
 10
81.9466282441
 20
109.0552288301
 11
81.9466282441
 21
102.2274720165
  0
LINE
  5
24F
100
AcDbEntity
  8
0
100
AcDbLine
 62
7
  6
CONTINUOUS
 10
82.1347704638
 20
109.0552342216
 11
82.1347704638
 21
102.2274720165
  0
LINE
  5
250
100
AcDbEntity
  8
0
100
AcDbLine
 62
7
  6
CONTINUOUS
 10
82.1735840587
 20
97.6801608113
 11
82.1735880581
 21
100.5552288301
  0
LINE
  5
251
100
AcDbEntity
  8
0
100
AcDbLine
 62
7
  6
CONTINUOUS
 10
82.201957694
 20
102.2274720165
 11
82.201957694
 21
109.5552288301
  0
LINE
  5
252
100
AcDbEntity
  8
0
100
AcDbLine
 62
7
  6
CONTINUOUS
 10
14.2769918102
 20
100.5552288301
 11
84.2269499597
 21
100.5552288301
  0
LINE
  5
253
100
AcDbEntity
  8
0
100
AcDbLine
 62
7
  6
CONTINUOUS
 10
17.151957694
 20
100.7552288301
 11
81.351957694
 21
100.7552288301
  0
LINE
  5
254
100
AcDbEntity
  8
0
100
AcDbLine
 62
7
  6
CONTINUOUS
 10
82.201957694
 20
102.2274720165
 11
82.1347704638
 21
102.2274720165
  0
LINE
  5
255
100
AcDbEntity
  8
0
100
AcDbLine
 62
7
  6
CONTINUOUS
 10
81.9466282441
 20
102.2274720165
 11
16.301957694
 21
102.2274720165
  0
LINE
  5
256
100
AcDbEntity
  8
0
100
AcDbLine
 62
7
  6
CONTINUOUS
 10
87.2488465525
 20
27.9743408585
 11
87.2369950237
 21
28.1552288301
  0
LINE
  5
257
100
AcDbEntity
  8
0
100
AcDbLine
 62
7
  6
CONTINUOUS
 10
87.2488465525
 20
27.9743408585
 11
87.251957694
 21
27.8802288301
  0
LINE
  5
258
100
AcDbEntity
  8
0
100
AcDbLine
 62
7
  6
CONTINUOUS
 10
84.1947770565
 20
49.1552288301
 11
84.1947770565
 21
52.1552288301
  0
LINE
  5
259
100
AcDbEntity
  8
0
100
AcDbLine
 62
7
  6
CONTINUOUS
 10
84.2080462194
 20
52.1552288301
 11
84.2080462194
 21
53.3052288301
  0
LINE
  5
25A
100
AcDbEntity
  8
0
100
AcDbLine
 62
7
  6
CONTINUOUS
 10
84.226957694
 20
47.4552288301
 11
84.226957694
 21
49.1552288301
  0
LINE
  5
25B
100
AcDbEntity
  8
0
100
AcDbLine
 62
7
  6
CONTINUOUS
 10
84.226957694
 20
54.4552288301
 11
84.226957694
 21
100.5552288301
  0
LINE
  5
25C
100
AcDbEntity
  8
0
100
AcDbLine
 62
7
  6
CONTINUOUS
 10
84.495050989
 20
52.1552288301
 11
84.495050989
 21
49.1552288301
  0
LINE
  5
25D
100
AcDbEntity
  8
0
100
AcDbLine
 62
7
  6
CONTINUOUS
 10
84.50820714
 20
53.3052288301
 11
84.50820714
 21
52.1552288301
  0
LINE
  5
25E
100
AcDbEntity
  8
0
100
AcDbLine
 62
7
  6
CONTINUOUS
 10
84.526957694
 20
49.1552288301
 11
84.526957694
 21
52.1552288301
  0
LINE
  5
25F
100
AcDbEntity
  8
0
100
AcDbLine
 62
7
  6
CONTINUOUS
 10
87.051957694
 20
40.5552288301
 11
87.051957694
 21
33.3552288301
  0
LINE
  5
260
100
AcDbEntity
  8
0
100
AcDbLine
 62
7
  6
CONTINUOUS
 10
87.2847014814
 20
45.5552288301
 11
87.2847014814
 21
40.7552288301
  0
LINE
  5
261
100
AcDbEntity
  8
0
100
AcDbLine
 62
7
  6
CONTINUOUS
 10
87.451957694
 20
33.1552288301
 11
87.451957694
 21
28.3552288301
  0
LINE
  5
262
100
AcDbEntity
  8
0
100
AcDbLine
 62
7
  6
CONTINUOUS
 10
87.611957694
 20
40.7552288301
 11
87.611957694
 21
45.5552288301
  0
LINE
  5
263
100
AcDbEntity
  8
0
100
AcDbLine
 62
7
  6
CONTINUOUS
 10
87.251957694
 20
46.0302288301
 11
87.2488465525
 21
45.9361168017
  0
LINE
  5
264
100
AcDbEntity
  8
0
100
AcDbLine
 62
7
  6
CONTINUOUS
 10
87.2369950237
 20
45.7552288301
 11
87.2488465525
 21
45.9361168017
  0
LINE
  5
265
100
AcDbEntity
  8
0
100
AcDbLine
 62
7
  6
CONTINUOUS
 10
81.9466282441
 20
109.0552288301
 11
82.1347703288
 21
109.0552288301
  0
LINE
  5
266
100
AcDbEntity
  8
0
100
AcDbLine
 62
7
  6
CONTINUOUS
 10
16.3025420664
 20
109.5552288301
 11
82.2019567911
 21
109.5552288301
  0
LINE
  5
267
100
AcDbEntity
  8
0
100
AcDbLine
 62
7
  6
CONTINUOUS
 10
48.5414845308
 20
109.8152288301
 11
49.9624307108
 21
109.8152288301
  0
LINE
  5
268
100
AcDbEntity
  8
0
100
AcDbLine
 62
7
  6
CONTINUOUS
 10
87.411957694
 20
40.5552288301
 11
87.611957694
 21
40.7552288301
  0
LINE
  5
269
100
AcDbEntity
  8
0
100
AcDbLine
 62
7
  6
CONTINUOUS
 10
87.451957694
 20
28.3552288301
 11
87.251957694
 21
28.1552288301
  0
ARC
  5
26A
100
AcDbEntity
  8
0
100
AcDbCircle
 62
7
  6
CONTINUOUS
 10
18.1369576939
 20
-37.7927711697
 40
150.9999999998
100
AcDbArc
 50
77.420416178
 51
77.8327219907
  0
ARC
  5
26B
100
AcDbEntity
  8
0
100
AcDbCircle
 62
7
  6
CONTINUOUS
 10
-110.232605105
 20
36.9532644856
 40
124.6135368396
100
AcDbArc
 50
1.1972876814
 51
1.6563698384
  0
ARC
  5
26C
100
AcDbEntity
  8
0
100
AcDbCircle
 62
7
  6
CONTINUOUS
 10
-110.1750931745
 20
36.9555762186
 40
124.5560022015
100
AcDbArc
 50
358.3436089525
 51
359.9998402012
  0
ARC
  5
26D
100
AcDbEntity
  8
0
100
AcDbCircle
 62
7
  6
CONTINUOUS
 10
-110.1476233901
 20
36.955239202
 40
124.5285324167
100
AcDbArc
 50
359.9999952279
 51
1.1971963123
  0
ARC
  5
26E
100
AcDbEntity
  8
0
100
AcDbCircle
 62
7
  6
CONTINUOUS
 10
-108.9337456129
 20
36.9544615396
 40
123.8647211918
100
AcDbArc
 50
0.324542087
 51
1.8972278676
  0
ARC
  5
26F
100
AcDbEntity
  8
0
100
AcDbCircle
 62
7
  6
CONTINUOUS
 10
-108.9271598359
 20
36.9558163596
 40
123.8581320519
100
AcDbArc
 50
358.1027543663
 51
359.9997282136
  0
ARC
  5
270
100
AcDbEntity
  8
0
100
AcDbCircle
 62
7
  6
CONTINUOUS
 10
-108.8741032493
 20
36.9552245169
 40
123.805075464
100
AcDbArc
 50
0.0000019961
 51
0.3243453396
  0
ARC
  5
271
100
AcDbEntity
  8
0
100
AcDbCircle
 62
7
  6
CONTINUOUS
 10
-109.1826112485
 20
36.9557734783
 40
123.7843154886
100
AcDbArc
 50
358.101642423
 51
1.8983575767
  0
ARC
  5
272
100
AcDbEntity
  8
0
100
AcDbCircle
 62
7
  6
CONTINUOUS
 10
-106.1874134231
 20
36.953525986
 40
121.4540954099
100
AcDbArc
 50
1.0622981547
 51
1.7701415309
  0
ARC
  5
273
100
AcDbEntity
  8
0
100
AcDbCircle
 62
7
  6
CONTINUOUS
 10
-89.5072663019
 20
36.9484001235
 40
108.5102206049
100
AcDbArc
 50
1.9840845757
 51
2.90899441
  0
ARC
  5
274
100
AcDbEntity
  8
0
100
AcDbCircle
 62
7
  6
CONTINUOUS
 10
-89.0563416893
 20
36.9564773988
 40
108.0592957103
100
AcDbArc
 50
0.2644562718
 51
1.1924311269
  0
ARC
  5
275
100
AcDbEntity
  8
0
100
AcDbCircle
 62
7
  6
CONTINUOUS
 10
12.7153786245
 20
27.92945349
 40
1.4742267861
100
AcDbArc
 50
265.0419814112
 51
270.000878325
  0
ARC
  5
276
100
AcDbEntity
  8
0
100
AcDbCircle
 62
7
  6
CONTINUOUS
 10
13.2841362441
 20
27.9202142306
 40
1.4649854029
100
AcDbArc
 50
262.5392917351
 51
269.9967763015
  0
ARC
  5
277
100
AcDbEntity
  8
0
100
AcDbCircle
 62
7
  6
CONTINUOUS
 10
12.676957694
 20
27.8802288301
 40
1.425
100
AcDbArc
 50
180.0
 51
262.4351960891
  0
ARC
  5
278
100
AcDbEntity
  8
0
100
AcDbCircle
 62
7
  6
CONTINUOUS
 10
12.676957694
 20
46.0302288301
 40
1.425
100
AcDbArc
 50
90.0
 51
180.0
  0
ARC
  5
279
100
AcDbEntity
  8
0
100
AcDbCircle
 62
7
  6
CONTINUOUS
 10
101.6221640101
 20
-382.0208290318
 40
479.7607015037
100
AcDbArc
 50
92.6335993239
 51
92.828878398
  0
ARC
  5
27A
100
AcDbEntity
  8
0
100
AcDbCircle
 62
7
  6
CONTINUOUS
 10
80.3669576938
 20
-37.7927711697
 40
150.9999999998
100
AcDbArc
 50
102.1672780092
 51
102.579583822
  0
ARC
  5
27B
100
AcDbEntity
  8
0
100
AcDbCircle
 62
7
  6
CONTINUOUS
 10
221.4509749306
 20
36.9535555849
 40
134.8320826081
100
AcDbArc
 50
176.2571402049
 51
178.2567589025
  0
ARC
  5
27C
100
AcDbEntity
  8
0
100
AcDbCircle
 62
7
  6
CONTINUOUS
 10
221.4373997259
 20
36.9749750972
 40
134.515269573
100
AcDbArc
 50
178.2617796189
 51
178.4748374173
  0
ARC
  5
27D
100
AcDbEntity
  8
0
100
AcDbCircle
 62
7
  6
CONTINUOUS
 10
208.7385017712
 20
36.9532027991
 40
124.615519073
100
AcDbArc
 50
178.3436281423
 51
178.8027029932
  0
ARC
  5
27E
100
AcDbEntity
  8
0
100
AcDbCircle
 62
7
  6
CONTINUOUS
 10
208.6790085428
 20
36.9555762183
 40
124.5560021819
100
AcDbArc
 50
180.0001597986
 51
181.6563910476
  0
ARC
  5
27F
100
AcDbEntity
  8
0
100
AcDbCircle
 62
7
  6
CONTINUOUS
 10
208.650779374
 20
36.9552518657
 40
124.5277730126
100
AcDbArc
 50
178.8028022089
 51
180.0000105988
  0
ARC
  5
280
100
AcDbEntity
  8
0
100
AcDbCircle
 62
7
  6
CONTINUOUS
 10
207.437045977
 20
36.9544345878
 40
123.8641063772
100
AcDbArc
 50
178.1027502379
 51
179.6754438442
  0
ARC
  5
281
100
AcDbEntity
  8
0
100
AcDbCircle
 62
7
  6
CONTINUOUS
 10
207.4310741284
 20
36.9557855241
 40
123.8581309564
100
AcDbArc
 50
180.0002575222
 51
181.8972313784
  0
ARC
  5
282
100
AcDbEntity
  8
0
100
AcDbCircle
 62
7
  6
CONTINUOUS
 10
207.3810060527
 20
36.9552243068
 40
123.8080628794
100
AcDbArc
 50
179.675662399
 51
179.9999979067
  0
ARC
  5
283
100
AcDbEntity
  8
0
100
AcDbCircle
 62
7
  6
CONTINUOUS
 10
207.6865266364
 20
36.9546841819
 40
123.7843154885
100
AcDbArc
 50
178.101642423
 51
181.8983575767
  0
ARC
  5
284
100
AcDbEntity
  8
0
100
AcDbCircle
 62
7
  6
CONTINUOUS
 10
204.6913288937
 20
36.9535259849
 40
121.4540954543
100
AcDbArc
 50
178.2298584692
 51
178.9377018451
  0
ARC
  5
285
100
AcDbEntity
  8
0
100
AcDbCircle
 62
7
  6
CONTINUOUS
 10
188.011181854
 20
36.9393267211
 40
108.5105353099
100
AcDbArc
 50
177.086239513
 51
178.0111273581
  0
ARC
  5
286
100
AcDbEntity
  8
0
100
AcDbCircle
 62
7
  6
CONTINUOUS
 10
187.5606043978
 20
36.9478664939
 40
108.0598221723
100
AcDbArc
 50
178.8030079927
 51
179.7310037349
  0
ARC
  5
287
100
AcDbEntity
  8
0
100
AcDbCircle
 62
7
  6
CONTINUOUS
 10
119.9334400854
 20
53.3039914086
 40
35.425232967
100
AcDbArc
 50
178.9042211465
 51
179.9979986292
  0
ARC
  5
288
100
AcDbEntity
  8
0
100
AcDbCircle
 62
7
  6
CONTINUOUS
 10
119.7482691452
 20
53.3064791039
 40
35.2400472128
100
AcDbArc
 50
178.1319500618
 51
178.7470709515
  0
ARC
  5
289
100
AcDbEntity
  8
0
100
AcDbCircle
 62
7
  6
CONTINUOUS
 10
119.2952586832
 20
53.3039279109
 40
35.0872124879
100
AcDbArc
 50
178.8941319952
 51
179.9978756598
  0
ARC
  5
28A
100
AcDbEntity
  8
0
100
AcDbCircle
 62
7
  6
CONTINUOUS
 10
119.5001375721
 20
53.3111596663
 40
34.9918726282
100
AcDbArc
 50
178.7458491213
 51
178.9023881785
  0
ARC
  5
28B
100
AcDbEntity
  8
0
100
AcDbCircle
 62
7
  6
CONTINUOUS
 10
119.0578108456
 20
53.3076845303
 40
34.8497363848
100
AcDbArc
 50
178.7349785107
 51
178.8927726931
  0
ARC
  5
28C
100
AcDbEntity
  8
0
100
AcDbCircle
 62
7
  6
CONTINUOUS
 10
85.826957694
 20
27.8802288301
 40
1.425
100
AcDbArc
 50
270.0
 51
360.0
  0
ARC
  5
28D
100
AcDbEntity
  8
0
100
AcDbCircle
 62
7
  6
CONTINUOUS
 10
85.826957694
 20
46.0302288301
 40
1.425
100
AcDbArc
 50
0.0
 51
90.0
  0
ARC
  5
28E
100
AcDbEntity
  8
0
100
AcDbCircle
 62
7
  6
CONTINUOUS
 10
66.059958541
 20
27.2310440267
 40
0.7758152883
100
AcDbArc
 50
270.0278562037
 51
280.2586415998
  0
ARC
  5
28F
100
AcDbEntity
  8
0
100
AcDbCircle
 62
7
  6
CONTINUOUS
 10
-1.7305175995
 20
542.9746319917
 40
445.8541384761
100
AcDbArc
 50
272.6609824971
 51
272.8711211873
  0
ARC
  5
290
100
AcDbEntity
  8
0
100
AcDbCircle
 62
7
  6
CONTINUOUS
 10
48.1333841399
 20
104.8554461726
 40
34.0730658127
100
AcDbArc
 50
7.0802093841
 51
7.9282257079
  0
ARC
  5
291
100
AcDbEntity
  8
0
100
AcDbCircle
 62
7
  6
CONTINUOUS
 10
49.032102001
 20
111.1682820261
 40
33.1700411574
100
AcDbArc
 50
356.347584979
 51
357.2126170777
  0
ARC
  5
292
100
AcDbEntity
  8
0
100
AcDbCircle
 62
7
  6
CONTINUOUS
 10
87.2481592421
 20
97.8731256598
 40
6.739080872
100
AcDbArc
 50
154.3445952615
 51
154.680212615
  0
ARC
  5
293
100
AcDbEntity
  8
0
100
AcDbCircle
 62
7
  6
CONTINUOUS
 10
1505.9608268046
 20
129.4124725214
 40
1422.335985705
100
AcDbArc
 50
183.8925969571
 51
184.0823859707
  0
LINE
  5
294
100
AcDbEntity
  8
0
100
AcDbLine
 62
7
  6
CONTINUOUS
 10
87.2070701218
 20
32.8552288301
 11
87.1732094051
 21
33.3552295079
  0
SPLINE
  5
295
100
AcDbEntity
  8
0
100
AcDbSpline
 62
7
  6
CONTINUOUS
 70
0
 71
3
 72
11
 73
7
 74
0
 42
0.0000001
 43
0.0000001
 44
0.0000000001
 40
0.0
 40
0.0
 40
0.0
 40
0.0
 40
0.2423665793
 40
0.4897925725
 40
0.7423428205
 40
1.0
 40
1.0
 40
1.0
 40
1.0
 10
79.5019580442
 20
37.4552184085
 30
0.0
 10
79.2356302523
 20
37.6749790458
 30
0.0
 10
78.6904217081
 20
38.1107043446
 30
0.0
 10
77.8425754403
 20
38.7431897946
 30
0.0
 10
76.9573028429
 20
39.3609904363
 30
0.0
 10
76.3489374268
 20
39.7590188048
 30
0.0
 10
76.0386921714
 20
39.9552105171
 30
0.0
  0
SPLINE
  5
296
100
AcDbEntity
  8
0
100
AcDbSpline
 62
7
  6
CONTINUOUS
 70
0
 71
3
 72
9
 73
5
 74
0
 42
0.0000001
 43
0.0000001
 44
0.0000000001
 40
0.0
 40
0.0
 40
0.0
 40
0.0
 40
0.2578506769
 40
1.0
 40
1.0
 40
1.0
 40
1.0
 10
22.8931186883
 20
39.9552248409
 30
0.0
 10
22.5782216489
 20
39.7593099868
 30
0.0
 10
21.3686136207
 20
38.9810494948
 30
0.0
 10
20.206313
 20
38.1286904036
 30
0.0
 10
19.3788300556
 20
37.4543819153
 30
0.0
  0
SPLINE
  5
297
100
AcDbEntity
  8
0
100
AcDbSpline
 62
7
  6
CONTINUOUS
 70
0
 71
3
 72
11
 73
7
 74
0
 42
0.0000001
 43
0.0000001
 44
0.0000000001
 40
0.0
 40
0.0
 40
0.0
 40
0.0
 40
0.242416229
 40
0.4898663125
 40
0.7424041241
 40
1.0
 40
1.0
 40
1.0
 40
1.0
 10
18.8631436924
 20
42.4552385371
 30
0.0
 10
19.1409881792
 20
42.2350502854
 30
0.0
 10
19.7093095527
 20
41.7986682102
 30
0.0
 10
20.5917551135
 20
41.1658590326
 30
0.0
 10
21.51184244
 20
40.5484090863
 30
0.0
 10
22.1433703263
 20
40.1510077038
 30
0.0
 10
22.4652261701
 20
39.95524821
 30
0.0
  0
SPLINE
  5
298
100
AcDbEntity
  8
0
100
AcDbSpline
 62
7
  6
CONTINUOUS
 70
0
 71
3
 72
10
 73
6
 74
0
 42
0.0000001
 43
0.0000001
 44
0.0000000001
 40
0.0
 40
0.0
 40
0.0
 40
0.0
 40
0.242386467
 40
0.6154128824
 40
1.0
 40
1.0
 40
1.0
 40
1.0
 10
19.2404766573
 20
42.4552389985
 30
0.0
 10
19.5221930998
 20
42.2346653986
 30
0.0
 10
20.2466012426
 20
41.6862161998
 30
0.0
 10
21.4588772676
 20
40.8430455124
 30
0.0
 10
22.4055673872
 20
40.2468367575
 30
0.0
 10
22.8926623593
 20
39.9552490999
 30
0.0
  0
SPLINE
  5
299
100
AcDbEntity
  8
0
100
AcDbSpline
 62
7
  6
CONTINUOUS
 70
0
 71
3
 72
11
 73
7
 74
0
 42
0.0000001
 43
0.0000001
 44
0.0000000001
 40
0.0
 40
0.0
 40
0.0
 40
0.0
 40
0.257561905
 40
0.5100738102
 40
0.7575505541
 40
1.0
 40
1.0
 40
1.0
 40
1.0
 10
76.0386777665
 20
39.9552320031
 30
0.0
 10
76.3604978574
 20
40.1509698325
 30
0.0
 10
76.9918495762
 20
40.5485203594
 30
0.0
 10
77.9117948676
 20
41.1661292775
 30
0.0
 10
78.7944348
 20
41.7987828164
 30
0.0
 10
79.36301327
 20
42.235002904
 30
0.0
 10
79.6409011152
 20
42.4552265909
 30
0.0
  0
SPLINE
  5
29A
100
AcDbEntity
  8
0
100
AcDbSpline
 62
7
  6
CONTINUOUS
 70
0
 71
3
 72
11
 73
7
 74
0
 42
0.0000001
 43
0.0000001
 44
0.0000000001
 40
0.0
 40
0.0
 40
0.0
 40
0.0
 40
0.2576236364
 40
0.5101484233
 40
0.7576007702
 40
1.0
 40
1.0
 40
1.0
 40
1.0
 10
22.4652427927
 20
39.9552250089
 30
0.0
 10
22.1550312253
 20
39.7590545631
 30
0.0
 10
21.5468368397
 20
39.3608854575
 30
0.0
 10
20.6617024056
 20
38.7429340408
 30
0.0
 10
19.813663022
 20
38.1105977555
 30
0.0
 10
19.2682006328
 20
37.6750268824
 30
0.0
 10
19.0018317256
 20
37.4552312358
 30
0.0
  0
LINE
  5
29B
100
AcDbEntity
  8
0
100
AcDbLine
 62
7
  6
CONTINUOUS
 10
87.0829714261
 20
45.7552288301
 11
87.2847014814
 21
45.5552288301
  0
LINE
  5
29C
100
AcDbEntity
  8
0
100
AcDbLine
 62
7
  6
CONTINUOUS
 10
87.2847014814
 20
40.7552288301
 11
87.0829714261
 21
40.5552288301
  0
SPLINE
  5
29D
100
AcDbEntity
  8
0
100
AcDbSpline
 62
7
  6
CONTINUOUS
 70
0
 71
3
 72
9
 73
5
 74
0
 42
0.0000001
 43
0.0000001
 44
0.0000000001
 40
0.0
 40
0.0
 40
0.0
 40
0.0
 40
0.2577812768
 40
1.0
 40
1.0
 40
1.0
 40
1.0
 10
75.6107947864
 20
39.9552321431
 30
0.0
 10
75.9372294686
 20
40.1506443546
 30
0.0
 10
77.1921540444
 20
40.9275079655
 30
0.0
 10
78.4006610485
 20
41.7799147847
 30
0.0
 10
79.263164761
 20
42.4552264857
 30
0.0
  0
SPLINE
  5
29E
100
AcDbEntity
  8
0
100
AcDbSpline
 62
7
  6
CONTINUOUS
 70
0
 71
3
 72
10
 73
6
 74
0
 42
0.0000001
 43
0.0000001
 44
0.0000000001
 40
0.0
 40
0.0
 40
0.0
 40
0.0
 40
0.2423289755
 40
0.6153323749
 40
1.0
 40
1.0
 40
1.0
 40
1.0
 10
79.1253321315
 20
37.4543690882
 30
0.0
 10
78.8550911223
 20
37.67458502
 30
0.0
 10
78.1595820768
 20
38.2224413207
 30
0.0
 10
76.9934257257
 20
39.0657066244
 30
0.0
 10
76.0810833892
 20
39.6628871117
 30
0.0
 10
75.6112291592
 20
39.9552096726
 30
0.0
  0
SPLINE
  5
29F
100
AcDbEntity
  8
0
100
AcDbSpline
 62
7
  6
CONTINUOUS
 70
0
 71
3
 72
9
 73
5
 74
0
 42
0.0000001
 43
0.0000001
 44
0.0000000001
 40
0.0
 40
0.0
 40
0.0
 40
0.0
 40
0.7476004736
 40
1.0
 40
1.0
 40
1.0
 40
1.0
 10
72.9858221736
 20
26.4552288301
 30
0.0
 10
73.0117193912
 20
26.4552288258
 30
0.0
 10
73.0464688547
 20
26.4584010622
 30
0.0
 10
73.0803644703
 20
26.465576332
 30
0.0
 10
73.0888628059
 20
26.4676311855
 30
0.0
  0
SPLINE
  5
2A0
100
AcDbEntity
  8
0
100
AcDbSpline
 62
7
  6
CONTINUOUS
 70
0
 71
3
 72
9
 73
5
 74
0
 42
0.0000001
 43
0.0000001
 44
0.0000000001
 40
0.0
 40
0.0
 40
0.0
 40
0.0
 40
0.5317936513
 40
1.0
 40
1.0
 40
1.0
 40
1.0
 10
79.5785314298
 20
97.2331491756
 30
0.0
 10
80.0402450399
 20
97.3030470813
 30
0.0
 10
80.907385188
 20
97.4417816494
 30
0.0
 10
81.7712820983
 20
97.5998033454
 30
0.0
 10
82.1744903455
 20
97.6801608071
 30
0.0
  0
SPLINE
  5
2A1
100
AcDbEntity
  8
0
100
AcDbSpline
 62
7
  6
CONTINUOUS
 70
0
 71
3
 72
10
 73
6
 74
0
 42
0.0000001
 43
0.0000001
 44
0.0000000001
 40
0.0
 40
0.0
 40
0.0
 40
0.0
 40
0.2265695698
 40
0.475691967
 40
1.0
 40
1.0
 40
1.0
 40
1.0
 10
81.1734555099
 20
100.7908620366
 30
0.0
 10
81.22680081
 20
100.9019494067
 30
0.0
 10
81.3439036233
 20
101.1327183504
 30
0.0
 10
81.5991939222
 20
101.6129915552
 30
0.0
 10
81.8046701465
 20
101.9801432024
 30
0.0
 10
81.9466282441
 20
102.2274720165
 30
0.0
  0
SPLINE
  5
2A2
100
AcDbEntity
  8
0
100
AcDbSpline
 62
7
  6
CONTINUOUS
 70
0
 71
3
 72
14
 73
10
 74
0
 42
0.0000001
 43
0.0000001
 44
0.0000000001
 40
0.0
 40
0.0
 40
0.0
 40
0.0
 40
0.4229636774
 40
0.5951654367
 40
0.7387106252
 40
0.852059493
 40
0.9338592493
 40
0.9833752004
 40
1.0
 40
1.0
 40
1.0
 40
1.0
 10
84.2165682681
 20
54.0770620329
 30
0.0
 10
84.2177453389
 20
54.1303789021
 30
0.0
 10
84.2195864936
 20
54.205587684
 30
0.0
 10
84.2221179523
 20
54.2982689995
 30
0.0
 10
84.223773747
 20
54.3532558871
 30
0.0
 10
84.2249004882
 20
54.393553271
 30
0.0
 10
84.2263025134
 20
54.4298657777
 30
0.0
 10
84.2261482239
 20
54.4387977322
 30
0.0
 10
84.227213624
 20
54.4572565429
 30
0.0
 10
84.2269576576
 20
54.455176073
 30
0.0
  0
SPLINE
  5
2A3
100
AcDbEntity
  8
0
100
AcDbSpline
 62
7
  6
CONTINUOUS
 70
0
 71
3
 72
9
 73
5
 74
0
 42
0.0000001
 43
0.0000001
 44
0.0000000001
 40
0.0
 40
0.0
 40
0.0
 40
0.0
 40
0.5361759238
 40
1.0
 40
1.0
 40
1.0
 40
1.0
 10
20.6023594748
 20
97.6801608079
 30
0.0
 10
20.0613145002
 20
97.5976338805
 30
0.0
 10
19.0535072526
 20
97.4351734185
 30
0.0
 10
18.0496370574
 20
97.2494265468
 30
0.0
 10
17.5856529954
 20
97.1552288363
 30
0.0
  0
SPLINE
  5
2A4
100
AcDbEntity
  8
0
100
AcDbSpline
 62
7
  6
CONTINUOUS
 70
0
 71
3
 72
9
 73
5
 74
0
 42
0.0000001
 43
0.0000001
 44
0.0000000001
 40
0.0
 40
0.0
 40
0.0
 40
0.0
 40
0.4682743836
 40
1.0
 40
1.0
 40
1.0
 40
1.0
 10
16.3627828328
 20
97.1552288338
 30
0.0
 10
16.7677939911
 20
97.2343967035
 30
0.0
 10
17.635101055
 20
97.3911888365
 30
0.0
 10
18.5053187593
 20
97.5306073339
 30
0.0
 10
18.9685577437
 20
97.6012457676
 30
0.0
  0
LINE
  5
2A5
100
AcDbEntity
  8
0
100
AcDbLine
 62
7
  6
CONTINUOUS
 10
82.0558065535
 20
102.0906340602
 11
82.0821415306
 21
102.1361939502
  0
LINE
  5
2A6
100
AcDbEntity
  8
0
100
AcDbLine
 62
7
  6
CONTINUOUS
 10
82.0821415306
 20
102.1361939502
 11
82.1347703288
 21
102.2274718013
  0
SPLINE
  5
2A7
100
AcDbEntity
  8
0
100
AcDbSpline
 62
7
  6
CONTINUOUS
 70
0
 71
3
 72
10
 73
6
 74
0
 42
0.0000001
 43
0.0000001
 44
0.0000000001
 40
0.0
 40
0.0
 40
0.0
 40
0.0
 40
0.2300639262
 40
0.4801067098
 40
1.0
 40
1.0
 40
1.0
 40
1.0
 10
81.2543002238
 20
100.7552288301
 30
0.0
 10
81.3191791795
 20
100.8555206921
 30
0.0
 10
81.4507371203
 20
101.0672814859
 30
0.0
 10
81.7187243879
 20
101.5119637134
 30
0.0
 10
81.9206369784
 20
101.8569919343
 30
0.0
 10
82.0558065535
 20
102.0906342467
 30
0.0
  0
ENDSEC
  0
SECTION
  2
OBJECTS
  0
DICTIONARY
  5
C
100
AcDbDictionary
280
0
281
1
  3
ACAD_GROUP
350
D
  3
ACAD_MLINESTYLE
350
17
  3
ACAD_LAYOUT
350
1A
  3
ACAD_PLOTSETTINGS
350
19
  3
ACAD_PLOTSTYLENAME
350
E
  0
DICTIONARY
  5
D
102
{ACAD_REACTORS
330
C
102
}
100
AcDbDictionary
280
0
281
1
  0
ACDBDICTIONARYWDFLT
  5
E
102
{ACAD_REACTORS
330
C
102
}
100
AcDbDictionary
281
1
  3
Normal
350
F
100
AcDbDictionaryWithDefault
340
F
  0
DICTIONARY
  5
17
102
{ACAD_REACTORS
330
C
102
}
100
AcDbDictionary
280
0
281
1
  3
Standard
350
18
  0
DICTIONARY
  5
19
102
{ACAD_REACTORS
330
C
102
}
100
AcDbDictionary
281
1
  0
DICTIONARY
  5
1A
102
{ACAD_REACTORS
330
C
102
}
100
AcDbDictionary
281
1
  3
Model
350
2A8
  3
Layout1
350
2A9
  0
ACDBPLACEHOLDER
  5
F
102
{ACAD_REACTORS
330
E
102
}
  0
MLINESTYLE
  5
18
102
{ACAD_REACTORS
330
17
102
}
100
AcDbMlineStyle
  2
STANDARD
 70
0
  3

 62
256
 51
90.0
 52
90.0
 71
2
 49
0.5
 62
256
  6
BYLAYER
 49
-0.5
 62
256
  6
BYLAYER
  0
LAYOUT
  5
2A8
102
{ACAD_REACTORS
330
1A
102
}
100
AcDbPlotSettings
  1

  2
none_device
  4

  6

 40
0.0
 41
0.0
 42
0.0
 43
0.0
 44
210.0
 45
297.0
 46
0.0
 47
0.0
 48
0.0
 49
0.0
140
0.0
141
0.0
142
1.0
143
1.0
 70
1024
 72
1
 73
0
 74
0
  7

 75
0
147
1.0
148
0.0
149
0.0
100
AcDbLayout
  1
Model
 70
0
 71
0
 10
0.0
 20
0.0
 11
210.0
 21
297.0
 12
0.0
 22
0.0
 32
0.0
 14
0.0
 24
0.0
 34
0.0
 15
0.0
 25
0.0
 35
0.0
146
0.0
 13
0.0
 23
0.0
 33
0.0
 16
1.0
 26
0.0
 36
0.0
 17
0.0
 27
1.0
 37
0.0
 76
0
330
210
345
0
346
0
  0
LAYOUT
  5
2A9
102
{ACAD_REACTORS
330
1A
102
}
100
AcDbPlotSettings
  1

  2
none_device
  4

  6

 40
0.0
 41
0.0
 42
0.0
 43
0.0
 44
210.0
 45
297.0
 46
0.0
 47
0.0
 48
0.0
 49
0.0
140
0.0
141
0.0
142
1.0
143
1.0
 70
0
 72
1
 73
0
 74
0
  7

 75
0
147
1.0
148
0.0
149
0.0
100
AcDbLayout
  1
Layout1
 70
0
 71
1
 10
0.0
 20
0.0
 11
210.0
 21
297.0
 12
0.0
 22
0.0
 32
0.0
 14
0.0
 24
0.0
 34
0.0
 15
0.0
 25
0.0
 35
0.0
146
0.0
 13
0.0
 23
0.0
 33
0.0
 16
1.0
 26
0.0
 36
0.0
 17
0.0
 27
1.0
 37
0.0
 76
0
330
211
345
0
346
0
  0
ENDSEC
  0
EOF
