999
DXF file: C:\Users\sesa63760\Dev\_Creo\CAD\MCADPP0003388_3D-CAD\drw0001_1.dxf
999
Pro/ENGINEER 2019471 by Parametric Technology Corporation
  0
SECTION
  2
HEADER
  9
$ACADVER
  1
AC1024
  9
$DWGCODEPAGE
  3
ANSI_1252
  9
$EXTMAX
 10
464.3744301277
 20
656.7581226091
 30
0.0
  9
$EXTMIN
 10
0.0
 20
0.0
 30
0.0
  9
$LIMMIN
 10
0.0
 20
0.0
  9
$LIMMAX
 10
464.3744301277
 20
656.7581226091
  9
$VIEWCTR
 10
232.1872150638
 20
328.3790613046
  9
$VIEWSIZE
 40
656.7581226091
  9
$CLAYER
  8
0
  9
$LTSCALE
 40
42.8108998442
  9
$CELTYPE
  6
BYLAYER
  9
$DIMSCALE
 40
1.0
  9
$DIMASZ
 40
5.5282670253
  9
$DIMEXO
 40
1.0
  9
$DIMDLI
 40
29.5784398923
  9
$DIMEXE
 40
1.0
  9
$DIMCEN
 40
7.0054199745
  9
$DIMLFAC
 40
1.0
  9
$DIMBLK
  1
_FILLED
  9
$DIMALT
 70
0
  9
$DIMALTF
 40
0.0393700787
  9
$DIMTXT
 40
7.7395738355
  9
$DIMTOL
 70
1
  9
$DIMLIM
 70
0
  9
$DIMTFAC
 40
1.0
  9
$DIMTP
 40
0.01
  9
$DIMTM
 40
0.01
  9
$DIMGAP
 40
0.625
  9
$DIMDSEP
 70
46
  9
$AUNITS
 70
0
  9
$PDMODE
 70
3
  9
$PDSIZE
 40
0.3125
  9
$HANDSEED
  5
412
  9
$TILEMODE
 70
1
  9
$MEASUREMENT
 70
1
  9
$INSUNITS
 70
4
  0
ENDSEC
  0
SECTION
  2
CLASSES
  0
CLASS
  1
ACDBDICTIONARYWDFLT
  2
AcDbDictionaryWithDefault
  3
AutoCAD 2000
 90
0
 91
1
280
0
281
0
  0
CLASS
  1
ACDBPLACEHOLDER
  2
AcDbPlaceHolder
  3
AutoCAD 2000
 90
0
 91
1
280
0
281
0
  0
CLASS
  1
LAYOUT
  2
AcDbLayout
  3
AutoCAD 2000
 90
0
 91
0
280
0
281
0
  0
ENDSEC
  0
SECTION
  2
TABLES
  0
TABLE
  2
VPORT
  5
8
100
AcDbSymbolTable
 70
2
  0
VPORT
  5
1F4
100
AcDbSymbolTableRecord
100
AcDbViewportTableRecord
  2
*ACTIVE
 70
0
 10
0.0
 20
0.0
 11
1.0
 21
1.0
 12
232.1872150638
 22
328.3790613046
 13
0.0
 23
0.0
 14
1.0
 24
1.0
 15
0.0
 25
0.0
 16
0.0
 26
0.0
 36
1.0
 17
0.0
 27
0.0
 37
0.0
 40
656.7581226091
 41
0.7070707071
 42
50.0
 43
0.0
 44
0.0
 50
0.0
 51
0.0
 71
0
 72
100
 73
1
 74
1
 75
0
 76
0
 77
0
 78
0
  0
ENDTAB
  0
TABLE
  2
LTYPE
  5
5
100
AcDbSymbolTable
 70
6
  0
LTYPE
  5
14
100
AcDbSymbolTableRecord
100
AcDbLinetypeTableRecord
  2
BYBLOCK
 70
0
  3

 72
65
 73
0
 40
0.0
  0
LTYPE
  5
15
100
AcDbSymbolTableRecord
100
AcDbLinetypeTableRecord
  2
BYLAYER
 70
0
  3

 72
65
 73
0
 40
0.0
  0
LTYPE
  5
16
100
AcDbSymbolTableRecord
100
AcDbLinetypeTableRecord
  2
CONTINUOUS
 70
64
  3
Solid line
 72
65
 73
0
 40
0.0
  0
LTYPE
  5
1F5
100
AcDbSymbolTableRecord
100
AcDbLinetypeTableRecord
  2
CENTER
 70
64
  3
____ _ ____ _ ____ _ ____ _ ____ _ ____ _ ____
 72
65
 73
4
 40
0.6
 49
0.375
 74
0
 49
-0.075
 74
0
 49
0.075
 74
0
 49
-0.075
 74
0
  0
LTYPE
  5
1F6
100
AcDbSymbolTableRecord
100
AcDbLinetypeTableRecord
  2
HIDDEN
 70
64
  3
- - - - - - - - - - - - - - - - - - - -
 72
65
 73
2
 40
0.2
 49
0.1
 74
0
 49
-0.1
 74
0
  0
LTYPE
  5
1F7
100
AcDbSymbolTableRecord
100
AcDbLinetypeTableRecord
  2
PHANTOM
 70
64
  3
_____ _ _ _____ _ _ _____ _ _ _____
 72
65
 73
6
 40
0.8
 49
0.45
 74
0
 49
-0.05
 74
0
 49
0.1
 74
0
 49
-0.05
 74
0
 49
0.1
 74
0
 49
-0.05
 74
0
  0
LTYPE
  5
1F8
100
AcDbSymbolTableRecord
100
AcDbLinetypeTableRecord
  2
DOT
 70
64
  3
. . . . . . . . . . . . . . . . . . . .
 72
65
 73
2
 40
0.2
 49
0.1
 74
0
 49
-0.1
 74
0
  0
LTYPE
  5
1F9
100
AcDbSymbolTableRecord
100
AcDbLinetypeTableRecord
  2
DASHED
 70
64
  3
- - - - - - - - - - - - - - - - - - - -
 72
65
 73
2
 40
0.2
 49
0.1
 74
0
 49
-0.1
 74
0
  0
ENDTAB
  0
TABLE
  2
LAYER
  5
2
100
AcDbSymbolTable
 70
36
  0
LAYER
  5
10
100
AcDbSymbolTableRecord
100
AcDbLayerTableRecord
  2
0
 70
0
 62
7
  6
CONTINUOUS
370
-3
390
F
  0
LAYER
  5
1FA
100
AcDbSymbolTableRecord
100
AcDbLayerTableRecord
  2
DEFAULT_1
 70
0
 62
7
  6
CENTER
370
-3
390
F
  0
LAYER
  5
1FB
100
AcDbSymbolTableRecord
100
AcDbLayerTableRecord
  2
DEFAULT_2
 70
0
 62
8
  6
HIDDEN
370
-3
390
F
  0
LAYER
  5
1FC
100
AcDbSymbolTableRecord
100
AcDbLayerTableRecord
  2
DEFAULT_3
 70
0
 62
7
  6
PHANTOM
370
-3
390
F
  0
LAYER
  5
1FD
100
AcDbSymbolTableRecord
100
AcDbLayerTableRecord
  2
00_COMPONENTS
 70
0
 62
7
  6
CONTINUOUS
370
-3
390
F
  0
LAYER
  5
1FE
100
AcDbSymbolTableRecord
100
AcDbLayerTableRecord
  2
01_1_DEFAULT_DATUMS
 70
0
 62
7
  6
CONTINUOUS
370
-3
390
F
  0
LAYER
  5
1FF
100
AcDbSymbolTableRecord
100
AcDbLayerTableRecord
  2
01_PLANES
 70
0
 62
7
  6
CONTINUOUS
370
-3
390
F
  0
LAYER
  5
200
100
AcDbSymbolTableRecord
100
AcDbLayerTableRecord
  2
02_COORD_SYS
 70
0
 62
7
  6
CONTINUOUS
370
-3
390
F
  0
LAYER
  5
201
100
AcDbSymbolTableRecord
100
AcDbLayerTableRecord
  2
03_AXES
 70
0
 62
7
  6
CONTINUOUS
370
-3
390
F
  0
LAYER
  5
202
100
AcDbSymbolTableRecord
100
AcDbLayerTableRecord
  2
04_POINTS
 70
0
 62
7
  6
CONTINUOUS
370
-3
390
F
  0
LAYER
  5
203
100
AcDbSymbolTableRecord
100
AcDbLayerTableRecord
  2
05_CURVES
 70
0
 62
7
  6
CONTINUOUS
370
-3
390
F
  0
LAYER
  5
204
100
AcDbSymbolTableRecord
100
AcDbLayerTableRecord
  2
06_SURFS
 70
0
 62
7
  6
CONTINUOUS
370
-3
390
F
  0
LAYER
  5
205
100
AcDbSymbolTableRecord
100
AcDbLayerTableRecord
  2
07_COSMETICS
 70
0
 62
7
  6
CONTINUOUS
370
-3
390
F
  0
LAYER
  5
206
100
AcDbSymbolTableRecord
100
AcDbLayerTableRecord
  2
10_NOTES
 70
0
 62
7
  6
CONTINUOUS
370
-3
390
F
  0
LAYER
  5
207
100
AcDbSymbolTableRecord
100
AcDbLayerTableRecord
  2
11_NOTES_PUB
 70
0
 62
7
  6
CONTINUOUS
370
-3
390
F
  0
LAYER
  5
208
100
AcDbSymbolTableRecord
100
AcDbLayerTableRecord
  2
13_REF_GTOL
 70
0
 62
7
  6
CONTINUOUS
370
-3
390
F
  0
LAYER
  5
209
100
AcDbSymbolTableRecord
100
AcDbLayerTableRecord
  2
16_MISC
 70
0
 62
7
  6
CONTINUOUS
370
-3
390
F
  0
LAYER
  5
20A
100
AcDbSymbolTableRecord
100
AcDbLayerTableRecord
  2
17_NO_PRINT
 70
0
 62
7
  6
CONTINUOUS
370
-3
390
F
  0
LAYER
  5
20B
100
AcDbSymbolTableRecord
100
AcDbLayerTableRecord
  2
18_DATUM_CAMS_JOINTS
 70
0
 62
7
  6
CONTINUOUS
370
-3
390
F
  0
LAYER
  5
20C
100
AcDbSymbolTableRecord
100
AcDbLayerTableRecord
  2
19_DATUM_FUNCTIONAL
 70
0
 62
7
  6
CONTINUOUS
370
-3
390
F
  0
LAYER
  5
20D
100
AcDbSymbolTableRecord
100
AcDbLayerTableRecord
  2
20_DATUM_KINEMATIC_SCHEME
 70
0
 62
7
  6
CONTINUOUS
370
-3
390
F
  0
ENDTAB
  0
TABLE
  2
STYLE
  5
3
100
AcDbSymbolTable
 70
1
  0
STYLE
  5
11
100
AcDbSymbolTableRecord
100
AcDbTextStyleTableRecord
  2
STANDARD
 70
0
 40
0.0
 41
0.8
 50
0.0
 71
0
 42
0.2
  3
txt
  4

  0
STYLE
  5
20E
100
AcDbSymbolTableRecord
100
AcDbTextStyleTableRecord
  2
TEXTSTYLE_1
 70
0
 40
0.0
 41
0.8
 50
0.0
 71
0
 42
0.2
  3
gdt
  4

  0
ENDTAB
  0
TABLE
  2
VIEW
  5
6
100
AcDbSymbolTable
 70
0
  0
ENDTAB
  0
TABLE
  2
UCS
  5
7
100
AcDbSymbolTable
 70
0
  0
ENDTAB
  0
TABLE
  2
APPID
  5
9
100
AcDbSymbolTable
 70
1
  0
APPID
  5
20F
100
AcDbSymbolTableRecord
100
AcDbRegAppTableRecord
  2
ACAD
 70
0
  0
ENDTAB
  0
TABLE
  2
BLOCK_RECORD
  5
1
100
AcDbSymbolTable
 70
0
  0
BLOCK_RECORD
  5
210
100
AcDbSymbolTableRecord
100
AcDbBlockTableRecord
  2
*Model_Space
  0
BLOCK_RECORD
  5
211
100
AcDbSymbolTableRecord
100
AcDbBlockTableRecord
  2
*Paper_Space
  0
BLOCK_RECORD
  5
212
100
AcDbSymbolTableRecord
100
AcDbBlockTableRecord
  2
_FILLED
  0
ENDTAB
  0
TABLE
  2
DIMSTYLE
  5
A
100
AcDbSymbolTable
 70
1
100
AcDbDimStyleTable
 71
0
  0
DIMSTYLE
105
213
100
AcDbSymbolTableRecord
100
AcDbDimStyleTableRecord
  2
STANDARD
 70
0
  3

  4

 40
1.0
 41
5.5282670253
 42
1.0
 43
0.38
 44
1.0
 45
0.0
 46
0.0
 47
0.01
 48
0.01
140
7.7395738355
141
0.09
142
0.0
143
25.4
144
1.0
145
0.0
146
1.0
147
0.625
 71
1
 72
0
 73
0
 74
0
 75
0
 76
0
 77
1
 78
8
 79
2
170
0
171
1
172
0
173
0
174
0
175
0
176
0
177
0
178
0
270
2
179
2
271
2
272
2
273
2
274
2
275
0
280
0
281
0
282
0
283
1
284
8
285
0
286
0
287
3
288
0
340
11
278
46
341
212
342
212
343
212
344
212
  0
ENDTAB
  0
ENDSEC
  0
SECTION
  2
BLOCKS
  0
BLOCK
  5
20
100
AcDbEntity
  8
0
100
AcDbBlockBegin
  2
*Model_Space
 70
0
 10
0.0
 20
0.0
 30
0.0
  3
*Model_Space
  1

  0
ENDBLK
  5
21
100
AcDbEntity
  8
0
100
AcDbBlockEnd
  0
BLOCK
  5
1C
100
AcDbEntity
  8
0
100
AcDbBlockBegin
  2
*Paper_Space
 70
0
 10
0.0
 20
0.0
 30
0.0
  3
*Paper_Space
  1

  0
ENDBLK
  5
1D
100
AcDbEntity
  8
0
100
AcDbBlockEnd
  0
BLOCK
  5
214
100
AcDbEntity
  8
0
100
AcDbBlockBegin
  2
_FILLED
 70
64
 10
0.0
 20
0.0
  3
_FILLED
  1

  0
SOLID
  5
215
100
AcDbEntity
  8
0
  6
BYBLOCK
 62
0
100
AcDbTrace
 10
0.0
 20
0.0
 11
-1.0
 21
0.25
 12
-1.0
 22
-0.25
 13
-1.0
 23
-0.25
  0
ENDBLK
  5
216
100
AcDbEntity
  8
0
  6
BYBLOCK
 62
0
100
AcDbBlockEnd
  0
ENDSEC
  0
SECTION
  2
ENTITIES
  0
LINE
  5
217
100
AcDbEntity
  8
0
100
AcDbLine
 62
7
  6
CONTINUOUS
 10
53.8727766495
 20
336.273735438
 11
53.8727766495
 21
329.741716101
  0
LINE
  5
218
100
AcDbEntity
  8
0
100
AcDbLine
 62
7
  6
CONTINUOUS
 10
58.4689133198
 20
233.8433475468
 11
58.4689133198
 21
230.3323871532
  0
LINE
  5
219
100
AcDbEntity
  8
0
100
AcDbLine
 62
7
  6
CONTINUOUS
 10
76.3232101383
 20
364.95282181
 11
76.3232101383
 21
349.2354218854
  0
LINE
  5
21A
100
AcDbEntity
  8
0
100
AcDbLine
 62
7
  6
CONTINUOUS
 10
228.3152561962
 20
523.781664834
 11
85.480281079
 21
441.3163457519
  0
LINE
  5
21B
100
AcDbEntity
  8
0
100
AcDbLine
 62
7
  6
CONTINUOUS
 10
58.4689133198
 20
230.3323871532
 11
93.8243995772
 21
209.9203494272
  0
LINE
  5
21C
100
AcDbEntity
  8
0
100
AcDbLine
 62
7
  6
CONTINUOUS
 10
58.4689133198
 20
233.8433475468
 11
93.8243995772
 21
213.4313098208
  0
LINE
  5
21D
100
AcDbEntity
  8
0
100
AcDbLine
 62
7
  6
CONTINUOUS
 10
239.8777572761
 20
134.5792841879
 11
204.5222710187
 21
154.9913219139
  0
LINE
  5
21E
100
AcDbEntity
  8
0
100
AcDbLine
 62
7
  6
CONTINUOUS
 10
102.0972338115
 20
214.6966439886
 11
113.0576239494
 21
208.368802947
  0
LINE
  5
21F
100
AcDbEntity
  8
0
100
AcDbLine
 62
7
  6
CONTINUOUS
 10
239.8777572761
 20
138.0902445815
 11
204.5222710187
 21
158.5022823075
  0
LINE
  5
220
100
AcDbEntity
  8
0
100
AcDbLine
 62
7
  6
CONTINUOUS
 10
81.5911775907
 20
361.9114281888
 11
81.5911775907
 21
412.9428292594
  0
LINE
  5
221
100
AcDbEntity
  8
0
100
AcDbLine
 62
7
  6
CONTINUOUS
 10
82.1571656554
 20
319.9441052572
 11
82.1571656554
 21
313.4120859202
  0
LINE
  5
222
100
AcDbEntity
  8
0
100
AcDbLine
 62
7
  6
CONTINUOUS
 10
85.480281079
 20
441.3163457519
 11
85.480281079
 21
410.6975051096
  0
LINE
  5
223
100
AcDbEntity
  8
0
100
AcDbLine
 62
7
  6
CONTINUOUS
 10
90.571283275
 20
268.0540495774
 11
90.571283275
 21
279.4850834172
  0
LINE
  5
224
100
AcDbEntity
  8
0
100
AcDbLine
 62
7
  6
CONTINUOUS
 10
93.8243995772
 20
213.4313098208
 11
93.8243995772
 21
209.9203494272
  0
LINE
  5
225
100
AcDbEntity
  8
0
100
AcDbLine
 62
7
  6
CONTINUOUS
 10
94.0891940483
 20
320.3010046035
 11
94.0891940483
 21
318.054786977
  0
LINE
  5
226
100
AcDbEntity
  8
0
100
AcDbLine
 62
7
  6
CONTINUOUS
 10
81.5911775907
 20
412.9428292594
 11
85.480281079
 21
415.1881908023
  0
LINE
  5
227
100
AcDbEntity
  8
0
100
AcDbLine
 62
7
  6
CONTINUOUS
 10
80.7426841921
 20
246.7030383938
 11
116.0981704494
 21
226.2910006678
  0
LINE
  5
228
100
AcDbEntity
  8
0
100
AcDbLine
 62
7
  6
CONTINUOUS
 10
263.4243150553
 20
151.6847749055
 11
228.0688287979
 21
172.0968126315
  0
LINE
  5
229
100
AcDbEntity
  8
0
100
AcDbLine
 62
7
  6
CONTINUOUS
 10
100.7537227852
 20
245.6005604828
 11
136.1092090426
 21
225.1885227568
  0
LINE
  5
22A
100
AcDbEntity
  8
0
100
AcDbLine
 62
7
  6
CONTINUOUS
 10
97.1827041529
 20
290.9364638561
 11
97.1827041529
 21
314.1028342251
  0
LINE
  5
22B
100
AcDbEntity
  8
0
100
AcDbLine
 62
7
  6
CONTINUOUS
 10
98.8798225455
 20
263.2572207118
 11
98.8798225455
 21
274.6882545516
  0
LINE
  5
22C
100
AcDbEntity
  8
0
100
AcDbLine
 62
7
  6
CONTINUOUS
 10
100.2233198362
 20
273.177711676
 11
100.2233198362
 21
264.0328846042
  0
LINE
  5
22D
100
AcDbEntity
  8
0
100
AcDbLine
 62
7
  6
CONTINUOUS
 10
105.4912434234
 20
286.1396349905
 11
105.4912434234
 21
318.1057046211
  0
LINE
  5
22E
100
AcDbEntity
  8
0
100
AcDbLine
 62
7
  6
CONTINUOUS
 10
106.622609563
 20
325.4142858773
 11
106.622609563
 21
284.2616681436
  0
LINE
  5
22F
100
AcDbEntity
  8
0
100
AcDbLine
 62
7
  6
CONTINUOUS
 10
109.6213585322
 20
231.002008505
 11
109.6213585322
 21
234.5129688987
  0
LINE
  5
230
100
AcDbEntity
  8
0
100
AcDbLine
 62
7
  6
CONTINUOUS
 10
110.4415546613
 20
303.6144750764
 11
110.4415546613
 21
297.0824557394
  0
LINE
  5
231
100
AcDbEntity
  8
0
100
AcDbLine
 62
7
  6
CONTINUOUS
 10
113.0576239494
 20
221.0245904125
 11
113.0576239494
 21
208.368802947
  0
LINE
  5
232
100
AcDbEntity
  8
0
100
AcDbLine
 62
7
  6
CONTINUOUS
 10
265.5092277389
 20
502.3082011462
 11
122.6742526217
 21
419.8428820642
  0
LINE
  5
233
100
AcDbEntity
  8
0
100
AcDbLine
 62
7
  6
CONTINUOUS
 10
98.8798225455
 20
263.2572207118
 11
90.571283275
 21
268.0540495774
  0
LINE
  5
234
100
AcDbEntity
  8
0
100
AcDbLine
 62
7
  6
CONTINUOUS
 10
270.6367741949
 20
164.1771899297
 11
235.2812879375
 21
184.5892276557
  0
LINE
  5
235
100
AcDbEntity
  8
0
100
AcDbLine
 62
7
  6
CONTINUOUS
 10
107.9661819248
 20
258.0929755071
 11
143.3216681822
 21
237.680937781
  0
LINE
  5
236
100
AcDbEntity
  8
0
100
AcDbLine
 62
7
  6
CONTINUOUS
 10
275.5511761864
 20
162.8095895209
 11
100.2233198362
 21
264.0328846042
  0
LINE
  5
237
100
AcDbEntity
  8
0
100
AcDbLine
 62
7
  6
CONTINUOUS
 10
116.0981704494
 20
213.6352132023
 11
116.0981704494
 21
226.2910006678
  0
LINE
  5
238
100
AcDbEntity
  8
0
100
AcDbLine
 62
7
  6
CONTINUOUS
 10
118.2194613533
 20
334.2325377676
 11
118.2194613533
 21
340.7645571047
  0
LINE
  5
239
100
AcDbEntity
  8
0
100
AcDbLine
 62
7
  6
CONTINUOUS
 10
122.6742526217
 20
419.8428820642
 11
122.6742526217
 21
389.2240414218
  0
LINE
  5
23A
100
AcDbEntity
  8
0
100
AcDbLine
 62
7
  6
CONTINUOUS
 10
284.884034208
 20
491.1224044723
 11
142.0490590908
 21
408.6570853903
  0
LINE
  5
23B
100
AcDbEntity
  8
0
100
AcDbLine
 62
7
  6
CONTINUOUS
 10
76.3232101383
 20
364.95282181
 11
81.5911775907
 21
367.9942660817
  0
LINE
  5
23C
100
AcDbEntity
  8
0
100
AcDbLine
 62
7
  6
CONTINUOUS
 10
122.6742526217
 20
389.2240414218
 11
142.0490590908
 21
400.4100243809
  0
LINE
  5
23D
100
AcDbEntity
  8
0
100
AcDbLine
 62
7
  6
CONTINUOUS
 10
142.0490590908
 20
395.9193386881
 11
139.1639464892
 21
394.2536280939
  0
LINE
  5
23E
100
AcDbEntity
  8
0
100
AcDbLine
 62
7
  6
CONTINUOUS
 10
275.5511761864
 20
171.9544165927
 11
100.2233198362
 21
273.177711676
  0
LINE
  5
23F
100
AcDbEntity
  8
0
100
AcDbLine
 62
7
  6
CONTINUOUS
 10
98.8798225455
 20
274.6882545516
 11
90.571283275
 21
279.4850834172
  0
LINE
  5
240
100
AcDbEntity
  8
0
100
AcDbLine
 62
7
  6
CONTINUOUS
 10
289.1055356558
 20
168.9612532786
 11
287.6559098621
 21
169.7982190505
  0
LINE
  5
241
100
AcDbEntity
  8
0
100
AcDbLine
 62
7
  6
CONTINUOUS
 10
132.5030778013
 20
332.5180938634
 11
132.5030778013
 21
383.549494934
  0
LINE
  5
242
100
AcDbEntity
  8
0
100
AcDbLine
 62
7
  6
CONTINUOUS
 10
138.1599556024
 20
329.2521678272
 11
138.1599556024
 21
380.2835688978
  0
LINE
  5
243
100
AcDbEntity
  8
0
100
AcDbLine
 62
7
  6
CONTINUOUS
 10
138.7259436672
 20
287.2848448956
 11
138.7259436672
 21
280.7528255586
  0
LINE
  5
244
100
AcDbEntity
  8
0
100
AcDbLine
 62
7
  6
CONTINUOUS
 10
142.0490590908
 20
408.6570853903
 11
142.0490590908
 21
378.0382447479
  0
LINE
  5
245
100
AcDbEntity
  8
0
100
AcDbLine
 62
7
  6
CONTINUOUS
 10
97.1827041529
 20
290.9364638561
 11
90.571283275
 21
279.4850834172
  0
LINE
  5
246
100
AcDbEntity
  8
0
100
AcDbLine
 62
7
  6
CONTINUOUS
 10
98.8798225455
 20
274.6882545516
 11
105.4912434234
 21
286.1396349905
  0
LINE
  5
247
100
AcDbEntity
  8
0
100
AcDbLine
 62
7
  6
CONTINUOUS
 10
106.622609563
 20
284.2616681436
 11
100.2233198362
 21
273.177711676
  0
LINE
  5
248
100
AcDbEntity
  8
0
100
AcDbLine
 62
7
  6
CONTINUOUS
 10
132.5030778013
 20
383.549494934
 11
142.0490590908
 21
389.0608369029
  0
LINE
  5
249
100
AcDbEntity
  8
0
100
AcDbLine
 62
7
  6
CONTINUOUS
 10
89.9350723474
 20
357.0941872855
 11
53.8727766495
 21
336.273735438
  0
LINE
  5
24A
100
AcDbEntity
  8
0
100
AcDbLine
 62
7
  6
CONTINUOUS
 10
138.1599556024
 20
380.2835688978
 11
142.0490590908
 21
382.5289304407
  0
LINE
  5
24B
100
AcDbEntity
  8
0
100
AcDbLine
 62
7
  6
CONTINUOUS
 10
281.9504659132
 20
183.0383730603
 11
106.622609563
 21
284.2616681436
  0
LINE
  5
24C
100
AcDbEntity
  8
0
100
AcDbLine
 62
7
  6
CONTINUOUS
 10
105.4912434234
 20
286.1396349905
 11
97.1827041529
 21
290.9364638561
  0
LINE
  5
24D
100
AcDbEntity
  8
0
100
AcDbLine
 62
7
  6
CONTINUOUS
 10
53.8727766495
 20
329.741716101
 11
82.1571656554
 21
313.4120859202
  0
LINE
  5
24E
100
AcDbEntity
  8
0
100
AcDbLine
 62
7
  6
CONTINUOUS
 10
110.4415546613
 20
297.0824557394
 11
138.7259436672
 21
280.7528255586
  0
LINE
  5
24F
100
AcDbEntity
  8
0
100
AcDbLine
 62
7
  6
CONTINUOUS
 10
167.010332673
 20
264.4231953778
 11
195.2947216789
 21
248.093565197
  0
LINE
  5
250
100
AcDbEntity
  8
0
100
AcDbLine
 62
7
  6
CONTINUOUS
 10
167.010332673
 20
270.9552147148
 11
167.010332673
 21
264.4231953778
  0
LINE
  5
251
100
AcDbEntity
  8
0
100
AcDbLine
 62
7
  6
CONTINUOUS
 10
107.9661819248
 20
258.0929755071
 11
100.7537227852
 21
245.6005604828
  0
LINE
  5
252
100
AcDbEntity
  8
0
100
AcDbLine
 62
7
  6
CONTINUOUS
 10
322.0780057507
 20
469.6489407846
 11
179.2430306335
 21
387.1836217025
  0
LINE
  5
253
100
AcDbEntity
  8
0
100
AcDbLine
 62
7
  6
CONTINUOUS
 10
82.1571656554
 20
319.9441052572
 11
118.2194613533
 21
340.7645571047
  0
LINE
  5
254
100
AcDbEntity
  8
0
100
AcDbLine
 62
7
  6
CONTINUOUS
 10
281.5616739118
 20
203.0226158954
 11
261.0554918825
 21
214.8615977765
  0
LINE
  5
255
100
AcDbEntity
  8
0
100
AcDbLine
 62
7
  6
CONTINUOUS
 10
53.8727766495
 20
336.273735438
 11
82.1571656554
 21
319.9441052572
  0
LINE
  5
256
100
AcDbEntity
  8
0
100
AcDbLine
 62
7
  6
CONTINUOUS
 10
110.4415546613
 20
303.6144750764
 11
138.7259436672
 21
287.2848448956
  0
LINE
  5
257
100
AcDbEntity
  8
0
100
AcDbLine
 62
7
  6
CONTINUOUS
 10
167.010332673
 20
270.9552147148
 11
195.2947216789
 21
254.625584534
  0
LINE
  5
258
100
AcDbEntity
  8
0
100
AcDbLine
 62
7
  6
CONTINUOUS
 10
290.5417775353
 20
199.8378245782
 11
311.7550692897
 21
187.5906019426
  0
LINE
  5
259
100
AcDbEntity
  8
0
100
AcDbLine
 62
7
  6
CONTINUOUS
 10
95.7460926142
 20
314.3924977944
 11
89.8006462861
 21
317.8250251782
  0
LINE
  5
25A
100
AcDbEntity
  8
0
100
AcDbLine
 62
7
  6
CONTINUOUS
 10
315.2550829944
 20
189.6113237351
 11
321.1241951328
 21
186.2228669192
  0
LINE
  5
25B
100
AcDbEntity
  8
0
100
AcDbLine
 62
7
  6
CONTINUOUS
 10
92.1438847115
 20
319.1778864384
 11
94.0891940483
 21
318.054786977
  0
LINE
  5
25C
100
AcDbEntity
  8
0
100
AcDbLine
 62
7
  6
CONTINUOUS
 10
296.0217337182
 20
211.3710854835
 11
311.7550692897
 21
202.2876454509
  0
LINE
  5
25D
100
AcDbEntity
  8
0
100
AcDbLine
 62
7
  6
CONTINUOUS
 10
174.7882393651
 20
301.573277406
 11
174.7882393651
 21
308.1052967431
  0
LINE
  5
25E
100
AcDbEntity
  8
0
100
AcDbLine
 62
7
  6
CONTINUOUS
 10
179.2430306335
 20
387.1836217025
 11
179.2430306335
 21
356.5647810602
  0
LINE
  5
25F
100
AcDbEntity
  8
0
100
AcDbLine
 62
7
  6
CONTINUOUS
 10
82.1571656554
 20
313.4120859202
 11
118.2194613533
 21
334.2325377676
  0
LINE
  5
260
100
AcDbEntity
  8
0
100
AcDbLine
 62
7
  6
CONTINUOUS
 10
341.4528122197
 20
458.4631441107
 11
198.6178371025
 21
375.9978250287
  0
LINE
  5
261
100
AcDbEntity
  8
0
100
AcDbLine
 62
7
  6
CONTINUOUS
 10
105.4912434234
 20
318.1057046211
 11
99.7460247461
 21
314.7887208709
  0
LINE
  5
262
100
AcDbEntity
  8
0
100
AcDbLine
 62
7
  6
CONTINUOUS
 10
138.1599556024
 20
335.7840742894
 11
132.5030778013
 21
332.5180938634
  0
LINE
  5
263
100
AcDbEntity
  8
0
100
AcDbLine
 62
7
  6
CONTINUOUS
 10
179.2430306335
 20
356.5647810602
 11
198.6178371025
 21
367.7507640193
  0
LINE
  5
264
100
AcDbEntity
  8
0
100
AcDbLine
 62
7
  6
CONTINUOUS
 10
244.9688795859
 20
245.5418365944
 11
217.9217004335
 21
261.1571794926
  0
LINE
  5
265
100
AcDbEntity
  8
0
100
AcDbLine
 62
7
  6
CONTINUOUS
 10
183.9803358726
 20
280.7527921465
 11
161.3529224218
 21
293.8164398542
  0
LINE
  5
266
100
AcDbEntity
  8
0
100
AcDbLine
 62
7
  6
CONTINUOUS
 10
127.4115578608
 20
313.4120525082
 11
104.78414441
 21
326.4757002159
  0
LINE
  5
267
100
AcDbEntity
  8
0
100
AcDbLine
 62
7
  6
CONTINUOUS
 10
302.3856682531
 20
215.0452828683
 11
318.1190038246
 21
205.9618428357
  0
LINE
  5
268
100
AcDbEntity
  8
0
100
AcDbLine
 62
7
  6
CONTINUOUS
 10
249.6706284937
 20
248.2563763884
 11
261.0554918825
 21
241.6834711451
  0
LINE
  5
269
100
AcDbEntity
  8
0
100
AcDbLine
 62
7
  6
CONTINUOUS
 10
311.0228792347
 20
222.6328368185
 11
318.1190038246
 21
218.5359800595
  0
LINE
  5
26A
100
AcDbEntity
  8
0
100
AcDbLine
 62
7
  6
CONTINUOUS
 10
328.9023373421
 20
213.9430463791
 11
325.013166648
 21
216.1884093294
  0
LINE
  5
26B
100
AcDbEntity
  8
0
100
AcDbLine
 62
7
  6
CONTINUOUS
 10
189.071855813
 20
299.8588335017
 11
189.071855813
 21
350.8902345723
  0
LINE
  5
26C
100
AcDbEntity
  8
0
100
AcDbLine
 62
7
  6
CONTINUOUS
 10
194.7287336142
 20
296.5929074656
 11
194.7287336142
 21
347.6243085362
  0
LINE
  5
26D
100
AcDbEntity
  8
0
100
AcDbLine
 62
7
  6
CONTINUOUS
 10
195.2947216789
 20
254.625584534
 11
195.2947216789
 21
248.093565197
  0
LINE
  5
26E
100
AcDbEntity
  8
0
100
AcDbLine
 62
7
  6
CONTINUOUS
 10
198.6178371025
 20
375.9978250287
 11
198.6178371025
 21
345.3789843863
  0
LINE
  5
26F
100
AcDbEntity
  8
0
100
AcDbLine
 62
7
  6
CONTINUOUS
 10
136.1092090426
 20
225.1885227568
 11
143.3216681822
 21
237.680937781
  0
LINE
  5
270
100
AcDbEntity
  8
0
100
AcDbLine
 62
7
  6
CONTINUOUS
 10
198.6178371025
 20
363.2600783265
 11
195.7327245009
 21
361.5943677323
  0
LINE
  5
271
100
AcDbEntity
  8
0
100
AcDbLine
 62
7
  6
CONTINUOUS
 10
189.071855813
 20
350.8902345723
 11
198.6178371025
 21
356.4015765412
  0
LINE
  5
272
100
AcDbEntity
  8
0
100
AcDbLine
 62
7
  6
CONTINUOUS
 10
146.5038503592
 20
324.4349269239
 11
110.4415546613
 21
303.6144750764
  0
LINE
  5
273
100
AcDbEntity
  8
0
100
AcDbLine
 62
7
  6
CONTINUOUS
 10
194.7287336142
 20
347.6243085362
 11
198.6178371025
 21
349.8696700791
  0
LINE
  5
274
100
AcDbEntity
  8
0
100
AcDbLine
 62
7
  6
CONTINUOUS
 10
318.8260679183
 20
224.4554973451
 11
319.886732506
 21
223.8431362133
  0
LINE
  5
275
100
AcDbEntity
  8
0
100
AcDbLine
 62
7
  6
CONTINUOUS
 10
76.3232101383
 20
364.95282181
 11
81.5911775907
 21
361.9114281888
  0
LINE
  5
276
100
AcDbEntity
  8
0
100
AcDbLine
 62
7
  6
CONTINUOUS
 10
89.9350723474
 20
357.0941872855
 11
118.2194613533
 21
340.7645571047
  0
LINE
  5
277
100
AcDbEntity
  8
0
100
AcDbLine
 62
7
  6
CONTINUOUS
 10
132.5030778013
 20
332.5180938634
 11
138.1599556024
 21
329.2521678272
  0
LINE
  5
278
100
AcDbEntity
  8
0
100
AcDbLine
 62
7
  6
CONTINUOUS
 10
146.5038503592
 20
324.4349269239
 11
174.7882393651
 21
308.1052967431
  0
LINE
  5
279
100
AcDbEntity
  8
0
100
AcDbLine
 62
7
  6
CONTINUOUS
 10
189.071855813
 20
299.8588335017
 11
194.7287336142
 21
296.5929074656
  0
LINE
  5
27A
100
AcDbEntity
  8
0
100
AcDbLine
 62
7
  6
CONTINUOUS
 10
203.0726283709
 20
291.7756665622
 11
231.3570173768
 21
275.4460363814
  0
LINE
  5
27B
100
AcDbEntity
  8
0
100
AcDbLine
 62
7
  6
CONTINUOUS
 10
324.4829074479
 20
226.4967232134
 11
323.4222428602
 21
227.1090843452
  0
LINE
  5
27C
100
AcDbEntity
  8
0
100
AcDbLine
 62
7
  6
CONTINUOUS
 10
296.2342007086
 20
245.0931198594
 11
294.2542934782
 21
246.2361939721
  0
LINE
  5
27D
100
AcDbEntity
  8
0
100
AcDbLine
 62
7
  6
CONTINUOUS
 10
296.2342007086
 20
246.6852995728
 11
261.0554918825
 21
266.9952771102
  0
LINE
  5
27E
100
AcDbEntity
  8
0
100
AcDbLine
 62
7
  6
CONTINUOUS
 10
300.064501422
 20
248.8967115205
 11
264.885792596
 21
269.2066890579
  0
LINE
  5
27F
100
AcDbEntity
  8
0
100
AcDbLine
 62
7
  6
CONTINUOUS
 10
264.9445629872
 20
270.0162972528
 11
300.1232718133
 21
249.7063197154
  0
LINE
  5
280
100
AcDbEntity
  8
0
100
AcDbLine
 62
7
  6
CONTINUOUS
 10
275.3744314331
 20
265.7094011996
 11
276.7179399109
 21
264.933743766
  0
LINE
  5
281
100
AcDbEntity
  8
0
100
AcDbLine
 62
7
  6
CONTINUOUS
 10
290.8954899001
 20
256.7485166379
 11
292.2389983779
 21
255.9728592043
  0
LINE
  5
282
100
AcDbEntity
  8
0
100
AcDbLine
 62
7
  6
CONTINUOUS
 10
347.2870371097
 20
224.5573943798
 11
343.3978664156
 21
226.80275733
  0
LINE
  5
283
100
AcDbEntity
  8
0
100
AcDbLine
 62
7
  6
CONTINUOUS
 10
204.5222710187
 20
154.9913219139
 11
204.5222710187
 21
158.5022823075
  0
LINE
  5
284
100
AcDbEntity
  8
0
100
AcDbLine
 62
7
  6
CONTINUOUS
 10
144.5811037795
 20
234.8971085281
 11
137.3686446399
 21
222.4046935039
  0
LINE
  5
285
100
AcDbEntity
  8
0
100
AcDbLine
 62
7
  6
CONTINUOUS
 10
378.6467837624
 20
436.989680423
 11
235.8118086452
 21
354.5243613409
  0
LINE
  5
286
100
AcDbEntity
  8
0
100
AcDbLine
 62
7
  6
CONTINUOUS
 10
275.3744314331
 20
268.0772582093
 11
278.0260929024
 21
266.5463553798
  0
LINE
  5
287
100
AcDbEntity
  8
0
100
AcDbLine
 62
7
  6
CONTINUOUS
 10
289.5873369086
 20
259.8716190434
 11
292.2389983779
 21
258.340716214
  0
LINE
  5
288
100
AcDbEntity
  8
0
100
AcDbLine
 62
7
  6
CONTINUOUS
 10
374.1701272726
 20
212.1125573443
 11
367.5586434672
 21
215.929808438
  0
LINE
  5
289
100
AcDbEntity
  8
0
100
AcDbLine
 62
7
  6
CONTINUOUS
 10
337.2107676859
 20
235.0698453457
 11
338.2714322736
 21
234.4574842139
  0
LINE
  5
28A
100
AcDbEntity
  8
0
100
AcDbLine
 62
7
  6
CONTINUOUS
 10
284.9203553152
 20
266.4442237944
 11
292.9459895995
 21
261.8107265037
  0
LINE
  5
28B
100
AcDbEntity
  8
0
100
AcDbLine
 62
7
  6
CONTINUOUS
 10
280.1472917985
 20
270.8328539773
 11
273.2530330745
 21
274.8131660608
  0
LINE
  5
28C
100
AcDbEntity
  8
0
100
AcDbLine
 62
7
  6
CONTINUOUS
 10
299.2039599874
 20
259.8307303699
 11
309.1388457377
 21
254.0949302601
  0
LINE
  5
28D
100
AcDbEntity
  8
0
100
AcDbLine
 62
7
  6
CONTINUOUS
 10
370.5859319079
 20
219.1472004746
 11
375.42956287
 21
216.3506488787
  0
LINE
  5
28E
100
AcDbEntity
  8
0
100
AcDbLine
 62
7
  6
CONTINUOUS
 10
299.0271952151
 20
262.2598600911
 11
297.6836867373
 21
263.0355175247
  0
LINE
  5
28F
100
AcDbEntity
  8
0
100
AcDbLine
 62
7
  6
CONTINUOUS
 10
283.5061367481
 20
271.2207446528
 11
282.1626282704
 21
271.9964020864
  0
LINE
  5
290
100
AcDbEntity
  8
0
100
AcDbLine
 62
7
  6
CONTINUOUS
 10
284.9203553152
 20
270.5267358801
 11
296.4815993214
 21
263.8519995437
  0
LINE
  5
291
100
AcDbEntity
  8
0
100
AcDbLine
 62
7
  6
CONTINUOUS
 10
342.8676072155
 20
237.1110712141
 11
341.8069426278
 21
237.7234323459
  0
LINE
  5
292
100
AcDbEntity
  8
0
100
AcDbLine
 62
7
  6
CONTINUOUS
 10
299.2039599874
 20
263.9132424555
 11
285.0264099982
 21
272.0984695837
  0
LINE
  5
293
100
AcDbEntity
  8
0
100
AcDbLine
 62
7
  6
CONTINUOUS
 10
287.5719991207
 20
271.4452877758
 11
290.7539928839
 21
269.6082043804
  0
LINE
  5
294
100
AcDbEntity
  8
0
100
AcDbLine
 62
7
  6
CONTINUOUS
 10
293.5824317845
 20
267.9752413624
 11
296.7644255477
 21
266.138157967
  0
LINE
  5
295
100
AcDbEntity
  8
0
100
AcDbLine
 62
7
  6
CONTINUOUS
 10
313.7350206796
 20
256.7485172603
 11
301.3606004896
 21
263.8927304644
  0
LINE
  5
296
100
AcDbEntity
  8
0
100
AcDbLine
 62
7
  6
CONTINUOUS
 10
293.9358750601
 20
268.1793007146
 11
293.5823935129
 21
268.3833787641
  0
LINE
  5
297
100
AcDbEntity
  8
0
100
AcDbLine
 62
7
  6
CONTINUOUS
 10
287.9254423963
 20
271.649347128
 11
278.5563118536
 21
277.0584947977
  0
LINE
  5
298
100
AcDbEntity
  8
0
100
AcDbLine
 62
7
  6
CONTINUOUS
 10
289.3396681779
 20
272.4658458899
 11
279.2634156908
 21
278.2832413687
  0
LINE
  5
299
100
AcDbEntity
  8
0
100
AcDbLine
 62
7
  6
CONTINUOUS
 10
293.5823935129
 20
270.0163626903
 11
295.3501008417
 21
268.9957994765
  0
LINE
  5
29A
100
AcDbEntity
  8
0
100
AcDbLine
 62
7
  6
CONTINUOUS
 10
301.3606004896
 20
265.5257143906
 11
314.4421245168
 21
257.9732638313
  0
LINE
  5
29B
100
AcDbEntity
  8
0
100
AcDbLine
 62
7
  6
CONTINUOUS
 10
301.3606004896
 20
268.7917449672
 11
298.1786067264
 21
270.6288283625
  0
LINE
  5
29C
100
AcDbEntity
  8
0
100
AcDbLine
 62
7
  6
CONTINUOUS
 10
295.3501678258
 20
272.2617913806
 11
292.1681740626
 21
274.098874776
  0
LINE
  5
29D
100
AcDbEntity
  8
0
100
AcDbLine
 62
7
  6
CONTINUOUS
 10
291.5317694221
 20
275.2827763634
 11
294.2894973501
 21
273.6906374208
  0
LINE
  5
29E
100
AcDbEntity
  8
0
100
AcDbLine
 62
7
  6
CONTINUOUS
 10
300.6534848765
 20
270.0164706301
 11
303.4112128045
 21
268.4243316875
  0
LINE
  5
29F
100
AcDbEntity
  8
0
100
AcDbLine
 62
7
  6
CONTINUOUS
 10
365.6717368773
 20
235.1717423804
 11
361.7825661832
 21
237.4171053307
  0
LINE
  5
2A0
100
AcDbEntity
  8
0
100
AcDbLine
 62
7
  6
CONTINUOUS
 10
231.3570173768
 20
268.9140170444
 11
231.3570173768
 21
275.4460363814
  0
LINE
  5
2A1
100
AcDbEntity
  8
0
100
AcDbLine
 62
7
  6
CONTINUOUS
 10
235.8118086452
 20
354.5243613409
 11
235.8118086452
 21
323.9055206986
  0
LINE
  5
2A2
100
AcDbEntity
  8
0
100
AcDbLine
 62
7
  6
CONTINUOUS
 10
236.5829126263
 20
157.2941385767
 11
236.5829126263
 21
160.8050989703
  0
LINE
  5
2A3
100
AcDbEntity
  8
0
100
AcDbLine
 62
7
  6
CONTINUOUS
 10
138.7259436672
 20
287.2848448956
 11
174.7882393651
 21
308.1052967431
  0
LINE
  5
2A4
100
AcDbEntity
  8
0
100
AcDbLine
 62
7
  6
CONTINUOUS
 10
100.2233198362
 20
264.0328846042
 11
98.8798225455
 21
263.2572207118
  0
LINE
  5
2A5
100
AcDbEntity
  8
0
100
AcDbLine
 62
7
  6
CONTINUOUS
 10
138.7259436672
 20
280.7528255586
 11
174.7882393651
 21
301.573277406
  0
LINE
  5
2A6
100
AcDbEntity
  8
0
100
AcDbLine
 62
7
  6
CONTINUOUS
 10
80.7426841921
 20
246.7030383938
 11
58.4689133198
 21
233.8433475468
  0
LINE
  5
2A7
100
AcDbEntity
  8
0
100
AcDbLine
 62
7
  6
CONTINUOUS
 10
109.2389688318
 20
258.827814984
 11
107.9661819248
 21
258.0929755071
  0
LINE
  5
2A8
100
AcDbEntity
  8
0
100
AcDbLine
 62
7
  6
CONTINUOUS
 10
194.7287336142
 20
303.1248139278
 11
189.071855813
 21
299.8588335017
  0
LINE
  5
2A9
100
AcDbEntity
  8
0
100
AcDbLine
 62
7
  6
CONTINUOUS
 10
322.7505946041
 20
262.7701326393
 11
310.3054634415
 21
269.9551699189
  0
LINE
  5
2AA
100
AcDbEntity
  8
0
100
AcDbLine
 62
7
  6
CONTINUOUS
 10
305.4263452418
 20
272.7720663981
 11
302.5979674374
 21
274.4049941431
  0
LINE
  5
2AB
100
AcDbEntity
  8
0
100
AcDbLine
 62
7
  6
CONTINUOUS
 10
296.3046297874
 20
278.0383721315
 11
287.571885778
 21
283.0801101767
  0
LINE
  5
2AC
100
AcDbEntity
  8
0
100
AcDbLine
 62
7
  6
CONTINUOUS
 10
355.5954674534
 20
245.6841933464
 11
356.6561320411
 21
245.0718322146
  0
LINE
  5
2AD
100
AcDbEntity
  8
0
100
AcDbLine
 62
7
  6
CONTINUOUS
 10
311.7196828918
 20
273.2212004955
 11
308.9619549637
 21
274.8133394381
  0
LINE
  5
2AE
100
AcDbEntity
  8
0
100
AcDbLine
 62
7
  6
CONTINUOUS
 10
302.5979674374
 20
278.4875062288
 11
299.8402395093
 21
280.0796451714
  0
LINE
  5
2AF
100
AcDbEntity
  8
0
100
AcDbLine
 62
7
  6
CONTINUOUS
 10
395.4406014631
 20
227.9039584333
 11
376.8086223134
 21
238.6608932565
  0
LINE
  5
2B0
100
AcDbEntity
  8
0
100
AcDbLine
 62
7
  6
CONTINUOUS
 10
361.252306983
 20
247.7254192148
 11
360.1916423953
 21
248.3377803465
  0
LINE
  5
2B1
100
AcDbEntity
  8
0
100
AcDbLine
 62
7
  6
CONTINUOUS
 10
370.4446877785
 20
243.5202438039
 11
376.8086223134
 21
239.8461076071
  0
LINE
  5
2B2
100
AcDbEntity
  8
0
100
AcDbLine
 62
7
  6
CONTINUOUS
 10
244.9688795859
 20
318.6188029275
 11
235.8118086452
 21
323.9055206986
  0
LINE
  5
2B3
100
AcDbEntity
  8
0
100
AcDbLine
 62
7
  6
CONTINUOUS
 10
198.6178371025
 20
345.3789843863
 11
194.7287336142
 21
347.6243085362
  0
LINE
  5
2B4
100
AcDbEntity
  8
0
100
AcDbLine
 62
7
  6
CONTINUOUS
 10
189.071855813
 20
350.8902345723
 11
179.2430306335
 21
356.5647810602
  0
LINE
  5
2B5
100
AcDbEntity
  8
0
100
AcDbLine
 62
7
  6
CONTINUOUS
 10
142.0490590908
 20
378.0382447479
 11
138.1599556024
 21
380.2835688978
  0
LINE
  5
2B6
100
AcDbEntity
  8
0
100
AcDbLine
 62
7
  6
CONTINUOUS
 10
132.5030778013
 20
383.549494934
 11
122.6742526217
 21
389.2240414218
  0
LINE
  5
2B7
100
AcDbEntity
  8
0
100
AcDbLine
 62
7
  6
CONTINUOUS
 10
81.5911775907
 20
412.9428292594
 11
85.480281079
 21
410.6975051096
  0
LINE
  5
2B8
100
AcDbEntity
  8
0
100
AcDbLine
 62
7
  6
CONTINUOUS
 10
363.2490606206
 20
252.9003507397
 11
370.4446877785
 21
248.746047446
  0
LINE
  5
2B9
100
AcDbEntity
  8
0
100
AcDbLine
 62
7
  6
CONTINUOUS
 10
365.7685227583
 20
252.9970633716
 11
364.592560628
 21
253.6759900648
  0
LINE
  5
2BA
100
AcDbEntity
  8
0
100
AcDbLine
 62
7
  6
CONTINUOUS
 10
239.8777572761
 20
134.5792841879
 11
239.8777572761
 21
138.0902445815
  0
LINE
  5
2BB
100
AcDbEntity
  8
0
100
AcDbLine
 62
7
  6
CONTINUOUS
 10
244.9688795859
 20
318.6188029275
 11
244.9688795859
 21
245.5418365944
  0
LINE
  5
2BC
100
AcDbEntity
  8
0
100
AcDbLine
 62
7
  6
CONTINUOUS
 10
235.8118086452
 20
323.9055206986
 11
378.6467837624
 21
406.3708397806
  0
LINE
  5
2BD
100
AcDbEntity
  8
0
100
AcDbLine
 62
7
  6
CONTINUOUS
 10
100.7537227852
 20
245.6005604828
 11
91.70307433
 21
240.3751973521
  0
LINE
  5
2BE
100
AcDbEntity
  8
0
100
AcDbLine
 62
7
  6
CONTINUOUS
 10
382.5358872508
 20
404.1255156307
 11
252.3015025127
 21
328.9351073707
  0
LINE
  5
2BF
100
AcDbEntity
  8
0
100
AcDbLine
 62
7
  6
CONTINUOUS
 10
257.5694699651
 20
325.8937137495
 11
244.9688795859
 21
318.6188029275
  0
LINE
  5
2C0
100
AcDbEntity
  8
0
100
AcDbLine
 62
7
  6
CONTINUOUS
 10
203.0726283709
 20
291.7756665622
 11
167.010332673
 21
270.9552147148
  0
LINE
  5
2C1
100
AcDbEntity
  8
0
100
AcDbLine
 62
7
  6
CONTINUOUS
 10
105.7392023742
 20
232.2716183749
 11
109.6213585322
 21
234.5129688987
  0
LINE
  5
2C2
100
AcDbEntity
  8
0
100
AcDbLine
 62
7
  6
CONTINUOUS
 10
395.4406014631
 20
240.5597458988
 11
371.0092364695
 21
254.6648819537
  0
LINE
  5
2C3
100
AcDbEntity
  8
0
100
AcDbLine
 62
7
  6
CONTINUOUS
 10
257.5694699651
 20
325.8937137495
 11
252.3015025127
 21
328.9351073707
  0
LINE
  5
2C4
100
AcDbEntity
  8
0
100
AcDbLine
 62
7
  6
CONTINUOUS
 10
139.1639464892
 20
394.2536280939
 11
142.0490590908
 21
392.5879452396
  0
LINE
  5
2C5
100
AcDbEntity
  8
0
100
AcDbLine
 62
7
  6
CONTINUOUS
 10
195.7327245009
 20
361.5943677323
 11
198.6178371025
 21
359.9286848779
  0
LINE
  5
2C6
100
AcDbEntity
  8
0
100
AcDbLine
 62
7
  6
CONTINUOUS
 10
337.4908467136
 20
280.5474992527
 11
311.0095875068
 21
295.8361155094
  0
LINE
  5
2C7
100
AcDbEntity
  8
0
100
AcDbLine
 62
7
  6
CONTINUOUS
 10
257.5694699651
 20
325.8937137495
 11
257.5694699651
 21
274.8623126789
  0
LINE
  5
2C8
100
AcDbEntity
  8
0
100
AcDbLine
 62
7
  6
CONTINUOUS
 10
261.0554918825
 20
214.8615977765
 11
261.0554918825
 21
266.9952771102
  0
LINE
  5
2C9
100
AcDbEntity
  8
0
100
AcDbLine
 62
7
  6
CONTINUOUS
 10
265.5092277389
 20
502.3082011462
 11
265.5092277389
 21
479.9364215133
  0
LINE
  5
2CA
100
AcDbEntity
  8
0
100
AcDbLine
 62
7
  6
CONTINUOUS
 10
264.885792596
 20
269.2066890579
 11
264.9445629872
 21
270.0162972528
  0
LINE
  5
2CB
100
AcDbEntity
  8
0
100
AcDbLine
 62
7
  6
CONTINUOUS
 10
108.7798267351
 20
230.5161527956
 11
109.6213585322
 21
231.002008505
  0
LINE
  5
2CC
100
AcDbEntity
  8
0
100
AcDbLine
 62
7
  6
CONTINUOUS
 10
116.9045887012
 20
230.3080891271
 11
113.0224325432
 21
228.0667386033
  0
LINE
  5
2CD
100
AcDbEntity
  8
0
100
AcDbLine
 62
7
  6
CONTINUOUS
 10
116.0981704494
 20
226.2910006678
 11
93.8243995772
 21
213.4313098208
  0
LINE
  5
2CE
100
AcDbEntity
  8
0
100
AcDbLine
 62
7
  6
CONTINUOUS
 10
93.8243995772
 20
209.9203494272
 11
113.0576239494
 21
221.0245904125
  0
LINE
  5
2CF
100
AcDbEntity
  8
0
100
AcDbLine
 62
7
  6
CONTINUOUS
 10
144.5944550891
 20
238.415777258
 11
143.3216681822
 21
237.680937781
  0
LINE
  5
2D0
100
AcDbEntity
  8
0
100
AcDbLine
 62
7
  6
CONTINUOUS
 10
144.5811037795
 20
234.8971085281
 11
147.63507945
 21
236.6603116787
  0
LINE
  5
2D1
100
AcDbEntity
  8
0
100
AcDbLine
 62
7
  6
CONTINUOUS
 10
320.3113005489
 20
304.1465403055
 11
346.7925597557
 21
288.8579240487
  0
LINE
  5
2D2
100
AcDbEntity
  8
0
100
AcDbLine
 62
7
  6
CONTINUOUS
 10
235.8118086452
 20
354.5243613409
 11
198.6178371025
 21
375.9978250287
  0
LINE
  5
2D3
100
AcDbEntity
  8
0
100
AcDbLine
 62
7
  6
CONTINUOUS
 10
179.2430306335
 20
387.1836217025
 11
142.0490590908
 21
408.6570853903
  0
LINE
  5
2D4
100
AcDbEntity
  8
0
100
AcDbLine
 62
7
  6
CONTINUOUS
 10
122.6742526217
 20
419.8428820642
 11
85.480281079
 21
441.3163457519
  0
LINE
  5
2D5
100
AcDbEntity
  8
0
100
AcDbLine
 62
7
  6
CONTINUOUS
 10
417.7143723354
 20
253.4194367457
 11
392.5781482353
 21
267.9315141892
  0
LINE
  5
2D6
100
AcDbEntity
  8
0
100
AcDbLine
 62
7
  6
CONTINUOUS
 10
275.3744314331
 20
265.7094011996
 11
275.3744314331
 21
268.0772582093
  0
LINE
  5
2D7
100
AcDbEntity
  8
0
100
AcDbLine
 62
7
  6
CONTINUOUS
 10
275.5511761864
 20
171.9544165927
 11
275.5511761864
 21
162.8095895209
  0
LINE
  5
2D8
100
AcDbEntity
  8
0
100
AcDbLine
 62
7
  6
CONTINUOUS
 10
276.7179399109
 20
263.21908869
 11
276.7179399109
 21
264.933743766
  0
LINE
  5
2D9
100
AcDbEntity
  8
0
100
AcDbLine
 62
7
  6
CONTINUOUS
 10
278.0260929024
 20
262.4638432942
 11
278.0260929024
 21
266.5463553798
  0
LINE
  5
2DA
100
AcDbEntity
  8
0
100
AcDbLine
 62
7
  6
CONTINUOUS
 10
281.9504659132
 20
183.0383730603
 11
281.9504659132
 21
203.2470837222
  0
LINE
  5
2DB
100
AcDbEntity
  8
0
100
AcDbLine
 62
7
  6
CONTINUOUS
 10
284.9203553152
 20
266.4442237944
 11
284.9203553152
 21
270.5267358801
  0
LINE
  5
2DC
100
AcDbEntity
  8
0
100
AcDbLine
 62
7
  6
CONTINUOUS
 10
287.0064187954
 20
218.6587176796
 11
287.0064187954
 21
242.0515119303
  0
LINE
  5
2DD
100
AcDbEntity
  8
0
100
AcDbLine
 62
7
  6
CONTINUOUS
 10
287.5719991207
 20
270.6288062667
 11
287.5719991207
 21
271.4452877758
  0
LINE
  5
2DE
100
AcDbEntity
  8
0
100
AcDbLine
 62
7
  6
CONTINUOUS
 10
289.5873369086
 20
255.7891069578
 11
289.5873369086
 21
259.8716190434
  0
LINE
  5
2DF
100
AcDbEntity
  8
0
100
AcDbLine
 62
7
  6
CONTINUOUS
 10
290.5417775353
 20
208.2072501917
 11
290.5417775353
 21
199.8378245782
  0
LINE
  5
2E0
100
AcDbEntity
  8
0
100
AcDbLine
 62
7
  6
CONTINUOUS
 10
290.7539928839
 20
269.6082043804
 11
290.7539928839
 21
268.7917019633
  0
LINE
  5
2E1
100
AcDbEntity
  8
0
100
AcDbLine
 62
7
  6
CONTINUOUS
 10
290.8954899001
 20
255.0338615619
 11
290.8954899001
 21
256.7485166379
  0
LINE
  5
2E2
100
AcDbEntity
  8
0
100
AcDbLine
 62
7
  6
CONTINUOUS
 10
136.1092090426
 20
225.1885227568
 11
116.0981704494
 21
213.6352132023
  0
LINE
  5
2E3
100
AcDbEntity
  8
0
100
AcDbLine
 62
7
  6
CONTINUOUS
 10
113.0576239494
 20
208.368802947
 11
137.3686446399
 21
222.4046935039
  0
LINE
  5
2E4
100
AcDbEntity
  8
0
100
AcDbLine
 62
7
  6
CONTINUOUS
 10
195.2947216789
 20
254.625584534
 11
231.3570173768
 21
275.4460363814
  0
LINE
  5
2E5
100
AcDbEntity
  8
0
100
AcDbLine
 62
7
  6
CONTINUOUS
 10
382.5358872508
 20
362.7286765918
 11
410.2542881919
 21
378.7318073109
  0
LINE
  5
2E6
100
AcDbEntity
  8
0
100
AcDbLine
 62
7
  6
CONTINUOUS
 10
195.2947216789
 20
248.093565197
 11
231.3570173768
 21
268.9140170444
  0
LINE
  5
2E7
100
AcDbEntity
  8
0
100
AcDbLine
 62
7
  6
CONTINUOUS
 10
382.5358872508
 20
356.1966572548
 11
410.2542881919
 21
372.1997879739
  0
LINE
  5
2E8
100
AcDbEntity
  8
0
100
AcDbLine
 62
7
  6
CONTINUOUS
 10
382.5358872508
 20
353.0941145601
 11
257.5694699651
 21
280.9451505718
  0
LINE
  5
2E9
100
AcDbEntity
  8
0
100
AcDbLine
 62
7
  6
CONTINUOUS
 10
380.3207869458
 20
295.2324229849
 11
345.1420781198
 21
315.5424005223
  0
LINE
  5
2EA
100
AcDbEntity
  8
0
100
AcDbLine
 62
7
  6
CONTINUOUS
 10
345.200848511
 20
316.3520087172
 11
380.379557337
 21
296.0420311798
  0
LINE
  5
2EB
100
AcDbEntity
  8
0
100
AcDbLine
 62
7
  6
CONTINUOUS
 10
355.6307169569
 20
312.045112664
 11
355.6660724431
 21
312.0247006263
  0
LINE
  5
2EC
100
AcDbEntity
  8
0
100
AcDbLine
 62
7
  6
CONTINUOUS
 10
356.9742254347
 20
311.2694552304
 11
358.2823784262
 21
310.5142098346
  0
LINE
  5
2ED
100
AcDbEntity
  8
0
100
AcDbLine
 62
7
  6
CONTINUOUS
 10
371.1517754239
 20
303.0842281023
 11
372.4952839016
 21
302.3085706687
  0
LINE
  5
2EE
100
AcDbEntity
  8
0
100
AcDbLine
 62
7
  6
CONTINUOUS
 10
355.6307169569
 20
314.4129696737
 11
358.2823784262
 21
312.8820668442
  0
LINE
  5
2EF
100
AcDbEntity
  8
0
100
AcDbLine
 62
7
  6
CONTINUOUS
 10
369.8436224323
 20
306.2073305078
 11
372.4952839016
 21
304.6764276784
  0
LINE
  5
2F0
100
AcDbEntity
  8
0
100
AcDbLine
 62
7
  6
CONTINUOUS
 10
363.8684878475
 20
313.5351806547
 11
373.2022751233
 21
308.1464379681
  0
LINE
  5
2F1
100
AcDbEntity
  8
0
100
AcDbLine
 62
7
  6
CONTINUOUS
 10
377.0914588435
 20
307.3300146785
 11
375.7479503657
 21
308.1056721121
  0
LINE
  5
2F2
100
AcDbEntity
  8
0
100
AcDbLine
 62
7
  6
CONTINUOUS
 10
362.8785533681
 20
315.5356538444
 11
361.5704003766
 21
316.2908992403
  0
LINE
  5
2F3
100
AcDbEntity
  8
0
100
AcDbLine
 62
7
  6
CONTINUOUS
 10
360.262247385
 20
317.0461446361
 11
360.2268918988
 21
317.0665566738
  0
LINE
  5
2F4
100
AcDbEntity
  8
0
100
AcDbLine
 62
7
  6
CONTINUOUS
 10
360.4389328085
 20
317.148153404
 11
353.5093185982
 21
321.1488775252
  0
LINE
  5
2F5
100
AcDbEntity
  8
0
100
AcDbLine
 62
7
  6
CONTINUOUS
 10
379.4602455111
 20
306.1664418343
 11
389.3951312615
 21
300.4306417246
  0
LINE
  5
2F6
100
AcDbEntity
  8
0
100
AcDbLine
 62
7
  6
CONTINUOUS
 10
363.8684878475
 20
317.6176927403
 11
376.7378848452
 21
310.1877110081
  0
LINE
  5
2F7
100
AcDbEntity
  8
0
100
AcDbLine
 62
7
  6
CONTINUOUS
 10
379.4602455111
 20
310.2489539199
 11
363.9745425304
 21
319.1894264439
  0
LINE
  5
2F8
100
AcDbEntity
  8
0
100
AcDbLine
 62
7
  6
CONTINUOUS
 10
291.5317694221
 20
273.7314485786
 11
291.5317694221
 21
275.2827763634
  0
LINE
  5
2F9
100
AcDbEntity
  8
0
100
AcDbLine
 62
7
  6
CONTINUOUS
 10
292.2389983779
 20
255.9728592043
 11
292.2389983779
 21
258.340716214
  0
LINE
  5
2FA
100
AcDbEntity
  8
0
100
AcDbLine
 62
7
  6
CONTINUOUS
 10
293.5823935129
 20
268.3833787641
 11
293.5823935129
 21
270.4246700804
  0
LINE
  5
2FB
100
AcDbEntity
  8
0
100
AcDbLine
 62
7
  6
CONTINUOUS
 10
293.5824317845
 20
267.9752413624
 11
293.5824317845
 21
267.1587389452
  0
LINE
  5
2FC
100
AcDbEntity
  8
0
100
AcDbLine
 62
7
  6
CONTINUOUS
 10
294.2894973501
 20
269.6081253351
 11
294.2894973501
 21
270.8329142342
  0
LINE
  5
2FD
100
AcDbEntity
  8
0
100
AcDbLine
 62
7
  6
CONTINUOUS
 10
294.2894973501
 20
272.8741559117
 11
294.2894973501
 21
273.6906374208
  0
LINE
  5
2FE
100
AcDbEntity
  8
0
100
AcDbLine
 62
7
  6
CONTINUOUS
 10
295.3501678258
 20
272.2617913806
 11
295.3501678258
 21
271.4452889635
  0
LINE
  5
2FF
100
AcDbEntity
  8
0
100
AcDbLine
 62
7
  6
CONTINUOUS
 10
296.2342007086
 20
246.6852995728
 11
296.2342007086
 21
245.0931198594
  0
LINE
  5
300
100
AcDbEntity
  8
0
100
AcDbLine
 62
7
  6
CONTINUOUS
 10
296.7644255477
 20
265.321676458
 11
296.7644255477
 21
266.138157967
  0
LINE
  5
301
100
AcDbEntity
  8
0
100
AcDbLine
 62
7
  6
CONTINUOUS
 10
299.0271952151
 20
262.2598600911
 11
299.0271952151
 21
259.8920030814
  0
LINE
  5
302
100
AcDbEntity
  8
0
100
AcDbLine
 62
7
  6
CONTINUOUS
 10
299.2039599874
 20
259.8307303699
 11
299.2039599874
 21
263.9132424555
  0
LINE
  5
303
100
AcDbEntity
  8
0
100
AcDbLine
 62
7
  6
CONTINUOUS
 10
300.6534848765
 20
269.199989121
 11
300.6534848765
 21
270.0164706301
  0
LINE
  5
304
100
AcDbEntity
  8
0
100
AcDbLine
 62
7
  6
CONTINUOUS
 10
301.3606004896
 20
263.8927304644
 11
301.3606004896
 21
268.7917449672
  0
LINE
  5
305
100
AcDbEntity
  8
0
100
AcDbLine
 62
7
  6
CONTINUOUS
 10
302.5979674374
 20
274.4049941431
 11
302.5979674374
 21
278.4875062288
  0
LINE
  5
306
100
AcDbEntity
  8
0
100
AcDbLine
 62
7
  6
CONTINUOUS
 10
303.4112128045
 20
264.3418196018
 11
303.4112128045
 21
268.4243316875
  0
LINE
  5
307
100
AcDbEntity
  8
0
100
AcDbLine
 62
7
  6
CONTINUOUS
 10
305.3557483569
 20
265.464491025
 11
305.3557483569
 21
267.1791461009
  0
LINE
  5
308
100
AcDbEntity
  8
0
100
AcDbLine
 62
7
  6
CONTINUOUS
 10
300.064501422
 20
248.8967115205
 11
300.1232718133
 21
249.7063197154
  0
LINE
  5
309
100
AcDbEntity
  8
0
100
AcDbLine
 62
7
  6
CONTINUOUS
 10
279.2634156908
 20
278.2832413687
 11
278.5563118536
 21
277.0584947977
  0
LINE
  5
30A
100
AcDbEntity
  8
0
100
AcDbLine
 62
7
  6
CONTINUOUS
 10
235.2812879375
 20
184.5892276557
 11
228.0688287979
 21
172.0968126315
  0
LINE
  5
30B
100
AcDbEntity
  8
0
100
AcDbLine
 62
7
  6
CONTINUOUS
 10
387.8038547031
 20
350.052720939
 11
257.5694699651
 21
274.8623126789
  0
LINE
  5
30C
100
AcDbEntity
  8
0
100
AcDbLine
 62
7
  6
CONTINUOUS
 10
367.8281713018
 20
329.4158216411
 11
359.5197012145
 21
324.6189528331
  0
LINE
  5
30D
100
AcDbEntity
  8
0
100
AcDbLine
 62
7
  6
CONTINUOUS
 10
353.5093185982
 20
321.1488775252
 11
345.200848511
 21
316.3520087172
  0
LINE
  5
30E
100
AcDbEntity
  8
0
100
AcDbLine
 62
7
  6
CONTINUOUS
 10
287.571885778
 20
283.0801101767
 11
279.2634156908
 21
278.2832413687
  0
LINE
  5
30F
100
AcDbEntity
  8
0
100
AcDbLine
 62
7
  6
CONTINUOUS
 10
273.2530330745
 20
274.8131660608
 11
264.9445629872
 21
270.0162972528
  0
LINE
  5
310
100
AcDbEntity
  8
0
100
AcDbLine
 62
7
  6
CONTINUOUS
 10
261.0554918825
 20
266.9952771102
 11
264.885792596
 21
269.2066890579
  0
LINE
  5
311
100
AcDbEntity
  8
0
100
AcDbLine
 62
7
  6
CONTINUOUS
 10
288.2436516252
 20
282.692274758
 11
311.0095875068
 21
295.8361155094
  0
LINE
  5
312
100
AcDbEntity
  8
0
100
AcDbLine
 62
7
  6
CONTINUOUS
 10
322.8575471799
 20
302.6764973845
 11
345.1420781198
 21
315.5424005223
  0
LINE
  5
313
100
AcDbEntity
  8
0
100
AcDbLine
 62
7
  6
CONTINUOUS
 10
368.499937149
 20
329.0279862224
 11
371.7172424065
 21
330.8854871911
  0
LINE
  5
314
100
AcDbEntity
  8
0
100
AcDbLine
 62
7
  6
CONTINUOUS
 10
273.9601369117
 20
274.4049077975
 11
278.5563118536
 21
277.0584947977
  0
LINE
  5
315
100
AcDbEntity
  8
0
100
AcDbLine
 62
7
  6
CONTINUOUS
 10
354.2164224354
 20
320.7406192619
 11
358.8125973773
 21
323.3942062621
  0
LINE
  5
316
100
AcDbEntity
  8
0
100
AcDbLine
 62
7
  6
CONTINUOUS
 10
360.2268918988
 20
317.0665566738
 11
355.6307169569
 21
314.4129696737
  0
LINE
  5
317
100
AcDbEntity
  8
0
100
AcDbLine
 62
7
  6
CONTINUOUS
 10
282.1626282704
 20
271.9964020864
 11
275.3744314331
 21
268.0772582093
  0
LINE
  5
318
100
AcDbEntity
  8
0
100
AcDbLine
 62
7
  6
CONTINUOUS
 10
363.9745425304
 20
319.1894264439
 11
360.262247385
 21
317.0461446361
  0
LINE
  5
319
100
AcDbEntity
  8
0
100
AcDbLine
 62
7
  6
CONTINUOUS
 10
367.8282846445
 20
317.7809992402
 11
371.0102784077
 21
315.9439158449
  0
LINE
  5
31A
100
AcDbEntity
  8
0
100
AcDbLine
 62
7
  6
CONTINUOUS
 10
373.8387173083
 20
314.3109528268
 11
377.0207110714
 21
312.4738694314
  0
LINE
  5
31B
100
AcDbEntity
  8
0
100
AcDbLine
 62
7
  6
CONTINUOUS
 10
393.9913062034
 20
303.0842287247
 11
381.6168860133
 21
310.2284419288
  0
LINE
  5
31C
100
AcDbEntity
  8
0
100
AcDbLine
 62
7
  6
CONTINUOUS
 10
374.1921605839
 20
314.515012179
 11
373.8386790367
 21
314.7190902285
  0
LINE
  5
31D
100
AcDbEntity
  8
0
100
AcDbLine
 62
7
  6
CONTINUOUS
 10
368.1817279201
 20
317.9850585924
 11
358.8125973773
 21
323.3942062621
  0
LINE
  5
31E
100
AcDbEntity
  8
0
100
AcDbLine
 62
7
  6
CONTINUOUS
 10
369.5959537017
 20
318.8015573543
 11
359.5197012145
 21
324.6189528331
  0
LINE
  5
31F
100
AcDbEntity
  8
0
100
AcDbLine
 62
7
  6
CONTINUOUS
 10
373.8386790367
 20
316.3520741547
 11
375.6063863655
 21
315.3315109409
  0
LINE
  5
320
100
AcDbEntity
  8
0
100
AcDbLine
 62
7
  6
CONTINUOUS
 10
381.6168860133
 20
311.861425855
 11
394.6984100406
 21
304.3089752957
  0
LINE
  5
321
100
AcDbEntity
  8
0
100
AcDbLine
 62
7
  6
CONTINUOUS
 10
381.6168860133
 20
315.1274564316
 11
378.4348922502
 21
316.9645398269
  0
LINE
  5
322
100
AcDbEntity
  8
0
100
AcDbLine
 62
7
  6
CONTINUOUS
 10
375.6064533496
 20
318.597502845
 11
372.4244595864
 21
320.4345862404
  0
LINE
  5
323
100
AcDbEntity
  8
0
100
AcDbLine
 62
7
  6
CONTINUOUS
 10
371.7880549458
 20
321.6184878278
 11
374.5457828739
 21
320.0263488852
  0
LINE
  5
324
100
AcDbEntity
  8
0
100
AcDbLine
 62
7
  6
CONTINUOUS
 10
380.9097704002
 20
316.3521820945
 11
383.6674983283
 21
314.7600431519
  0
LINE
  5
325
100
AcDbEntity
  8
0
100
AcDbLine
 62
7
  6
CONTINUOUS
 10
387.2030175144
 20
316.8012639212
 11
384.4452895863
 21
318.3934028639
  0
LINE
  5
326
100
AcDbEntity
  8
0
100
AcDbLine
 62
7
  6
CONTINUOUS
 10
378.08130206
 20
322.0675696546
 11
375.3235741319
 21
323.6597085972
  0
LINE
  5
327
100
AcDbEntity
  8
0
100
AcDbLine
 62
7
  6
CONTINUOUS
 10
403.0068801279
 20
309.1058441037
 11
367.8281713018
 21
329.4158216411
  0
LINE
  5
328
100
AcDbEntity
  8
0
100
AcDbLine
 62
7
  6
CONTINUOUS
 10
406.8959512325
 20
310.5755096537
 11
371.7172424065
 21
330.8854871911
  0
LINE
  5
329
100
AcDbEntity
  8
0
100
AcDbLine
 62
7
  6
CONTINUOUS
 10
346.792266388
 20
288.8574170971
 11
348.244405989
 21
286.7560325351
  0
LINE
  5
32A
100
AcDbEntity
  8
0
100
AcDbLine
 62
7
  6
CONTINUOUS
 10
322.7505946041
 20
262.7701326393
 11
322.8093649953
 21
262.0283862417
  0
LINE
  5
32B
100
AcDbEntity
  8
0
100
AcDbLine
 62
7
  6
CONTINUOUS
 10
310.3054634415
 20
269.9551699189
 11
310.3054634415
 21
270.0368483793
  0
LINE
  5
32C
100
AcDbEntity
  8
0
100
AcDbLine
 62
7
  6
CONTINUOUS
 10
311.7196828918
 20
270.8533434858
 11
311.7196828918
 21
273.2212004955
  0
LINE
  5
32D
100
AcDbEntity
  8
0
100
AcDbLine
 62
7
  6
CONTINUOUS
 10
311.7550692897
 20
202.2876454509
 11
311.7550692897
 21
187.5906019426
  0
LINE
  5
32E
100
AcDbEntity
  8
0
100
AcDbLine
 62
7
  6
CONTINUOUS
 10
318.1190038246
 20
218.5359800595
 11
318.1190038246
 21
205.9618428357
  0
LINE
  5
32F
100
AcDbEntity
  8
0
100
AcDbLine
 62
7
  6
CONTINUOUS
 10
321.1241951328
 20
192.9998369814
 11
321.1241951328
 21
186.2228669192
  0
LINE
  5
330
100
AcDbEntity
  8
0
100
AcDbLine
 62
7
  6
CONTINUOUS
 10
322.0780057507
 20
469.6489407846
 11
322.0780057507
 21
447.2771611516
  0
LINE
  5
331
100
AcDbEntity
  8
0
100
AcDbLine
 62
7
  6
CONTINUOUS
 10
322.8919547258
 20
214.9637343654
 11
322.8919547258
 21
210.4729710712
  0
LINE
  5
332
100
AcDbEntity
  8
0
100
AcDbLine
 62
7
  6
CONTINUOUS
 10
323.4222428602
 20
227.1090843452
 11
323.4222428602
 21
223.5339464645
  0
LINE
  5
333
100
AcDbEntity
  8
0
100
AcDbLine
 62
7
  6
CONTINUOUS
 10
324.4829074479
 20
223.8832108717
 11
324.4829074479
 21
226.4967232134
  0
LINE
  5
334
100
AcDbEntity
  8
0
100
AcDbLine
 62
7
  6
CONTINUOUS
 10
287.0064187954
 20
218.6587176796
 11
281.5616739118
 21
203.0226158954
  0
LINE
  5
335
100
AcDbEntity
  8
0
100
AcDbLine
 62
7
  6
CONTINUOUS
 10
285.0264099982
 20
272.0984695837
 11
283.5061367481
 21
271.2207446528
  0
LINE
  5
336
100
AcDbEntity
  8
0
100
AcDbLine
 62
7
  6
CONTINUOUS
 10
361.5704003766
 20
316.2908992403
 11
363.8684878475
 21
317.6176927403
  0
LINE
  5
337
100
AcDbEntity
  8
0
100
AcDbLine
 62
7
  6
CONTINUOUS
 10
375.3235741319
 20
323.6597085972
 11
371.7880549458
 21
321.6184878278
  0
LINE
  5
338
100
AcDbEntity
  8
0
100
AcDbLine
 62
7
  6
CONTINUOUS
 10
299.8402395093
 20
280.0796451714
 11
291.5317694221
 21
275.2827763634
  0
LINE
  5
339
100
AcDbEntity
  8
0
100
AcDbLine
 62
7
  6
CONTINUOUS
 10
278.0260929024
 20
266.5463553798
 11
284.9203553152
 21
270.5267358801
  0
LINE
  5
33A
100
AcDbEntity
  8
0
100
AcDbLine
 62
7
  6
CONTINUOUS
 10
358.2823784262
 20
312.8820668442
 11
362.8785533681
 21
315.5356538444
  0
LINE
  5
33B
100
AcDbEntity
  8
0
100
AcDbLine
 62
7
  6
CONTINUOUS
 10
372.4244595864
 20
320.4345862404
 11
367.8282846445
 21
317.7809992402
  0
LINE
  5
33C
100
AcDbEntity
  8
0
100
AcDbLine
 62
7
  6
CONTINUOUS
 10
292.1681740626
 20
274.098874776
 11
287.5719991207
 21
271.4452877758
  0
LINE
  5
33D
100
AcDbEntity
  8
0
100
AcDbLine
 62
7
  6
CONTINUOUS
 10
387.8038547031
 20
328.0071556765
 11
382.2533593778
 21
324.8025948349
  0
LINE
  5
33E
100
AcDbEntity
  8
0
100
AcDbLine
 62
7
  6
CONTINUOUS
 10
261.0554918825
 20
254.829391095
 11
244.9688795859
 21
245.5418365944
  0
LINE
  5
33F
100
AcDbEntity
  8
0
100
AcDbLine
 62
7
  6
CONTINUOUS
 10
294.2894973501
 20
273.6906374208
 11
302.5979674374
 21
278.4875062288
  0
LINE
  5
340
100
AcDbEntity
  8
0
100
AcDbLine
 62
7
  6
CONTINUOUS
 10
374.5457828739
 20
320.0263488852
 11
378.08130206
 21
322.0675696546
  0
LINE
  5
341
100
AcDbEntity
  8
0
100
AcDbLine
 62
7
  6
CONTINUOUS
 10
358.2823784262
 20
310.5142098346
 11
362.8785533681
 21
313.1677968347
  0
LINE
  5
342
100
AcDbEntity
  8
0
100
AcDbLine
 62
7
  6
CONTINUOUS
 10
356.9742254347
 20
309.5548001544
 11
363.8684878475
 21
313.5351806547
  0
LINE
  5
343
100
AcDbEntity
  8
0
100
AcDbLine
 62
7
  6
CONTINUOUS
 10
278.0260929024
 20
262.4638432942
 11
284.9203553152
 21
266.4442237944
  0
LINE
  5
344
100
AcDbEntity
  8
0
100
AcDbLine
 62
7
  6
CONTINUOUS
 10
290.7539928839
 20
269.6082043804
 11
295.3501678258
 21
272.2617913806
  0
LINE
  5
345
100
AcDbEntity
  8
0
100
AcDbLine
 62
7
  6
CONTINUOUS
 10
371.0102784077
 20
315.9439158449
 11
375.6064533496
 21
318.597502845
  0
LINE
  5
346
100
AcDbEntity
  8
0
100
AcDbLine
 62
7
  6
CONTINUOUS
 10
290.7539928839
 20
268.7917019633
 11
295.3501678258
 21
271.4452889635
  0
LINE
  5
347
100
AcDbEntity
  8
0
100
AcDbLine
 62
7
  6
CONTINUOUS
 10
371.0102784077
 20
315.1274134277
 11
375.6064533496
 21
317.7810004279
  0
LINE
  5
348
100
AcDbEntity
  8
0
100
AcDbLine
 62
7
  6
CONTINUOUS
 10
294.2894973501
 20
269.6081253351
 11
302.5979674374
 21
274.4049941431
  0
LINE
  5
349
100
AcDbEntity
  8
0
100
AcDbLine
 62
7
  6
CONTINUOUS
 10
374.5457828739
 20
315.9438367995
 11
378.08130206
 21
317.9850575689
  0
LINE
  5
34A
100
AcDbEntity
  8
0
100
AcDbLine
 62
7
  6
CONTINUOUS
 10
292.5218464001
 20
267.771075258
 11
293.5823935129
 21
268.3833787641
  0
LINE
  5
34B
100
AcDbEntity
  8
0
100
AcDbLine
 62
7
  6
CONTINUOUS
 10
372.7781319239
 20
314.1067867224
 11
373.8386790367
 21
314.7190902285
  0
LINE
  5
34C
100
AcDbEntity
  8
0
100
AcDbLine
 62
7
  6
CONTINUOUS
 10
378.4348922502
 20
316.9645398269
 11
373.8387173083
 21
314.3109528268
  0
LINE
  5
34D
100
AcDbEntity
  8
0
100
AcDbLine
 62
7
  6
CONTINUOUS
 10
298.1786067264
 20
270.6288283625
 11
293.5824317845
 21
267.9752413624
  0
LINE
  5
34E
100
AcDbEntity
  8
0
100
AcDbLine
 62
7
  6
CONTINUOUS
 10
384.4452895863
 20
318.3934028639
 11
380.9097704002
 21
316.3521820945
  0
LINE
  5
34F
100
AcDbEntity
  8
0
100
AcDbLine
 62
7
  6
CONTINUOUS
 10
308.9619549637
 20
274.8133394381
 11
300.6534848765
 21
270.0164706301
  0
LINE
  5
350
100
AcDbEntity
  8
0
100
AcDbLine
 62
7
  6
CONTINUOUS
 10
296.7644255477
 20
266.138157967
 11
301.3606004896
 21
268.7917449672
  0
LINE
  5
351
100
AcDbEntity
  8
0
100
AcDbLine
 62
7
  6
CONTINUOUS
 10
377.0207110714
 20
312.4738694314
 11
381.6168860133
 21
315.1274564316
  0
LINE
  5
352
100
AcDbEntity
  8
0
100
AcDbLine
 62
7
  6
CONTINUOUS
 10
303.4112128045
 20
268.4243316875
 11
311.7196828918
 21
273.2212004955
  0
LINE
  5
353
100
AcDbEntity
  8
0
100
AcDbLine
 62
7
  6
CONTINUOUS
 10
383.6674983283
 20
314.7600431519
 11
387.2030175144
 21
316.8012639212
  0
LINE
  5
354
100
AcDbEntity
  8
0
100
AcDbLine
 62
7
  6
CONTINUOUS
 10
376.7378848452
 20
310.1877110081
 11
369.8436224323
 21
306.2073305078
  0
LINE
  5
355
100
AcDbEntity
  8
0
100
AcDbLine
 62
7
  6
CONTINUOUS
 10
296.4815993214
 20
263.8519995437
 11
289.5873369086
 21
259.8716190434
  0
LINE
  5
356
100
AcDbEntity
  8
0
100
AcDbLine
 62
7
  6
CONTINUOUS
 10
297.6836867373
 20
263.0355175247
 11
299.2039599874
 21
263.9132424555
  0
LINE
  5
357
100
AcDbEntity
  8
0
100
AcDbLine
 62
7
  6
CONTINUOUS
 10
375.7479503657
 20
308.1056721121
 11
379.4602455111
 21
310.2489539199
  0
LINE
  5
358
100
AcDbEntity
  8
0
100
AcDbLine
 62
7
  6
CONTINUOUS
 10
305.3557483569
 20
267.1791461009
 11
311.7196828918
 21
270.8533434858
  0
LINE
  5
359
100
AcDbEntity
  8
0
100
AcDbLine
 62
7
  6
CONTINUOUS
 10
385.6120338807
 20
313.5148575654
 11
387.2030175144
 21
314.4334069116
  0
LINE
  5
35A
100
AcDbEntity
  8
0
100
AcDbLine
 62
7
  6
CONTINUOUS
 10
305.3911160622
 20
267.1178870728
 11
310.3054634415
 21
269.9551699189
  0
LINE
  5
35B
100
AcDbEntity
  8
0
100
AcDbLine
 62
7
  6
CONTINUOUS
 10
385.6474015859
 20
313.4535985372
 11
385.7887980641
 21
313.5352333446
  0
LINE
  5
35C
100
AcDbEntity
  8
0
100
AcDbLine
 62
7
  6
CONTINUOUS
 10
299.2039599874
 20
262.6476009223
 11
301.3606004896
 21
263.8927304644
  0
LINE
  5
35D
100
AcDbEntity
  8
0
100
AcDbLine
 62
7
  6
CONTINUOUS
 10
379.4602455111
 20
308.9833123868
 11
381.6168860133
 21
310.2284419288
  0
LINE
  5
35E
100
AcDbEntity
  8
0
100
AcDbLine
 62
7
  6
CONTINUOUS
 10
292.2389983779
 20
258.340716214
 11
299.0271952151
 21
262.2598600911
  0
LINE
  5
35F
100
AcDbEntity
  8
0
100
AcDbLine
 62
7
  6
CONTINUOUS
 10
372.4952839016
 20
304.6764276784
 11
377.0914588435
 21
307.3300146785
  0
LINE
  5
360
100
AcDbEntity
  8
0
100
AcDbLine
 62
7
  6
CONTINUOUS
 10
303.4112128045
 20
264.3418196018
 11
305.3557483569
 21
265.464491025
  0
LINE
  5
361
100
AcDbEntity
  8
0
100
AcDbLine
 62
7
  6
CONTINUOUS
 10
383.6674983283
 20
310.6775310662
 11
385.6120338807
 21
311.8002024894
  0
LINE
  5
362
100
AcDbEntity
  8
0
100
AcDbLine
 62
7
  6
CONTINUOUS
 10
328.9023373421
 20
213.9430463791
 11
328.9023373421
 21
218.4338096733
  0
LINE
  5
363
100
AcDbEntity
  8
0
100
AcDbLine
 62
7
  6
CONTINUOUS
 10
341.2766544934
 20
225.5780823661
 11
341.2766544934
 21
221.0873190719
  0
LINE
  5
364
100
AcDbEntity
  8
0
100
AcDbLine
 62
7
  6
CONTINUOUS
 10
341.8069426278
 20
237.7234323459
 11
341.8069426278
 21
234.1482944652
  0
LINE
  5
365
100
AcDbEntity
  8
0
100
AcDbLine
 62
7
  6
CONTINUOUS
 10
342.8676072155
 20
234.4975588723
 11
342.8676072155
 21
237.1110712141
  0
LINE
  5
366
100
AcDbEntity
  8
0
100
AcDbLine
 62
7
  6
CONTINUOUS
 10
308.6083956852
 20
218.637954781
 11
309.2002157812
 21
220.3375310619
  0
LINE
  5
367
100
AcDbEntity
  8
0
100
AcDbLine
 62
7
  6
CONTINUOUS
 10
313.7350206796
 20
256.7485172603
 11
314.4421245168
 21
257.9732638313
  0
LINE
  5
368
100
AcDbEntity
  8
0
100
AcDbLine
 62
7
  6
CONTINUOUS
 10
299.0271952151
 20
259.8920030814
 11
292.2389983779
 21
255.9728592043
  0
LINE
  5
369
100
AcDbEntity
  8
0
100
AcDbLine
 62
7
  6
CONTINUOUS
 10
372.4952839016
 20
302.3085706687
 11
377.0914588435
 21
304.9621576689
  0
LINE
  5
36A
100
AcDbEntity
  8
0
100
AcDbLine
 62
7
  6
CONTINUOUS
 10
290.8954899001
 20
255.0338615619
 11
299.2039599874
 21
259.8307303699
  0
LINE
  5
36B
100
AcDbEntity
  8
0
100
AcDbLine
 62
7
  6
CONTINUOUS
 10
371.1517754239
 20
301.3695730263
 11
379.4602455111
 21
306.1664418343
  0
LINE
  5
36C
100
AcDbEntity
  8
0
100
AcDbLine
 62
7
  6
CONTINUOUS
 10
337.4908467136
 20
280.5474992527
 11
348.244405989
 21
286.7560325351
  0
LINE
  5
36D
100
AcDbEntity
  8
0
100
AcDbLine
 62
7
  6
CONTINUOUS
 10
403.0068801279
 20
309.1058441037
 11
394.6984100406
 21
304.3089752957
  0
LINE
  5
36E
100
AcDbEntity
  8
0
100
AcDbLine
 62
7
  6
CONTINUOUS
 10
388.6880274243
 20
300.8388999878
 11
380.379557337
 21
296.0420311798
  0
LINE
  5
36F
100
AcDbEntity
  8
0
100
AcDbLine
 62
7
  6
CONTINUOUS
 10
322.7505946041
 20
262.7701326393
 11
314.4421245168
 21
257.9732638313
  0
LINE
  5
370
100
AcDbEntity
  8
0
100
AcDbLine
 62
7
  6
CONTINUOUS
 10
308.4317419005
 20
254.5031885234
 11
300.1232718133
 21
249.7063197154
  0
LINE
  5
371
100
AcDbEntity
  8
0
100
AcDbLine
 62
7
  6
CONTINUOUS
 10
294.2542934782
 20
246.2361939721
 11
287.0064187954
 21
242.0515119303
  0
LINE
  5
372
100
AcDbEntity
  8
0
100
AcDbLine
 62
7
  6
CONTINUOUS
 10
406.8959512325
 20
310.5755096537
 11
403.0656505191
 21
308.3640977061
  0
LINE
  5
373
100
AcDbEntity
  8
0
100
AcDbLine
 62
7
  6
CONTINUOUS
 10
296.2342007086
 20
246.6852995728
 11
300.064501422
 21
248.8967115205
  0
LINE
  5
374
100
AcDbEntity
  8
0
100
AcDbLine
 62
7
  6
CONTINUOUS
 10
322.8093649953
 20
262.0283862417
 11
380.3207869458
 21
295.2324229849
  0
LINE
  5
375
100
AcDbEntity
  8
0
100
AcDbLine
 62
7
  6
CONTINUOUS
 10
309.1388457377
 20
254.0949302601
 11
313.7350206796
 21
256.7485172603
  0
LINE
  5
376
100
AcDbEntity
  8
0
100
AcDbLine
 62
7
  6
CONTINUOUS
 10
389.3951312615
 20
300.4306417246
 11
393.9913062034
 21
303.0842287247
  0
LINE
  5
377
100
AcDbEntity
  8
0
100
AcDbLine
 62
7
  6
CONTINUOUS
 10
406.8959512325
 20
308.9833299403
 11
296.2342007086
 21
245.0931198594
  0
LINE
  5
378
100
AcDbEntity
  8
0
100
AcDbLine
 62
7
  6
CONTINUOUS
 10
387.8038547031
 20
350.052720939
 11
382.5358872508
 21
353.0941145601
  0
LINE
  5
379
100
AcDbEntity
  8
0
100
AcDbLine
 62
7
  6
CONTINUOUS
 10
347.2870371097
 20
224.5573943798
 11
347.2870371097
 21
229.048157674
  0
LINE
  5
37A
100
AcDbEntity
  8
0
100
AcDbLine
 62
7
  6
CONTINUOUS
 10
355.6307169569
 20
314.4129696737
 11
355.6307169569
 21
312.045112664
  0
LINE
  5
37B
100
AcDbEntity
  8
0
100
AcDbLine
 62
7
  6
CONTINUOUS
 10
355.6660724431
 20
310.3100455503
 11
355.6660724431
 21
312.0247006263
  0
LINE
  5
37C
100
AcDbEntity
  8
0
100
AcDbLine
 62
7
  6
CONTINUOUS
 10
356.9742254347
 20
309.5548001544
 11
356.9742254347
 21
311.2694552304
  0
LINE
  5
37D
100
AcDbEntity
  8
0
100
AcDbLine
 62
7
  6
CONTINUOUS
 10
358.2823784262
 20
312.8820668442
 11
358.2823784262
 21
310.5142098346
  0
LINE
  5
37E
100
AcDbEntity
  8
0
100
AcDbLine
 62
7
  6
CONTINUOUS
 10
359.661354261
 20
236.1924303667
 11
359.661354261
 21
231.7016670725
  0
LINE
  5
37F
100
AcDbEntity
  8
0
100
AcDbLine
 62
7
  6
CONTINUOUS
 10
360.1916423953
 20
248.3377803465
 11
360.1916423953
 21
244.7626424659
  0
LINE
  5
380
100
AcDbEntity
  8
0
100
AcDbLine
 62
7
  6
CONTINUOUS
 10
361.252306983
 20
245.111906873
 11
361.252306983
 21
247.7254192148
  0
LINE
  5
381
100
AcDbEntity
  8
0
100
AcDbLine
 62
7
  6
CONTINUOUS
 10
345.1420781198
 20
315.5424005223
 11
345.200848511
 21
316.3520087172
  0
LINE
  5
382
100
AcDbEntity
  8
0
100
AcDbLine
 62
7
  6
CONTINUOUS
 10
359.5197012145
 20
324.6189528331
 11
358.8125973773
 21
323.3942062621
  0
LINE
  5
383
100
AcDbEntity
  8
0
100
AcDbLine
 62
7
  6
CONTINUOUS
 10
263.4243150553
 20
151.6847749055
 11
270.6367741949
 21
164.1771899297
  0
LINE
  5
384
100
AcDbEntity
  8
0
100
AcDbLine
 62
7
  6
CONTINUOUS
 10
275.5511761864
 20
171.9544165927
 11
281.9504659132
 21
183.0383730603
  0
LINE
  5
385
100
AcDbEntity
  8
0
100
AcDbLine
 62
7
  6
CONTINUOUS
 10
271.8962097922
 20
161.3933606768
 11
264.6837506526
 21
148.9009456526
  0
LINE
  5
386
100
AcDbEntity
  8
0
100
AcDbLine
 62
7
  6
CONTINUOUS
 10
397.6681693194
 20
282.5489277605
 11
287.0064187954
 21
218.6587176796
  0
LINE
  5
387
100
AcDbEntity
  8
0
100
AcDbLine
 62
7
  6
CONTINUOUS
 10
235.2812879375
 20
184.5892276557
 11
236.5540748445
 21
185.3240671326
  0
LINE
  5
388
100
AcDbEntity
  8
0
100
AcDbLine
 62
7
  6
CONTINUOUS
 10
362.8785533681
 20
315.5356538444
 11
362.8785533681
 21
313.1677968347
  0
LINE
  5
389
100
AcDbEntity
  8
0
100
AcDbLine
 62
7
  6
CONTINUOUS
 10
363.8684878475
 20
313.5351806547
 11
363.8684878475
 21
317.6176927403
  0
LINE
  5
38A
100
AcDbEntity
  8
0
100
AcDbLine
 62
7
  6
CONTINUOUS
 10
365.6717368773
 20
235.1717423804
 11
365.6717368773
 21
239.6625056746
  0
LINE
  5
38B
100
AcDbEntity
  8
0
100
AcDbLine
 62
7
  6
CONTINUOUS
 10
367.4394964703
 20
212.9628589978
 11
367.4394964703
 21
219.73982906
  0
LINE
  5
38C
100
AcDbEntity
  8
0
100
AcDbLine
 62
7
  6
CONTINUOUS
 10
367.8282846445
 20
316.9645177311
 11
367.8282846445
 21
317.7809992402
  0
LINE
  5
38D
100
AcDbEntity
  8
0
100
AcDbLine
 62
7
  6
CONTINUOUS
 10
369.8436224323
 20
302.1248184222
 11
369.8436224323
 21
306.2073305078
  0
LINE
  5
38E
100
AcDbEntity
  8
0
100
AcDbLine
 62
7
  6
CONTINUOUS
 10
370.4446877785
 20
236.1719102222
 11
370.4446877785
 21
248.746047446
  0
LINE
  5
38F
100
AcDbEntity
  8
0
100
AcDbLine
 62
7
  6
CONTINUOUS
 10
370.5859319079
 20
217.6776038012
 11
370.5859319079
 21
221.5564135633
  0
LINE
  5
390
100
AcDbEntity
  8
0
100
AcDbLine
 62
7
  6
CONTINUOUS
 10
371.0102784077
 20
315.9439158449
 11
371.0102784077
 21
315.1274134277
  0
LINE
  5
391
100
AcDbEntity
  8
0
100
AcDbLine
 62
7
  6
CONTINUOUS
 10
371.1517754239
 20
301.3695730263
 11
371.1517754239
 21
303.0842281023
  0
LINE
  5
392
100
AcDbEntity
  8
0
100
AcDbLine
 62
7
  6
CONTINUOUS
 10
371.7880549458
 20
320.0671600431
 11
371.7880549458
 21
321.6184878278
  0
LINE
  5
393
100
AcDbEntity
  8
0
100
AcDbLine
 62
7
  6
CONTINUOUS
 10
372.4952839016
 20
304.6764276784
 11
372.4952839016
 21
302.3085706687
  0
LINE
  5
394
100
AcDbEntity
  8
0
100
AcDbLine
 62
7
  6
CONTINUOUS
 10
373.8386790367
 20
314.7190902285
 11
373.8386790367
 21
316.7603815448
  0
LINE
  5
395
100
AcDbEntity
  8
0
100
AcDbLine
 62
7
  6
CONTINUOUS
 10
373.8387173083
 20
314.3109528268
 11
373.8387173083
 21
313.4944504096
  0
LINE
  5
396
100
AcDbEntity
  8
0
100
AcDbLine
 62
7
  6
CONTINUOUS
 10
374.5457828739
 20
315.9438367995
 11
374.5457828739
 21
317.1686256986
  0
LINE
  5
397
100
AcDbEntity
  8
0
100
AcDbLine
 62
7
  6
CONTINUOUS
 10
374.5457828739
 20
319.2098673761
 11
374.5457828739
 21
320.0263488852
  0
LINE
  5
398
100
AcDbEntity
  8
0
100
AcDbLine
 62
7
  6
CONTINUOUS
 10
375.6064533496
 20
318.597502845
 11
375.6064533496
 21
317.7810004279
  0
LINE
  5
399
100
AcDbEntity
  8
0
100
AcDbLine
 62
7
  6
CONTINUOUS
 10
376.8086223134
 20
225.1490640987
 11
376.8086223134
 21
239.8461076071
  0
LINE
  5
39A
100
AcDbEntity
  8
0
100
AcDbLine
 62
7
  6
CONTINUOUS
 10
377.0207110714
 20
311.6573879224
 11
377.0207110714
 21
312.4738694314
  0
LINE
  5
39B
100
AcDbEntity
  8
0
100
AcDbLine
 62
7
  6
CONTINUOUS
 10
377.0914588435
 20
307.3300146785
 11
377.0914588435
 21
304.9621576689
  0
LINE
  5
39C
100
AcDbEntity
  8
0
100
AcDbLine
 62
7
  6
CONTINUOUS
 10
378.08130206
 20
317.9850575689
 11
378.08130206
 21
322.0675696546
  0
LINE
  5
39D
100
AcDbEntity
  8
0
100
AcDbLine
 62
7
  6
CONTINUOUS
 10
378.6467837624
 20
436.989680423
 11
378.6467837624
 21
406.3708397806
  0
LINE
  5
39E
100
AcDbEntity
  8
0
100
AcDbLine
 62
7
  6
CONTINUOUS
 10
379.4602455111
 20
306.1664418343
 11
379.4602455111
 21
310.2489539199
  0
LINE
  5
39F
100
AcDbEntity
  8
0
100
AcDbLine
 62
7
  6
CONTINUOUS
 10
364.5925832614
 20
253.6760292678
 11
311.5597954703
 21
223.0577177275
  0
LINE
  5
3A0
100
AcDbEntity
  8
0
100
AcDbLine
 62
7
  6
CONTINUOUS
 10
281.5616739118
 20
203.0226158954
 11
308.6083956852
 21
218.637954781
  0
LINE
  5
3A1
100
AcDbEntity
  8
0
100
AcDbLine
 62
7
  6
CONTINUOUS
 10
365.6010301505
 20
251.5424712179
 11
392.2234244357
 21
266.9128259763
  0
LINE
  5
3A2
100
AcDbEntity
  8
0
100
AcDbLine
 62
7
  6
CONTINUOUS
 10
204.5222710187
 20
158.5022823075
 11
228.0688287979
 21
172.0968126315
  0
LINE
  5
3A3
100
AcDbEntity
  8
0
100
AcDbLine
 62
7
  6
CONTINUOUS
 10
370.4446877785
 20
248.746047446
 11
318.1190038246
 21
218.5359800595
  0
LINE
  5
3A4
100
AcDbEntity
  8
0
100
AcDbLine
 62
7
  6
CONTINUOUS
 10
365.6717368773
 20
239.6625056746
 11
359.661354261
 21
236.1924303667
  0
LINE
  5
3A5
100
AcDbEntity
  8
0
100
AcDbLine
 62
7
  6
CONTINUOUS
 10
347.2870371097
 20
229.048157674
 11
341.2766544934
 21
225.5780823661
  0
LINE
  5
3A6
100
AcDbEntity
  8
0
100
AcDbLine
 62
7
  6
CONTINUOUS
 10
328.9023373421
 20
218.4338096733
 11
322.8919547258
 21
214.9637343654
  0
LINE
  5
3A7
100
AcDbEntity
  8
0
100
AcDbLine
 62
7
  6
CONTINUOUS
 10
410.2542881919
 20
378.7318073109
 11
382.5358872508
 21
394.7346715226
  0
LINE
  5
3A8
100
AcDbEntity
  8
0
100
AcDbLine
 62
7
  6
CONTINUOUS
 10
382.5358872508
 20
404.1255156307
 11
378.6467837624
 21
406.3708397806
  0
LINE
  5
3A9
100
AcDbEntity
  8
0
100
AcDbLine
 62
7
  6
CONTINUOUS
 10
380.9097704002
 20
315.5357005854
 11
380.9097704002
 21
316.3521820945
  0
LINE
  5
3AA
100
AcDbEntity
  8
0
100
AcDbLine
 62
7
  6
CONTINUOUS
 10
381.6168860133
 20
310.2284419288
 11
381.6168860133
 21
315.1274564316
  0
LINE
  5
3AB
100
AcDbEntity
  8
0
100
AcDbLine
 62
7
  6
CONTINUOUS
 10
382.5358872508
 20
353.0941145601
 11
382.5358872508
 21
404.1255156307
  0
LINE
  5
3AC
100
AcDbEntity
  8
0
100
AcDbLine
 62
7
  6
CONTINUOUS
 10
383.6674983283
 20
310.6775310662
 11
383.6674983283
 21
314.7600431519
  0
LINE
  5
3AD
100
AcDbEntity
  8
0
100
AcDbLine
 62
7
  6
CONTINUOUS
 10
385.6120338807
 20
311.8002024894
 11
385.6120338807
 21
313.5148575654
  0
LINE
  5
3AE
100
AcDbEntity
  8
0
100
AcDbLine
 62
7
  6
CONTINUOUS
 10
385.7887980641
 20
313.5352333446
 11
385.7887980641
 21
313.6169118051
  0
LINE
  5
3AF
100
AcDbEntity
  8
0
100
AcDbLine
 62
7
  6
CONTINUOUS
 10
387.2030175144
 20
316.8012639212
 11
387.2030175144
 21
314.4334069116
  0
LINE
  5
3B0
100
AcDbEntity
  8
0
100
AcDbLine
 62
7
  6
CONTINUOUS
 10
387.8038547031
 20
350.052720939
 11
387.8038547031
 21
328.0071556765
  0
LINE
  5
3B1
100
AcDbEntity
  8
0
100
AcDbLine
 62
7
  6
CONTINUOUS
 10
395.4406014631
 20
227.9039584333
 11
395.4406014631
 21
240.5597458988
  0
LINE
  5
3B2
100
AcDbEntity
  8
0
100
AcDbLine
 62
7
  6
CONTINUOUS
 10
397.6681693194
 20
282.5489277605
 11
397.6681693194
 21
303.6556993704
  0
LINE
  5
3B3
100
AcDbEntity
  8
0
100
AcDbLine
 62
7
  6
CONTINUOUS
 10
380.3207869458
 20
295.2324229849
 11
380.379557337
 21
296.0420311798
  0
LINE
  5
3B4
100
AcDbEntity
  8
0
100
AcDbLine
 62
7
  6
CONTINUOUS
 10
365.7685227583
 20
252.9970633716
 11
365.3187576709
 21
251.7054376231
  0
LINE
  5
3B5
100
AcDbEntity
  8
0
100
AcDbLine
 62
7
  6
CONTINUOUS
 10
393.9913062034
 20
303.0842287247
 11
394.6984100406
 21
304.3089752957
  0
LINE
  5
3B6
100
AcDbEntity
  8
0
100
AcDbLine
 62
7
  6
CONTINUOUS
 10
228.1109351508
 20
155.9138296913
 11
236.5829126263
 21
160.8050989703
  0
LINE
  5
3B7
100
AcDbEntity
  8
0
100
AcDbLine
 62
7
  6
CONTINUOUS
 10
322.8919547258
 20
210.4729710712
 11
328.9023373421
 21
213.9430463791
  0
LINE
  5
3B8
100
AcDbEntity
  8
0
100
AcDbLine
 62
7
  6
CONTINUOUS
 10
341.2766544934
 20
221.0873190719
 11
347.2870371097
 21
224.5573943798
  0
LINE
  5
3B9
100
AcDbEntity
  8
0
100
AcDbLine
 62
7
  6
CONTINUOUS
 10
359.661354261
 20
231.7016670725
 11
365.6717368773
 21
235.1717423804
  0
LINE
  5
3BA
100
AcDbEntity
  8
0
100
AcDbLine
 62
7
  6
CONTINUOUS
 10
376.8086223134
 20
239.8461076071
 11
370.4446877785
 21
236.1719102222
  0
LINE
  5
3BB
100
AcDbEntity
  8
0
100
AcDbLine
 62
7
  6
CONTINUOUS
 10
318.1190038246
 20
205.9618428357
 11
311.7550692897
 21
202.2876454509
  0
LINE
  5
3BC
100
AcDbEntity
  8
0
100
AcDbLine
 62
7
  6
CONTINUOUS
 10
229.8728881848
 20
153.4201272838
 11
236.5829126263
 21
157.2941385767
  0
LINE
  5
3BD
100
AcDbEntity
  8
0
100
AcDbLine
 62
7
  6
CONTINUOUS
 10
243.8661427953
 20
156.6002191988
 11
235.3941653199
 21
151.7089499197
  0
LINE
  5
3BE
100
AcDbEntity
  8
0
100
AcDbLine
 62
7
  6
CONTINUOUS
 10
395.4406014631
 20
240.5597458988
 11
417.7143723354
 21
253.4194367457
  0
LINE
  5
3BF
100
AcDbEntity
  8
0
100
AcDbLine
 62
7
  6
CONTINUOUS
 10
417.7143723354
 20
249.9084763521
 11
398.4811479631
 21
238.8042353668
  0
LINE
  5
3C0
100
AcDbEntity
  8
0
100
AcDbLine
 62
7
  6
CONTINUOUS
 10
270.6367741949
 20
164.1771899297
 11
271.9095611019
 21
164.9120294066
  0
LINE
  5
3C1
100
AcDbEntity
  8
0
100
AcDbLine
 62
7
  6
CONTINUOUS
 10
311.7550692897
 20
187.5906019426
 11
321.1241951328
 21
192.9998369814
  0
LINE
  5
3C2
100
AcDbEntity
  8
0
100
AcDbLine
 62
7
  6
CONTINUOUS
 10
367.4394964703
 20
219.73982906
 11
376.8086223134
 21
225.1490640987
  0
LINE
  5
3C3
100
AcDbEntity
  8
0
100
AcDbLine
 62
7
  6
CONTINUOUS
 10
403.0068801279
 20
309.1058441037
 11
403.0656505191
 21
308.3640977061
  0
LINE
  5
3C4
100
AcDbEntity
  8
0
100
AcDbLine
 62
7
  6
CONTINUOUS
 10
398.4811479631
 20
238.8042353668
 11
398.4811479631
 21
226.1484479012
  0
LINE
  5
3C5
100
AcDbEntity
  8
0
100
AcDbLine
 62
7
  6
CONTINUOUS
 10
406.8959512325
 20
310.5755096537
 11
406.8959512325
 21
308.9833299403
  0
LINE
  5
3C6
100
AcDbEntity
  8
0
100
AcDbLine
 62
7
  6
CONTINUOUS
 10
410.2542881919
 20
378.7318073109
 11
410.2542881919
 21
372.1997879739
  0
LINE
  5
3C7
100
AcDbEntity
  8
0
100
AcDbLine
 62
7
  6
CONTINUOUS
 10
392.2234244357
 20
266.9128259763
 11
397.6681693194
 21
282.5489277605
  0
LINE
  5
3C8
100
AcDbEntity
  8
0
100
AcDbLine
 62
7
  6
CONTINUOUS
 10
274.9501854627
 20
163.1565638273
 11
271.8962097922
 21
161.3933606768
  0
LINE
  5
3C9
100
AcDbEntity
  8
0
100
AcDbLine
 62
7
  6
CONTINUOUS
 10
275.5511761864
 20
162.8095895209
 11
318.6142788074
 21
187.671935003
  0
LINE
  5
3CA
100
AcDbEntity
  8
0
100
AcDbLine
 62
7
  6
CONTINUOUS
 10
367.4394964703
 20
215.8610192978
 11
370.5859319079
 21
217.6776038012
  0
LINE
  5
3CB
100
AcDbEntity
  8
0
100
AcDbLine
 62
7
  6
CONTINUOUS
 10
320.0639417224
 20
186.834990663
 11
289.1055356558
 21
168.9612532786
  0
LINE
  5
3CC
100
AcDbEntity
  8
0
100
AcDbLine
 62
7
  6
CONTINUOUS
 10
321.1241951328
 20
186.2228669192
 11
367.4394964703
 21
212.9628589978
  0
LINE
  5
3CD
100
AcDbEntity
  8
0
100
AcDbLine
 62
7
  6
CONTINUOUS
 10
239.8777572761
 20
138.0902445815
 11
263.4243150553
 21
151.6847749055
  0
LINE
  5
3CE
100
AcDbEntity
  8
0
100
AcDbLine
 62
7
  6
CONTINUOUS
 10
375.42956287
 20
216.3506488787
 11
395.4406014631
 21
227.9039584333
  0
LINE
  5
3CF
100
AcDbEntity
  8
0
100
AcDbLine
 62
7
  6
CONTINUOUS
 10
398.4811479631
 20
226.1484479012
 11
374.1701272726
 21
212.1125573443
  0
LINE
  5
3D0
100
AcDbEntity
  8
0
100
AcDbLine
 62
7
  6
CONTINUOUS
 10
264.6837506526
 20
148.9009456526
 11
239.8777572761
 21
134.5792841879
  0
LINE
  5
3D1
100
AcDbEntity
  8
0
100
AcDbLine
 62
7
  6
CONTINUOUS
 10
228.3152561962
 20
523.781664834
 11
265.5092277389
 21
502.3082011462
  0
LINE
  5
3D2
100
AcDbEntity
  8
0
100
AcDbLine
 62
7
  6
CONTINUOUS
 10
284.884034208
 20
491.1224044723
 11
322.0780057507
 21
469.6489407846
  0
LINE
  5
3D3
100
AcDbEntity
  8
0
100
AcDbLine
 62
7
  6
CONTINUOUS
 10
341.4528122197
 20
458.4631441107
 11
378.6467837624
 21
436.989680423
  0
LINE
  5
3D4
100
AcDbEntity
  8
0
100
AcDbLine
 62
7
  6
CONTINUOUS
 10
417.7143723354
 20
253.4194367457
 11
417.7143723354
 21
249.9084763521
  0
SPLINE
  5
3D5
100
AcDbEntity
  8
0
100
AcDbSpline
 62
7
  6
CONTINUOUS
 70
0
 71
3
 72
11
 73
7
 74
0
 42
0.0000001
 43
0.0000001
 44
0.0000000001
 40
0.0
 40
0.0
 40
0.0
 40
0.0
 40
0.2279691132
 40
0.4903715476
 40
0.7581037337
 40
1.0
 40
1.0
 40
1.0
 40
1.0
 10
81.1822395415
 20
227.2372481036
 30
0.0
 10
81.6758765733
 20
227.6164264291
 30
0.0
 10
82.9219066489
 20
228.1890616036
 30
0.0
 10
84.9840459779
 20
228.513909151
 30
0.0
 10
87.103675513
 20
228.3490787928
 30
0.0
 10
88.4439461109
 20
227.8866488746
 30
0.0
 10
89.0159462858
 20
227.5564118906
 30
0.0
  0
SPLINE
  5
3D6
100
AcDbEntity
  8
0
100
AcDbSpline
 62
7
  6
CONTINUOUS
 70
0
 71
3
 72
11
 73
7
 74
0
 42
0.0000001
 43
0.0000001
 44
0.0000000001
 40
0.0
 40
0.0
 40
0.0
 40
0.0
 40
0.2177822878
 40
0.4509146108
 40
0.7103059136
 40
1.0
 40
1.0
 40
1.0
 40
1.0
 10
80.1390302377
 20
228.9445027435
 30
0.0
 10
80.1390572846
 20
228.7464421856
 30
0.0
 10
80.2122081546
 20
228.3336162432
 30
0.0
 10
80.5251908168
 20
227.758415472
 30
0.0
 10
81.0199418533
 20
227.2384781295
 30
0.0
 10
81.4339018312
 20
226.9533609669
 30
0.0
 10
81.6620663788
 20
226.821633084
 30
0.0
  0
SPLINE
  5
3D7
100
AcDbEntity
  8
0
100
AcDbSpline
 62
7
  6
CONTINUOUS
 70
0
 71
3
 72
9
 73
5
 74
0
 42
0.0000001
 43
0.0000001
 44
0.0000000001
 40
0.0
 40
0.0
 40
0.0
 40
0.0
 40
0.5253048704
 40
1.0
 40
1.0
 40
1.0
 40
1.0
 10
109.6213585322
 20
231.002008505
 30
0.0
 10
110.530938456
 20
230.9623862515
 30
0.0
 10
112.2594109407
 20
230.7163774896
 30
0.0
 10
113.900598476
 20
230.090419434
 30
0.0
 10
114.613105193
 20
229.6790627953
 30
0.0
  0
SPLINE
  5
3D8
100
AcDbEntity
  8
0
100
AcDbSpline
 62
7
  6
CONTINUOUS
 70
0
 71
3
 72
9
 73
5
 74
0
 42
0.0000001
 43
0.0000001
 44
0.0000000001
 40
0.0
 40
0.0
 40
0.0
 40
0.0
 40
0.2551070605
 40
1.0
 40
1.0
 40
1.0
 40
1.0
 10
114.613105193
 20
229.6790627953
 30
0.0
 10
114.6632351465
 20
229.6501209079
 30
0.0
 10
114.8583937291
 20
229.5343621049
 30
0.0
 10
115.0480486071
 20
229.4092593932
 30
0.0
 10
115.1852959541
 20
229.3106156064
 30
0.0
  0
SPLINE
  5
3D9
100
AcDbEntity
  8
0
100
AcDbSpline
 62
7
  6
CONTINUOUS
 70
0
 71
3
 72
9
 73
5
 74
0
 42
0.0000001
 43
0.0000001
 44
0.0000000001
 40
0.0
 40
0.0
 40
0.0
 40
0.0
 40
0.2566898858
 40
1.0
 40
1.0
 40
1.0
 40
1.0
 10
89.0159462858
 20
227.5564118906
 30
0.0
 10
89.0585363241
 20
227.5318230768
 30
0.0
 10
89.2229813452
 20
227.4335148225
 30
0.0
 10
89.3813882233
 20
227.3249803706
 30
0.0
 10
89.4943610253
 20
227.238277681
 30
0.0
  0
SPLINE
  5
3DA
100
AcDbEntity
  8
0
100
AcDbSpline
 62
7
  6
CONTINUOUS
 70
0
 71
3
 72
15
 73
11
 74
0
 42
0.0000001
 43
0.0000001
 44
0.0000000001
 40
0.0
 40
0.0
 40
0.0
 40
0.0
 40
0.1288324698
 40
0.2705729754
 40
0.4178912361
 40
0.5623895189
 40
0.6962039803
 40
0.813594215
 40
0.9130655626
 40
1.0
 40
1.0
 40
1.0
 40
1.0
 10
81.6620663788
 20
226.821633084
 30
0.0
 10
82.0470019344
 20
226.5993954651
 30
0.0
 10
82.9185356484
 20
226.2397958177
 30
0.0
 10
84.3389481856
 20
225.9556581437
 30
0.0
 10
85.8413813463
 20
225.9140942063
 30
0.0
 10
87.3027064071
 20
226.119367986
 30
0.0
 10
88.6062864027
 20
226.5548884753
 30
0.0
 10
89.6504965941
 20
227.1911124023
 30
0.0
 10
90.3578814167
 20
227.9955696021
 30
0.0
 10
90.5390233852
 20
228.6445715588
 30
0.0
 10
90.5389824269
 20
228.9445026249
 30
0.0
  0
SPLINE
  5
3DB
100
AcDbEntity
  8
0
100
AcDbSpline
 62
7
  6
CONTINUOUS
 70
0
 71
3
 72
11
 73
7
 74
0
 42
0.0000001
 43
0.0000001
 44
0.0000000001
 40
0.0
 40
0.0
 40
0.0
 40
0.0
 40
0.2177822878
 40
0.4509146108
 40
0.7103059136
 40
1.0
 40
1.0
 40
1.0
 40
1.0
 10
90.5389824269
 20
228.9445026249
 30
0.0
 10
90.53895538
 20
229.1425631827
 30
0.0
 10
90.46580451
 20
229.5553891251
 30
0.0
 10
90.1528218478
 20
230.1305898963
 30
0.0
 10
89.6580708113
 20
230.6505272388
 30
0.0
 10
89.2441108334
 20
230.9356444014
 30
0.0
 10
89.0159462858
 20
231.0673722843
 30
0.0
  0
SPLINE
  5
3DC
100
AcDbEntity
  8
0
100
AcDbSpline
 62
7
  6
CONTINUOUS
 70
0
 71
3
 72
9
 73
5
 74
0
 42
0.0000001
 43
0.0000001
 44
0.0000000001
 40
0.0
 40
0.0
 40
0.0
 40
0.0
 40
0.4746951296
 40
1.0
 40
1.0
 40
1.0
 40
1.0
 10
114.613105193
 20
233.1900231889
 30
0.0
 10
113.900598476
 20
233.6013798277
 30
0.0
 10
112.2594109407
 20
234.2273378832
 30
0.0
 10
110.530938456
 20
234.4733466452
 30
0.0
 10
109.6213585322
 20
234.5129688987
 30
0.0
  0
SPLINE
  5
3DD
100
AcDbEntity
  8
0
100
AcDbSpline
 62
7
  6
CONTINUOUS
 70
0
 71
3
 72
11
 73
7
 74
0
 42
0.0000001
 43
0.0000001
 44
0.0000000001
 40
0.0
 40
0.0
 40
0.0
 40
0.0
 40
0.2181009555
 40
0.4533331109
 40
0.7130617274
 40
1.0
 40
1.0
 40
1.0
 40
1.0
 10
116.9045887012
 20
230.3080891271
 30
0.0
 10
116.8687446143
 20
230.5823332593
 30
0.0
 10
116.7029411628
 20
231.1430187678
 30
0.0
 10
116.2148994688
 20
231.9149332814
 30
0.0
 10
115.5049007969
 20
232.6167854898
 30
0.0
 10
114.9282277625
 20
233.0080912044
 30
0.0
 10
114.613105193
 20
233.1900231889
 30
0.0
  0
SPLINE
  5
3DE
100
AcDbEntity
  8
0
100
AcDbSpline
 62
7
  6
CONTINUOUS
 70
0
 71
3
 72
15
 73
11
 74
0
 42
0.0000001
 43
0.0000001
 44
0.0000000001
 40
0.0
 40
0.0
 40
0.0
 40
0.0
 40
0.1288324698
 40
0.2705729754
 40
0.4178912361
 40
0.5623895189
 40
0.6962039803
 40
0.813594215
 40
0.9130655626
 40
1.0
 40
1.0
 40
1.0
 40
1.0
 10
89.0159462858
 20
231.0673722843
 30
0.0
 10
88.6310107302
 20
231.2896099032
 30
0.0
 10
87.7594770162
 20
231.6492095506
 30
0.0
 10
86.339064479
 20
231.9333472246
 30
0.0
 10
84.8366313183
 20
231.9749111621
 30
0.0
 10
83.3753062575
 20
231.7696373823
 30
0.0
 10
82.0717262619
 20
231.334116893
 30
0.0
 10
81.0275160705
 20
230.697892966
 30
0.0
 10
80.3201312479
 20
229.8934357662
 30
0.0
 10
80.1389892794
 20
229.2444338096
 30
0.0
 10
80.1390302377
 20
228.9445027435
 30
0.0
  0
SPLINE
  5
3DF
100
AcDbEntity
  8
0
100
AcDbSpline
 62
7
  6
CONTINUOUS
 70
0
 71
3
 72
11
 73
7
 74
0
 42
0.0000001
 43
0.0000001
 44
0.0000000001
 40
0.0
 40
0.0
 40
0.0
 40
0.0
 40
0.2181009555
 40
0.4533331109
 40
0.7130617274
 40
1.0
 40
1.0
 40
1.0
 40
1.0
 10
228.1109351508
 20
155.9138296913
 30
0.0
 10
228.1467792377
 20
155.6395855591
 30
0.0
 10
228.3125826892
 20
155.0789000505
 30
0.0
 10
228.8006243832
 20
154.3069855369
 30
0.0
 10
229.5106230552
 20
153.6051333286
 30
0.0
 10
230.0872960896
 20
153.2138276139
 30
0.0
 10
230.4024186591
 20
153.0318956294
 30
0.0
  0
SPLINE
  5
3E0
100
AcDbEntity
  8
0
100
AcDbSpline
 62
7
  6
CONTINUOUS
 70
0
 71
3
 72
9
 73
5
 74
0
 42
0.0000001
 43
0.0000001
 44
0.0000000001
 40
0.0
 40
0.0
 40
0.0
 40
0.0
 40
0.4746951296
 40
1.0
 40
1.0
 40
1.0
 40
1.0
 10
230.4024186591
 20
153.0318956294
 30
0.0
 10
231.1149253761
 20
152.6205389907
 30
0.0
 10
232.7561129114
 20
151.9945809352
 30
0.0
 10
234.484585396
 20
151.7485721732
 30
0.0
 10
235.3941653199
 20
151.7089499197
 30
0.0
  0
SPLINE
  5
3E1
100
AcDbEntity
  8
0
100
AcDbSpline
 62
7
  6
CONTINUOUS
 70
0
 71
3
 72
11
 73
7
 74
0
 42
0.0000001
 43
0.0000001
 44
0.0000000001
 40
0.0
 40
0.0
 40
0.0
 40
0.0
 40
0.2279691132
 40
0.4903715476
 40
0.7581037337
 40
1.0
 40
1.0
 40
1.0
 40
1.0
 10
386.6875125321
 20
256.6110270278
 30
0.0
 10
387.1811495639
 20
256.9902053534
 30
0.0
 10
388.4271796395
 20
257.5628405278
 30
0.0
 10
390.4893189685
 20
257.8876880752
 30
0.0
 10
392.6089485036
 20
257.7228577171
 30
0.0
 10
393.9492191015
 20
257.2604277989
 30
0.0
 10
394.5212192764
 20
256.9301908149
 30
0.0
  0
SPLINE
  5
3E2
100
AcDbEntity
  8
0
100
AcDbSpline
 62
7
  6
CONTINUOUS
 70
0
 71
3
 72
9
 73
5
 74
0
 42
0.0000001
 43
0.0000001
 44
0.0000000001
 40
0.0
 40
0.0
 40
0.0
 40
0.0
 40
0.5253048704
 40
1.0
 40
1.0
 40
1.0
 40
1.0
 10
236.5829126263
 20
157.2941385767
 30
0.0
 10
237.4924925501
 20
157.2545163232
 30
0.0
 10
239.2209650348
 20
157.0085075612
 30
0.0
 10
240.8621525701
 20
156.3825495057
 30
0.0
 10
241.5746592871
 20
155.971192867
 30
0.0
  0
SPLINE
  5
3E3
100
AcDbEntity
  8
0
100
AcDbSpline
 62
7
  6
CONTINUOUS
 70
0
 71
3
 72
9
 73
5
 74
0
 42
0.0000001
 43
0.0000001
 44
0.0000000001
 40
0.0
 40
0.0
 40
0.0
 40
0.0
 40
0.2551070605
 40
1.0
 40
1.0
 40
1.0
 40
1.0
 10
241.5746592871
 20
155.971192867
 30
0.0
 10
241.6247892406
 20
155.9422509796
 30
0.0
 10
241.8199478232
 20
155.8264921766
 30
0.0
 10
242.0096027012
 20
155.7013894649
 30
0.0
 10
242.1468500482
 20
155.602745678
 30
0.0
  0
SPLINE
  5
3E4
100
AcDbEntity
  8
0
100
AcDbSpline
 62
7
  6
CONTINUOUS
 70
0
 71
3
 72
11
 73
7
 74
0
 42
0.0000001
 43
0.0000001
 44
0.0000000001
 40
0.0
 40
0.0
 40
0.0
 40
0.0
 40
0.2177822878
 40
0.4509146108
 40
0.7103059136
 40
1.0
 40
1.0
 40
1.0
 40
1.0
 10
385.6443032283
 20
258.3182816677
 30
0.0
 10
385.6443302752
 20
258.1202211098
 30
0.0
 10
385.7174811452
 20
257.7073951674
 30
0.0
 10
386.0304638074
 20
257.1321943963
 30
0.0
 10
386.5252148439
 20
256.6122570538
 30
0.0
 10
386.9391748218
 20
256.3271398911
 30
0.0
 10
387.1673393694
 20
256.1954120083
 30
0.0
  0
SPLINE
  5
3E5
100
AcDbEntity
  8
0
100
AcDbSpline
 62
7
  6
CONTINUOUS
 70
0
 71
3
 72
9
 73
5
 74
0
 42
0.0000001
 43
0.0000001
 44
0.0000000001
 40
0.0
 40
0.0
 40
0.0
 40
0.0
 40
0.2566898858
 40
1.0
 40
1.0
 40
1.0
 40
1.0
 10
394.5212192764
 20
256.9301908149
 30
0.0
 10
394.5638093147
 20
256.9056020011
 30
0.0
 10
394.7282543358
 20
256.8072937468
 30
0.0
 10
394.8866612139
 20
256.6987592949
 30
0.0
 10
394.999634016
 20
256.6120566053
 30
0.0
  0
SPLINE
  5
3E6
100
AcDbEntity
  8
0
100
AcDbSpline
 62
7
  6
CONTINUOUS
 70
0
 71
3
 72
15
 73
11
 74
0
 42
0.0000001
 43
0.0000001
 44
0.0000000001
 40
0.0
 40
0.0
 40
0.0
 40
0.0
 40
0.1288324698
 40
0.2705729754
 40
0.4178912361
 40
0.5623895189
 40
0.6962039803
 40
0.813594215
 40
0.9130655626
 40
1.0
 40
1.0
 40
1.0
 40
1.0
 10
387.1673393694
 20
256.1954120083
 30
0.0
 10
387.552274925
 20
255.9731743893
 30
0.0
 10
388.423808639
 20
255.6135747419
 30
0.0
 10
389.8442211762
 20
255.3294370679
 30
0.0
 10
391.3466543369
 20
255.2878731305
 30
0.0
 10
392.8079793977
 20
255.4931469102
 30
0.0
 10
394.1115593933
 20
255.9286673996
 30
0.0
 10
395.1557695847
 20
256.5648913265
 30
0.0
 10
395.8631544073
 20
257.3693485264
 30
0.0
 10
396.0442963758
 20
258.018350483
 30
0.0
 10
396.0442554175
 20
258.3182815491
 30
0.0
  0
SPLINE
  5
3E7
100
AcDbEntity
  8
0
100
AcDbSpline
 62
7
  6
CONTINUOUS
 70
0
 71
3
 72
11
 73
7
 74
0
 42
0.0000001
 43
0.0000001
 44
0.0000000001
 40
0.0
 40
0.0
 40
0.0
 40
0.0
 40
0.2181009555
 40
0.4533331109
 40
0.7130617274
 40
1.0
 40
1.0
 40
1.0
 40
1.0
 10
243.8661427953
 20
156.6002191988
 30
0.0
 10
243.8302987084
 20
156.874463331
 30
0.0
 10
243.6644952569
 20
157.4351488395
 30
0.0
 10
243.1764535629
 20
158.2070633531
 30
0.0
 10
242.466454891
 20
158.9089155615
 30
0.0
 10
241.8897818566
 20
159.3002212761
 30
0.0
 10
241.5746592871
 20
159.4821532606
 30
0.0
  0
SPLINE
  5
3E8
100
AcDbEntity
  8
0
100
AcDbSpline
 62
7
  6
CONTINUOUS
 70
0
 71
3
 72
9
 73
5
 74
0
 42
0.0000001
 43
0.0000001
 44
0.0000000001
 40
0.0
 40
0.0
 40
0.0
 40
0.0
 40
0.4746951296
 40
1.0
 40
1.0
 40
1.0
 40
1.0
 10
241.5746592871
 20
159.4821532606
 30
0.0
 10
240.8621525701
 20
159.8935098993
 30
0.0
 10
239.2209650348
 20
160.5194679549
 30
0.0
 10
237.4924925501
 20
160.7654767169
 30
0.0
 10
236.5829126263
 20
160.8050989703
 30
0.0
  0
SPLINE
  5
3E9
100
AcDbEntity
  8
0
100
AcDbSpline
 62
7
  6
CONTINUOUS
 70
0
 71
3
 72
11
 73
7
 74
0
 42
0.0000001
 43
0.0000001
 44
0.0000000001
 40
0.0
 40
0.0
 40
0.0
 40
0.0
 40
0.2177822878
 40
0.4509146108
 40
0.7103059136
 40
1.0
 40
1.0
 40
1.0
 40
1.0
 10
396.0442554175
 20
258.3182815491
 30
0.0
 10
396.0442283706
 20
258.516342107
 30
0.0
 10
395.9710775006
 20
258.9291680494
 30
0.0
 10
395.6580948384
 20
259.5043688205
 30
0.0
 10
395.1633438019
 20
260.024306163
 30
0.0
 10
394.749383824
 20
260.3094233257
 30
0.0
 10
394.5212192764
 20
260.4411512085
 30
0.0
  0
SPLINE
  5
3EA
100
AcDbEntity
  8
0
100
AcDbSpline
 62
7
  6
CONTINUOUS
 70
0
 71
3
 72
15
 73
11
 74
0
 42
0.0000001
 43
0.0000001
 44
0.0000000001
 40
0.0
 40
0.0
 40
0.0
 40
0.0
 40
0.1288324698
 40
0.2705729754
 40
0.4178912361
 40
0.5623895189
 40
0.6962039803
 40
0.813594215
 40
0.9130655626
 40
1.0
 40
1.0
 40
1.0
 40
1.0
 10
394.5212192764
 20
260.4411512085
 30
0.0
 10
394.1362837208
 20
260.6633888275
 30
0.0
 10
393.2647500068
 20
261.0229884749
 30
0.0
 10
391.8443374696
 20
261.3071261489
 30
0.0
 10
390.3419043089
 20
261.3486900863
 30
0.0
 10
388.8805792481
 20
261.1434163066
 30
0.0
 10
387.5769992525
 20
260.7078958172
 30
0.0
 10
386.5327890611
 20
260.0716718902
 30
0.0
 10
385.8254042385
 20
259.2672146904
 30
0.0
 10
385.64426227
 20
258.6182127338
 30
0.0
 10
385.6443032283
 20
258.3182816677
 30
0.0
  0
SPLINE
  5
3EB
100
AcDbEntity
  8
0
100
AcDbSpline
 62
7
  6
CONTINUOUS
 70
0
 71
3
 72
9
 73
5
 74
0
 42
0.0000001
 43
0.0000001
 44
0.0000000001
 40
0.0
 40
0.0
 40
0.0
 40
0.0
 40
0.5251946297
 40
1.0
 40
1.0
 40
1.0
 40
1.0
 10
382.5459814197
 20
374.9717058697
 30
0.0
 10
383.2850941644
 20
375.0071758686
 30
0.0
 10
384.6893161649
 20
375.2122444534
 30
0.0
 10
386.0222412092
 20
375.7232797127
 30
0.0
 10
386.6015856444
 20
376.0577623818
 30
0.0
  0
SPLINE
  5
3EC
100
AcDbEntity
  8
0
100
AcDbSpline
 62
7
  6
CONTINUOUS
 70
0
 71
3
 72
15
 73
11
 74
0
 42
0.0000001
 43
0.0000001
 44
0.0000000001
 40
0.0
 40
0.0
 40
0.0
 40
0.0
 40
0.0869258731
 40
0.1863900355
 40
0.3037775758
 40
0.4375856292
 40
0.582082136
 40
0.7293904368
 40
0.8711742898
 40
1.0
 40
1.0
 40
1.0
 40
1.0
 10
75.6926706728
 20
336.253391547
 30
0.0
 10
75.6926638396
 20
335.8785189066
 30
0.0
 10
75.9188537188
 20
335.0673088972
 30
0.0
 10
76.8030907644
 20
334.0618079014
 30
0.0
 10
78.1081967994
 20
333.2664981312
 30
0.0
 10
79.7375942898
 20
332.7220121682
 30
0.0
 10
81.5641491173
 20
332.4655064512
 30
0.0
 10
83.4423212403
 20
332.5171920074
 30
0.0
 10
85.2178912805
 20
332.8726030963
 30
0.0
 10
86.30747987
 20
333.3220437226
 30
0.0
 10
86.7886165964
 20
333.599826483
 30
0.0
  0
SPLINE
  5
3ED
100
AcDbEntity
  8
0
100
AcDbSpline
 62
7
  6
CONTINUOUS
 70
0
 71
3
 72
15
 73
11
 74
0
 42
0.0000001
 43
0.0000001
 44
0.0000000001
 40
0.0
 40
0.0
 40
0.0
 40
0.0
 40
0.0869258731
 40
0.1863900355
 40
0.3037775758
 40
0.4375856292
 40
0.582082136
 40
0.7293904368
 40
0.8711742898
 40
1.0
 40
1.0
 40
1.0
 40
1.0
 10
188.8302266963
 20
270.9348708237
 30
0.0
 10
188.8302198631
 20
270.5599981833
 30
0.0
 10
189.0564097423
 20
269.7487881739
 30
0.0
 10
189.940646788
 20
268.7432871781
 30
0.0
 10
191.245752823
 20
267.9479774079
 30
0.0
 10
192.8751503134
 20
267.403491445
 30
0.0
 10
194.7017051408
 20
267.1469857279
 30
0.0
 10
196.5798772638
 20
267.1986712841
 30
0.0
 10
198.355447304
 20
267.5540823731
 30
0.0
 10
199.4450358935
 20
268.0035229993
 30
0.0
 10
199.92617262
 20
268.2813057597
 30
0.0
  0
SPLINE
  5
3EE
100
AcDbEntity
  8
0
100
AcDbSpline
 62
7
  6
CONTINUOUS
 70
0
 71
3
 72
15
 73
11
 74
0
 42
0.0000001
 43
0.0000001
 44
0.0000000001
 40
0.0
 40
0.0
 40
0.0
 40
0.0
 40
0.0869258731
 40
0.1863900355
 40
0.3037775758
 40
0.4375856292
 40
0.582082136
 40
0.7293904368
 40
0.8711742898
 40
1.0
 40
1.0
 40
1.0
 40
1.0
 10
132.2614486845
 20
303.5941311854
 30
0.0
 10
132.2614418513
 20
303.219258545
 30
0.0
 10
132.4876317305
 20
302.4080485356
 30
0.0
 10
133.3718687762
 20
301.4025475398
 30
0.0
 10
134.6769748112
 20
300.6072377695
 30
0.0
 10
136.3063723016
 20
300.0627518066
 30
0.0
 10
138.1329271291
 20
299.8062460895
 30
0.0
 10
140.011099252
 20
299.8579316457
 30
0.0
 10
141.7866692923
 20
300.2133427347
 30
0.0
 10
142.8762578817
 20
300.6627833609
 30
0.0
 10
143.3573946082
 20
300.9405661213
 30
0.0
  0
SPLINE
  5
3EF
100
AcDbEntity
  8
0
100
AcDbSpline
 62
7
  6
CONTINUOUS
 70
0
 71
3
 72
9
 73
5
 74
0
 42
0.0000001
 43
0.0000001
 44
0.0000000001
 40
0.0
 40
0.0
 40
0.0
 40
0.0
 40
0.4491676693
 40
1.0
 40
1.0
 40
1.0
 40
1.0
 10
354.6436944693
 20
247.0109867087
 30
0.0
 10
354.6435028358
 20
246.7578775603
 30
0.0
 10
354.8648711014
 20
246.1929266966
 30
0.0
 10
355.3266533878
 20
245.8393897085
 30
0.0
 10
355.5954674534
 20
245.6841933464
 30
0.0
  0
SPLINE
  5
3F0
100
AcDbEntity
  8
0
100
AcDbSpline
 62
7
  6
CONTINUOUS
 70
0
 71
3
 72
9
 73
5
 74
0
 42
0.0000001
 43
0.0000001
 44
0.0000000001
 40
0.0
 40
0.0
 40
0.0
 40
0.0
 40
0.4491676693
 40
1.0
 40
1.0
 40
1.0
 40
1.0
 10
336.2589947017
 20
236.3966387081
 30
0.0
 10
336.2588030682
 20
236.1435295597
 30
0.0
 10
336.4801713338
 20
235.5785786959
 30
0.0
 10
336.9419536202
 20
235.2250417079
 30
0.0
 10
337.2107676859
 20
235.0698453457
 30
0.0
  0
SPLINE
  5
3F1
100
AcDbEntity
  8
0
100
AcDbSpline
 62
7
  6
CONTINUOUS
 70
0
 71
3
 72
9
 73
5
 74
0
 42
0.0000001
 43
0.0000001
 44
0.0000000001
 40
0.0
 40
0.0
 40
0.0
 40
0.0
 40
0.4491676693
 40
1.0
 40
1.0
 40
1.0
 40
1.0
 10
317.8742949342
 20
225.7822907074
 30
0.0
 10
317.8741033007
 20
225.529181559
 30
0.0
 10
318.0954715663
 20
224.9642306953
 30
0.0
 10
318.5572538527
 20
224.6106937072
 30
0.0
 10
318.8260679183
 20
224.4554973451
 30
0.0
  0
SPLINE
  5
3F2
100
AcDbEntity
  8
0
100
AcDbSpline
 62
7
  6
CONTINUOUS
 70
0
 71
3
 72
9
 73
5
 74
0
 42
0.0000001
 43
0.0000001
 44
0.0000000001
 40
0.0
 40
0.0
 40
0.0
 40
0.0
 40
0.2556379841
 40
1.0
 40
1.0
 40
1.0
 40
1.0
 10
382.5610674506
 20
375.9181982821
 30
0.0
 10
382.7573907607
 20
375.9085074216
 30
0.0
 10
383.5241303772
 20
375.8502691727
 30
0.0
 10
384.2854831369
 20
375.711230275
 30
0.0
 10
384.836728517
 20
375.5572523171
 30
0.0
  0
SPLINE
  5
3F3
100
AcDbEntity
  8
0
100
AcDbSpline
 62
7
  6
CONTINUOUS
 70
0
 71
3
 72
11
 73
7
 74
0
 42
0.0000001
 43
0.0000001
 44
0.0000000001
 40
0.0
 40
0.0
 40
0.0
 40
0.0
 40
0.2895468475
 40
0.5491384346
 40
0.782278826
 40
1.0
 40
1.0
 40
1.0
 40
1.0
 10
386.6015856444
 20
376.0577623818
 30
0.0
 10
386.8866372168
 20
376.2223360014
 30
0.0
 10
387.4039178765
 20
376.5790192206
 30
0.0
 10
388.0226983306
 20
377.2286287095
 30
0.0
 10
388.4140963191
 20
377.9478068219
 30
0.0
 10
388.5051006298
 20
378.4638278193
 30
0.0
 10
388.5051051412
 20
378.7113271265
 30
0.0
  0
SPLINE
  5
3F4
100
AcDbEntity
  8
0
100
AcDbSpline
 62
7
  6
CONTINUOUS
 70
0
 71
3
 72
9
 73
5
 74
0
 42
0.0000001
 43
0.0000001
 44
0.0000000001
 40
0.0
 40
0.0
 40
0.0
 40
0.0
 40
0.4992468959
 40
1.0
 40
1.0
 40
1.0
 40
1.0
 10
79.2456150028
 20
333.0662807346
 30
0.0
 10
80.176592644
 20
333.339903515
 30
0.0
 10
82.1304538404
 20
333.5970164218
 30
0.0
 10
84.0863599208
 20
333.3611578293
 30
0.0
 10
85.0237594691
 20
333.0993164183
 30
0.0
  0
SPLINE
  5
3F5
100
AcDbEntity
  8
0
100
AcDbSpline
 62
7
  6
CONTINUOUS
 70
0
 71
3
 72
11
 73
7
 74
0
 42
0.0000001
 43
0.0000001
 44
0.0000000001
 40
0.0
 40
0.0
 40
0.0
 40
0.0
 40
0.2895468475
 40
0.5491384346
 40
0.782278826
 40
1.0
 40
1.0
 40
1.0
 40
1.0
 10
86.7886165964
 20
333.599826483
 30
0.0
 10
87.0736681688
 20
333.7644001026
 30
0.0
 10
87.5909488286
 20
334.1210833218
 30
0.0
 10
88.2097292826
 20
334.7706928107
 30
0.0
 10
88.6011272712
 20
335.489870923
 30
0.0
 10
88.6921315818
 20
336.0058919205
 30
0.0
 10
88.6921360932
 20
336.2533912277
 30
0.0
  0
SPLINE
  5
3F6
100
AcDbEntity
  8
0
100
AcDbSpline
 62
7
  6
CONTINUOUS
 70
0
 71
3
 72
9
 73
5
 74
0
 42
0.0000001
 43
0.0000001
 44
0.0000000001
 40
0.0
 40
0.0
 40
0.0
 40
0.0
 40
0.4992468959
 40
1.0
 40
1.0
 40
1.0
 40
1.0
 10
192.3831710263
 20
267.7477600114
 30
0.0
 10
193.3141486675
 20
268.0213827917
 30
0.0
 10
195.2680098639
 20
268.2784956986
 30
0.0
 10
197.2239159443
 20
268.042637106
 30
0.0
 10
198.1613154926
 20
267.780795695
 30
0.0
  0
SPLINE
  5
3F7
100
AcDbEntity
  8
0
100
AcDbSpline
 62
7
  6
CONTINUOUS
 70
0
 71
3
 72
11
 73
7
 74
0
 42
0.0000001
 43
0.0000001
 44
0.0000000001
 40
0.0
 40
0.0
 40
0.0
 40
0.0
 40
0.2895468475
 40
0.5491384346
 40
0.782278826
 40
1.0
 40
1.0
 40
1.0
 40
1.0
 10
199.92617262
 20
268.2813057597
 30
0.0
 10
200.2112241923
 20
268.4458793794
 30
0.0
 10
200.7285048521
 20
268.8025625986
 30
0.0
 10
201.3472853061
 20
269.4521720874
 30
0.0
 10
201.7386832947
 20
270.1713501998
 30
0.0
 10
201.8296876053
 20
270.6873711972
 30
0.0
 10
201.8296921167
 20
270.9348705044
 30
0.0
  0
SPLINE
  5
3F8
100
AcDbEntity
  8
0
100
AcDbSpline
 62
7
  6
CONTINUOUS
 70
0
 71
3
 72
9
 73
5
 74
0
 42
0.0000001
 43
0.0000001
 44
0.0000000001
 40
0.0
 40
0.0
 40
0.0
 40
0.0
 40
0.4992468959
 40
1.0
 40
1.0
 40
1.0
 40
1.0
 10
135.8143930145
 20
300.407020373
 30
0.0
 10
136.7453706558
 20
300.6806431534
 30
0.0
 10
138.6992318521
 20
300.9377560602
 30
0.0
 10
140.6551379326
 20
300.7018974676
 30
0.0
 10
141.5925374808
 20
300.4400560566
 30
0.0
  0
SPLINE
  5
3F9
100
AcDbEntity
  8
0
100
AcDbSpline
 62
7
  6
CONTINUOUS
 70
0
 71
3
 72
11
 73
7
 74
0
 42
0.0000001
 43
0.0000001
 44
0.0000000001
 40
0.0
 40
0.0
 40
0.0
 40
0.0
 40
0.2895468475
 40
0.5491384346
 40
0.782278826
 40
1.0
 40
1.0
 40
1.0
 40
1.0
 10
143.3573946082
 20
300.9405661213
 30
0.0
 10
143.6424461806
 20
301.105139741
 30
0.0
 10
144.1597268403
 20
301.4618229602
 30
0.0
 10
144.7785072944
 20
302.111432449
 30
0.0
 10
145.1699052829
 20
302.8306105614
 30
0.0
 10
145.2609095935
 20
303.3466315588
 30
0.0
 10
145.260914105
 20
303.5941308661
 30
0.0
  0
SPLINE
  5
3FA
100
AcDbEntity
  8
0
100
AcDbSpline
 62
7
  6
CONTINUOUS
 70
0
 71
3
 72
11
 73
7
 74
0
 42
0.0000001
 43
0.0000001
 44
0.0000000001
 40
0.0
 40
0.0
 40
0.0
 40
0.0
 40
0.289702809
 40
0.549088757
 40
0.7822160314
 40
1.0
 40
1.0
 40
1.0
 40
1.0
 10
99.7460247461
 20
314.7887208709
 30
0.0
 10
99.3949991353
 20
314.5860573498
 30
0.0
 10
98.6966961002
 20
314.253854317
 30
0.0
 10
97.6233892818
 20
313.9946604372
 30
0.0
 10
96.6163123512
 20
314.0201508349
 30
0.0
 10
96.0099970184
 20
314.2401820261
 30
0.0
 10
95.7461125733
 20
314.3925323654
 30
0.0
  0
SPLINE
  5
3FB
100
AcDbEntity
  8
0
100
AcDbSpline
 62
7
  6
CONTINUOUS
 70
0
 71
3
 72
13
 73
9
 74
0
 42
0.0000001
 43
0.0000001
 44
0.0000000001
 40
0.0
 40
0.0
 40
0.0
 40
0.0
 40
0.2699046692
 40
0.561309748
 40
0.6954527694
 40
0.8131379113
 40
0.9128550407
 40
1.0
 40
1.0
 40
1.0
 40
1.0
 10
319.886732506
 20
223.8431362133
 30
0.0
 10
320.3895236015
 20
223.552856206
 30
0.0
 10
321.5913568244
 20
223.2275567923
 30
0.0
 10
323.1109310078
 20
223.3046256003
 30
0.0
 10
324.2268013246
 20
223.6762959665
 30
0.0
 10
324.8794102334
 20
224.0740690467
 30
0.0
 10
325.3217112302
 20
224.5768185446
 30
0.0
 10
325.43453851
 20
224.9824795082
 30
0.0
 10
325.4346804321
 20
225.1699298511
 30
0.0
  0
SPLINE
  5
3FC
100
AcDbEntity
  8
0
100
AcDbSpline
 62
7
  6
CONTINUOUS
 70
0
 71
3
 72
13
 73
9
 74
0
 42
0.0000001
 43
0.0000001
 44
0.0000000001
 40
0.0
 40
0.0
 40
0.0
 40
0.0
 40
0.2699046692
 40
0.561309748
 40
0.6954527694
 40
0.8131379113
 40
0.9128550407
 40
1.0
 40
1.0
 40
1.0
 40
1.0
 10
338.2714322736
 20
234.4574842139
 30
0.0
 10
338.7742233691
 20
234.1672042066
 30
0.0
 10
339.9760565919
 20
233.841904793
 30
0.0
 10
341.4956307754
 20
233.918973601
 30
0.0
 10
342.6115010922
 20
234.2906439671
 30
0.0
 10
343.264110001
 20
234.6884170474
 30
0.0
 10
343.7064109977
 20
235.1911665452
 30
0.0
 10
343.8192382776
 20
235.5968275089
 30
0.0
 10
343.8193801996
 20
235.7842778517
 30
0.0
  0
SPLINE
  5
3FD
100
AcDbEntity
  8
0
100
AcDbSpline
 62
7
  6
CONTINUOUS
 70
0
 71
3
 72
13
 73
9
 74
0
 42
0.0000001
 43
0.0000001
 44
0.0000000001
 40
0.0
 40
0.0
 40
0.0
 40
0.0
 40
0.2699046692
 40
0.561309748
 40
0.6954527694
 40
0.8131379113
 40
0.9128550407
 40
1.0
 40
1.0
 40
1.0
 40
1.0
 10
356.6561320411
 20
245.0718322146
 30
0.0
 10
357.1589231366
 20
244.7815522073
 30
0.0
 10
358.3607563595
 20
244.4562527937
 30
0.0
 10
359.8803305429
 20
244.5333216016
 30
0.0
 10
360.9962008597
 20
244.9049919678
 30
0.0
 10
361.6488097686
 20
245.3027650481
 30
0.0
 10
362.0911107653
 20
245.8055145459
 30
0.0
 10
362.2039380451
 20
246.2111755095
 30
0.0
 10
362.2040799672
 20
246.3986258524
 30
0.0
  0
SPLINE
  5
3FE
100
AcDbEntity
  8
0
100
AcDbSpline
 62
7
  6
CONTINUOUS
 70
0
 71
3
 72
13
 73
9
 74
0
 42
0.0000001
 43
0.0000001
 44
0.0000000001
 40
0.0
 40
0.0
 40
0.0
 40
0.0
 40
0.086963259
 40
0.184297743
 40
0.2973366099
 40
0.4261015749
 40
0.7134389446
 40
1.0
 40
1.0
 40
1.0
 40
1.0
 10
320.3112906706
 20
304.1465243606
 30
0.0
 10
319.9621747942
 20
304.3481063196
 30
0.0
 10
319.1098412958
 20
304.5959569816
 30
0.0
 10
317.7161544698
 20
304.4144873852
 30
0.0
 10
316.2680845694
 20
303.7606914853
 30
0.0
 10
314.2969011615
 20
302.2758679305
 30
0.0
 10
312.2679074992
 20
299.6577440328
 30
0.0
 10
311.2661558309
 20
297.1395097733
 30
0.0
 10
311.0095875068
 20
295.8361155094
 30
0.0
  0
SPLINE
  5
3FF
100
AcDbEntity
  8
0
100
AcDbSpline
 62
7
  6
CONTINUOUS
 70
0
 71
3
 72
11
 73
7
 74
0
 42
0.0000001
 43
0.0000001
 44
0.0000000001
 40
0.0
 40
0.0
 40
0.0
 40
0.0
 40
0.2895468475
 40
0.5491384346
 40
0.782278826
 40
1.0
 40
1.0
 40
1.0
 40
1.0
 10
190.7337461931
 20
273.5884355685
 30
0.0
 10
190.4486946207
 20
273.4238619488
 30
0.0
 10
189.9314139609
 20
273.0671787296
 30
0.0
 10
189.3126335069
 20
272.4175692408
 30
0.0
 10
188.9212355183
 20
271.6983911284
 30
0.0
 10
188.8302312077
 20
271.182370131
 30
0.0
 10
188.8302266963
 20
270.9348708237
 30
0.0
  0
SPLINE
  5
400
100
AcDbEntity
  8
0
100
AcDbSpline
 62
7
  6
CONTINUOUS
 70
0
 71
3
 72
11
 73
7
 74
0
 42
0.0000001
 43
0.0000001
 44
0.0000000001
 40
0.0
 40
0.0
 40
0.0
 40
0.0
 40
0.2177825102
 40
0.4509091639
 40
0.7102957096
 40
1.0
 40
1.0
 40
1.0
 40
1.0
 10
95.7461125733
 20
314.3925323654
 30
0.0
 10
95.4822194427
 20
314.5448877192
 30
0.0
 10
94.9884855588
 20
314.9599649458
 30
0.0
 10
94.4628480202
 20
315.8194045071
 30
0.0
 10
94.1506504121
 20
316.8785566619
 30
0.0
 10
94.0891940483
 20
317.6494399922
 30
0.0
 10
94.0891940483
 20
318.054786977
 30
0.0
  0
SPLINE
  5
401
100
AcDbEntity
  8
0
100
AcDbSpline
 62
7
  6
CONTINUOUS
 70
0
 71
3
 72
15
 73
11
 74
0
 42
0.0000001
 43
0.0000001
 44
0.0000000001
 40
0.0
 40
0.0
 40
0.0
 40
0.0
 40
0.0869258731
 40
0.1863900355
 40
0.3037775758
 40
0.4375856292
 40
0.582082136
 40
0.7293904368
 40
0.8711742898
 40
1.0
 40
1.0
 40
1.0
 40
1.0
 10
145.260914105
 20
303.5941308661
 30
0.0
 10
145.2609209382
 20
303.9690035065
 30
0.0
 10
145.034731059
 20
304.7802135159
 30
0.0
 10
144.1504940133
 20
305.7857145117
 30
0.0
 10
142.8453879783
 20
306.5810242819
 30
0.0
 10
141.2159904879
 20
307.1255102449
 30
0.0
 10
139.3894356604
 20
307.3820159619
 30
0.0
 10
137.5112635375
 20
307.3303304057
 30
0.0
 10
135.7356934972
 20
306.9749193167
 30
0.0
 10
134.6461049078
 20
306.5254786905
 30
0.0
 10
134.1649681813
 20
306.2476959301
 30
0.0
  0
SPLINE
  5
402
100
AcDbEntity
  8
0
100
AcDbSpline
 62
7
  6
CONTINUOUS
 70
0
 71
3
 72
11
 73
7
 74
0
 42
0.0000001
 43
0.0000001
 44
0.0000000001
 40
0.0
 40
0.0
 40
0.0
 40
0.0
 40
0.2895468475
 40
0.5491384346
 40
0.782278826
 40
1.0
 40
1.0
 40
1.0
 40
1.0
 10
134.1649681813
 20
306.2476959301
 30
0.0
 10
133.8799166089
 20
306.0831223104
 30
0.0
 10
133.3626359492
 20
305.7264390913
 30
0.0
 10
132.7438554952
 20
305.0768296024
 30
0.0
 10
132.3524575066
 20
304.35765149
 30
0.0
 10
132.261453196
 20
303.8416304926
 30
0.0
 10
132.2614486845
 20
303.5941311854
 30
0.0
  0
SPLINE
  5
403
100
AcDbEntity
  8
0
100
AcDbSpline
 62
7
  6
CONTINUOUS
 70
0
 71
3
 72
13
 73
9
 74
0
 42
0.0000001
 43
0.0000001
 44
0.0000000001
 40
0.0
 40
0.0
 40
0.0
 40
0.0
 40
0.2865609533
 40
0.5738983134
 40
0.7026632978
 40
0.8157021935
 40
0.9130367106
 40
1.0
 40
1.0
 40
1.0
 40
1.0
 10
337.4908467136
 20
280.5474992527
 30
0.0
 10
337.747414945
 20
281.8508930462
 30
0.0
 10
338.749166217
 20
284.3691268347
 30
0.0
 10
340.7781592839
 20
286.987250637
 30
0.0
 10
342.7493426234
 20
288.472074538
 30
0.0
 10
344.1974127688
 20
289.1258708595
 30
0.0
 10
345.5910999736
 20
289.3073405879
 30
0.0
 10
346.4434338624
 20
289.0594901041
 30
0.0
 10
346.7925498496
 20
288.8579080583
 30
0.0
  0
SPLINE
  5
404
100
AcDbEntity
  8
0
100
AcDbSpline
 62
7
  6
CONTINUOUS
 70
0
 71
3
 72
9
 73
5
 74
0
 42
0.0000001
 43
0.0000001
 44
0.0000000001
 40
0.0
 40
0.0
 40
0.0
 40
0.0
 40
0.4491676693
 40
1.0
 40
1.0
 40
1.0
 40
1.0
 10
362.2040799672
 20
246.3986258524
 30
0.0
 10
362.2042716007
 20
246.6517350008
 30
0.0
 10
361.9829033351
 20
247.2166858645
 30
0.0
 10
361.5211210487
 20
247.5702228526
 30
0.0
 10
361.252306983
 20
247.7254192148
 30
0.0
  0
SPLINE
  5
405
100
AcDbEntity
  8
0
100
AcDbSpline
 62
7
  6
CONTINUOUS
 70
0
 71
3
 72
13
 73
9
 74
0
 42
0.0000001
 43
0.0000001
 44
0.0000000001
 40
0.0
 40
0.0
 40
0.0
 40
0.0
 40
0.2699046692
 40
0.561309748
 40
0.6954527694
 40
0.8131379113
 40
0.9128550407
 40
1.0
 40
1.0
 40
1.0
 40
1.0
 10
323.4222428602
 20
227.1090843452
 30
0.0
 10
322.9194517647
 20
227.3993643525
 30
0.0
 10
321.7176185418
 20
227.7246637662
 30
0.0
 10
320.1980443584
 20
227.6475949582
 30
0.0
 10
319.0821740416
 20
227.275924592
 30
0.0
 10
318.4295651328
 20
226.8781515118
 30
0.0
 10
317.987264136
 20
226.3754020139
 30
0.0
 10
317.8744368562
 20
225.9697410503
 30
0.0
 10
317.8742949342
 20
225.7822907074
 30
0.0
  0
SPLINE
  5
406
100
AcDbEntity
  8
0
100
AcDbSpline
 62
7
  6
CONTINUOUS
 70
0
 71
3
 72
13
 73
9
 74
0
 42
0.0000001
 43
0.0000001
 44
0.0000000001
 40
0.0
 40
0.0
 40
0.0
 40
0.0
 40
0.2699046692
 40
0.561309748
 40
0.6954527694
 40
0.8131379113
 40
0.9128550407
 40
1.0
 40
1.0
 40
1.0
 40
1.0
 10
341.8069426278
 20
237.7234323459
 30
0.0
 10
341.3041515323
 20
238.0137123532
 30
0.0
 10
340.1023183094
 20
238.3390117668
 30
0.0
 10
338.5827441259
 20
238.2619429588
 30
0.0
 10
337.4668738092
 20
237.8902725927
 30
0.0
 10
336.8142649003
 20
237.4924995124
 30
0.0
 10
336.3719639036
 20
236.9897500146
 30
0.0
 10
336.2591366238
 20
236.584089051
 30
0.0
 10
336.2589947017
 20
236.3966387081
 30
0.0
  0
SPLINE
  5
407
100
AcDbEntity
  8
0
100
AcDbSpline
 62
7
  6
CONTINUOUS
 70
0
 71
3
 72
13
 73
9
 74
0
 42
0.0000001
 43
0.0000001
 44
0.0000000001
 40
0.0
 40
0.0
 40
0.0
 40
0.0
 40
0.2699046692
 40
0.561309748
 40
0.6954527694
 40
0.8131379113
 40
0.9128550407
 40
1.0
 40
1.0
 40
1.0
 40
1.0
 10
360.1916423953
 20
248.3377803465
 30
0.0
 10
359.6888512998
 20
248.6280603539
 30
0.0
 10
358.487018077
 20
248.9533597675
 30
0.0
 10
356.9674438935
 20
248.8762909595
 30
0.0
 10
355.8515735767
 20
248.5046205933
 30
0.0
 10
355.1989646679
 20
248.1068475131
 30
0.0
 10
354.7566636712
 20
247.6040980152
 30
0.0
 10
354.6438363913
 20
247.1984370516
 30
0.0
 10
354.6436944693
 20
247.0109867087
 30
0.0
  0
SPLINE
  5
408
100
AcDbEntity
  8
0
100
AcDbSpline
 62
7
  6
CONTINUOUS
 70
0
 71
3
 72
13
 73
9
 74
0
 42
0.0000001
 43
0.0000001
 44
0.0000000001
 40
0.0
 40
0.0
 40
0.0
 40
0.0
 40
0.0920594201
 40
0.1899990989
 40
0.2980327089
 40
0.4181707498
 40
0.6927699513
 40
1.0
 40
1.0
 40
1.0
 40
1.0
 10
388.5051051412
 20
378.7113271265
 30
0.0
 10
388.5051094041
 20
378.9451909543
 30
0.0
 10
388.4244769604
 20
379.4309322699
 30
0.0
 10
388.0751611427
 20
380.1133920744
 30
0.0
 10
387.5200819912
 20
380.7380950779
 30
0.0
 10
386.489829692
 20
381.5045765109
 30
0.0
 10
384.8136735019
 20
382.1865049141
 30
0.0
 10
383.3406383331
 20
382.4117178358
 30
0.0
 10
382.5611134545
 20
382.4501992713
 30
0.0
  0
SPLINE
  5
409
100
AcDbEntity
  8
0
100
AcDbSpline
 62
7
  6
CONTINUOUS
 70
0
 71
3
 72
9
 73
5
 74
0
 42
0.0000001
 43
0.0000001
 44
0.0000000001
 40
0.0
 40
0.0
 40
0.0
 40
0.0
 40
0.4491676693
 40
1.0
 40
1.0
 40
1.0
 40
1.0
 10
343.8193801996
 20
235.7842778517
 30
0.0
 10
343.8195718331
 20
236.0373870001
 30
0.0
 10
343.5982035675
 20
236.6023378639
 30
0.0
 10
343.1364212811
 20
236.955874852
 30
0.0
 10
342.8676072155
 20
237.1110712141
 30
0.0
  0
SPLINE
  5
40A
100
AcDbEntity
  8
0
100
AcDbSpline
 62
7
  6
CONTINUOUS
 70
0
 71
3
 72
9
 73
5
 74
0
 42
0.0000001
 43
0.0000001
 44
0.0000000001
 40
0.0
 40
0.0
 40
0.0
 40
0.0
 40
0.4491676693
 40
1.0
 40
1.0
 40
1.0
 40
1.0
 10
325.4346804321
 20
225.1699298511
 30
0.0
 10
325.4348720656
 20
225.4230389995
 30
0.0
 10
325.2135037999
 20
225.9879898632
 30
0.0
 10
324.7517215135
 20
226.3415268513
 30
0.0
 10
324.4829074479
 20
226.4967232134
 30
0.0
  0
SPLINE
  5
40B
100
AcDbEntity
  8
0
100
AcDbSpline
 62
7
  6
CONTINUOUS
 70
0
 71
3
 72
15
 73
11
 74
0
 42
0.0000001
 43
0.0000001
 44
0.0000000001
 40
0.0
 40
0.0
 40
0.0
 40
0.0
 40
0.0869258731
 40
0.1863900355
 40
0.3037775758
 40
0.4375856292
 40
0.582082136
 40
0.7293904368
 40
0.8711742898
 40
1.0
 40
1.0
 40
1.0
 40
1.0
 10
201.8296921167
 20
270.9348705044
 30
0.0
 10
201.8296989499
 20
271.3097431449
 30
0.0
 10
201.6035090707
 20
272.1209531542
 30
0.0
 10
200.7192720251
 20
273.12645415
 30
0.0
 10
199.4141659901
 20
273.9217639203
 30
0.0
 10
197.7847684997
 20
274.4662498832
 30
0.0
 10
195.9582136722
 20
274.7227556003
 30
0.0
 10
194.0800415492
 20
274.6710700441
 30
0.0
 10
192.304471509
 20
274.3156589551
 30
0.0
 10
191.2148829195
 20
273.8662183289
 30
0.0
 10
190.7337461931
 20
273.5884355685
 30
0.0
  0
SPLINE
  5
40C
100
AcDbEntity
  8
0
100
AcDbSpline
 62
7
  6
CONTINUOUS
 70
0
 71
3
 72
15
 73
11
 74
0
 42
0.0000001
 43
0.0000001
 44
0.0000000001
 40
0.0
 40
0.0
 40
0.0
 40
0.0
 40
0.0869258731
 40
0.1863900355
 40
0.3037775758
 40
0.4375856292
 40
0.582082136
 40
0.7293904368
 40
0.8711742898
 40
1.0
 40
1.0
 40
1.0
 40
1.0
 10
88.6921360932
 20
336.2533912277
 30
0.0
 10
88.6921429264
 20
336.6282638681
 30
0.0
 10
88.4659530472
 20
337.4394738775
 30
0.0
 10
87.5817160015
 20
338.4449748733
 30
0.0
 10
86.2766099665
 20
339.2402846435
 30
0.0
 10
84.6472124761
 20
339.7847706065
 30
0.0
 10
82.8206576487
 20
340.0412763235
 30
0.0
 10
80.9424855257
 20
339.9895907673
 30
0.0
 10
79.1669154855
 20
339.6341796784
 30
0.0
 10
78.077326896
 20
339.1847390521
 30
0.0
 10
77.5961901695
 20
338.9069562917
 30
0.0
  0
SPLINE
  5
40D
100
AcDbEntity
  8
0
100
AcDbSpline
 62
7
  6
CONTINUOUS
 70
0
 71
3
 72
11
 73
7
 74
0
 42
0.0000001
 43
0.0000001
 44
0.0000000001
 40
0.0
 40
0.0
 40
0.0
 40
0.0
 40
0.2895468475
 40
0.5491384346
 40
0.782278826
 40
1.0
 40
1.0
 40
1.0
 40
1.0
 10
77.5961901695
 20
338.9069562917
 30
0.0
 10
77.3111385972
 20
338.7423826721
 30
0.0
 10
76.7938579374
 20
338.3856994529
 30
0.0
 10
76.1750774834
 20
337.736089964
 30
0.0
 10
75.7836794948
 20
337.0169118516
 30
0.0
 10
75.6926751842
 20
336.5008908542
 30
0.0
 10
75.6926706728
 20
336.253391547
 30
0.0
  0
ELLIPSE
  5
40E
100
AcDbEntity
  8
0
100
AcDbEllipse
 62
7
  6
CONTINUOUS
 10
310.9679753743
 20
221.3581414466
 30
0.0
 11
1.7314264549
 21
1.8772607721
 31
0.0
 40
0.3680534453
 41
0.8680490697
 42
2.4388453965
  0
ELLIPSE
  5
40F
100
AcDbEntity
  8
0
100
AcDbEllipse
 62
7
  6
CONTINUOUS
 10
364.0007631653
 20
251.9764529869
 30
0.0
 11
1.7314264549
 21
1.8772607721
 31
0.0
 40
0.3680534453
 41
-0.7027472571
 42
0.8680490697
  0
ENDSEC
  0
SECTION
  2
OBJECTS
  0
DICTIONARY
  5
C
100
AcDbDictionary
280
0
281
1
  3
ACAD_GROUP
350
D
  3
ACAD_MLINESTYLE
350
17
  3
ACAD_LAYOUT
350
1A
  3
ACAD_PLOTSETTINGS
350
19
  3
ACAD_PLOTSTYLENAME
350
E
  0
DICTIONARY
  5
D
102
{ACAD_REACTORS
330
C
102
}
100
AcDbDictionary
280
0
281
1
  0
ACDBDICTIONARYWDFLT
  5
E
102
{ACAD_REACTORS
330
C
102
}
100
AcDbDictionary
281
1
  3
Normal
350
F
100
AcDbDictionaryWithDefault
340
F
  0
DICTIONARY
  5
17
102
{ACAD_REACTORS
330
C
102
}
100
AcDbDictionary
280
0
281
1
  3
Standard
350
18
  0
DICTIONARY
  5
19
102
{ACAD_REACTORS
330
C
102
}
100
AcDbDictionary
281
1
  0
DICTIONARY
  5
1A
102
{ACAD_REACTORS
330
C
102
}
100
AcDbDictionary
281
1
  3
Model
350
410
  3
Layout1
350
411
  0
ACDBPLACEHOLDER
  5
F
102
{ACAD_REACTORS
330
E
102
}
  0
MLINESTYLE
  5
18
102
{ACAD_REACTORS
330
17
102
}
100
AcDbMlineStyle
  2
STANDARD
 70
0
  3

 62
256
 51
90.0
 52
90.0
 71
2
 49
0.5
 62
256
  6
BYLAYER
 49
-0.5
 62
256
  6
BYLAYER
  0
LAYOUT
  5
410
102
{ACAD_REACTORS
330
1A
102
}
100
AcDbPlotSettings
  1

  2
none_device
  4

  6

 40
0.0
 41
0.0
 42
0.0
 43
0.0
 44
210.0
 45
297.0
 46
0.0
 47
0.0
 48
0.0
 49
0.0
140
0.0
141
0.0
142
1.0
143
1.0
 70
1024
 72
1
 73
0
 74
0
  7

 75
0
147
1.0
148
0.0
149
0.0
100
AcDbLayout
  1
Model
 70
0
 71
0
 10
0.0
 20
0.0
 11
210.0
 21
297.0
 12
0.0
 22
0.0
 32
0.0
 14
0.0
 24
0.0
 34
0.0
 15
0.0
 25
0.0
 35
0.0
146
0.0
 13
0.0
 23
0.0
 33
0.0
 16
1.0
 26
0.0
 36
0.0
 17
0.0
 27
1.0
 37
0.0
 76
0
330
210
345
0
346
0
  0
LAYOUT
  5
411
102
{ACAD_REACTORS
330
1A
102
}
100
AcDbPlotSettings
  1

  2
none_device
  4

  6

 40
0.0
 41
0.0
 42
0.0
 43
0.0
 44
210.0
 45
297.0
 46
0.0
 47
0.0
 48
0.0
 49
0.0
140
0.0
141
0.0
142
1.0
143
1.0
 70
0
 72
1
 73
0
 74
0
  7

 75
0
147
1.0
148
0.0
149
0.0
100
AcDbLayout
  1
Layout1
 70
0
 71
1
 10
0.0
 20
0.0
 11
210.0
 21
297.0
 12
0.0
 22
0.0
 32
0.0
 14
0.0
 24
0.0
 34
0.0
 15
0.0
 25
0.0
 35
0.0
146
0.0
 13
0.0
 23
0.0
 33
0.0
 16
1.0
 26
0.0
 36
0.0
 17
0.0
 27
1.0
 37
0.0
 76
0
330
211
345
0
346
0
  0
ENDSEC
  0
EOF
