999
DXF file: C:\Users\sesa63760\Dev\_Creo\CAD\MCADID0004044_3D-CAD\drw0001_7.dxf
999
Pro/ENGINEER 2019471 by Parametric Technology Corporation
  0
SECTION
  2
HEADER
  9
$ACADVER
  1
AC1024
  9
$DWGCODEPAGE
  3
ANSI_1252
  9
$EXTMAX
 10
62.8017171717
 20
88.8195714286
 30
0.0
  9
$EXTMIN
 10
0.0
 20
0.0
 30
0.0
  9
$LIMMIN
 10
0.0
 20
0.0
  9
$LIMMAX
 10
62.8017171717
 20
88.8195714286
  9
$VIEWCTR
 10
31.4008585859
 20
44.4097857143
  9
$VIEWSIZE
 40
88.8195714286
  9
$CLAYER
  8
0
  9
$LTSCALE
 40
5.7897202116
  9
$CELTYPE
  6
BYLAYER
  9
$DIMSCALE
 40
1.0
  9
$DIMASZ
 40
0.7476394901
  9
$DIMEXO
 40
1.0
  9
$DIMDLI
 40
4.000170328
  9
$DIMEXE
 40
1.0
  9
$DIMCEN
 40
0.9474087619
  9
$DIMLFAC
 40
1.0
  9
$DIMBLK
  1
_FILLED
  9
$DIMALT
 70
0
  9
$DIMALTF
 40
0.0393700787
  9
$DIMTXT
 40
1.0466952862
  9
$DIMTOL
 70
1
  9
$DIMLIM
 70
0
  9
$DIMTFAC
 40
1.0
  9
$DIMTP
 40
0.01
  9
$DIMTM
 40
0.01
  9
$DIMGAP
 40
0.625
  9
$DIMDSEP
 70
46
  9
$AUNITS
 70
0
  9
$PDMODE
 70
3
  9
$PDSIZE
 40
0.3125
  9
$HANDSEED
  5
391
  9
$TILEMODE
 70
1
  9
$MEASUREMENT
 70
1
  9
$INSUNITS
 70
4
  0
ENDSEC
  0
SECTION
  2
CLASSES
  0
CLASS
  1
ACDBDICTIONARYWDFLT
  2
AcDbDictionaryWithDefault
  3
AutoCAD 2000
 90
0
 91
1
280
0
281
0
  0
CLASS
  1
ACDBPLACEHOLDER
  2
AcDbPlaceHolder
  3
AutoCAD 2000
 90
0
 91
1
280
0
281
0
  0
CLASS
  1
LAYOUT
  2
AcDbLayout
  3
AutoCAD 2000
 90
0
 91
0
280
0
281
0
  0
ENDSEC
  0
SECTION
  2
TABLES
  0
TABLE
  2
VPORT
  5
8
100
AcDbSymbolTable
 70
2
  0
VPORT
  5
1F4
100
AcDbSymbolTableRecord
100
AcDbViewportTableRecord
  2
*ACTIVE
 70
0
 10
0.0
 20
0.0
 11
1.0
 21
1.0
 12
31.4008585859
 22
44.4097857143
 13
0.0
 23
0.0
 14
1.0
 24
1.0
 15
0.0
 25
0.0
 16
0.0
 26
0.0
 36
1.0
 17
0.0
 27
0.0
 37
0.0
 40
88.8195714286
 41
0.7070707071
 42
50.0
 43
0.0
 44
0.0
 50
0.0
 51
0.0
 71
0
 72
100
 73
1
 74
1
 75
0
 76
0
 77
0
 78
0
  0
ENDTAB
  0
TABLE
  2
LTYPE
  5
5
100
AcDbSymbolTable
 70
6
  0
LTYPE
  5
14
100
AcDbSymbolTableRecord
100
AcDbLinetypeTableRecord
  2
BYBLOCK
 70
0
  3

 72
65
 73
0
 40
0.0
  0
LTYPE
  5
15
100
AcDbSymbolTableRecord
100
AcDbLinetypeTableRecord
  2
BYLAYER
 70
0
  3

 72
65
 73
0
 40
0.0
  0
LTYPE
  5
16
100
AcDbSymbolTableRecord
100
AcDbLinetypeTableRecord
  2
CONTINUOUS
 70
64
  3
Solid line
 72
65
 73
0
 40
0.0
  0
LTYPE
  5
1F5
100
AcDbSymbolTableRecord
100
AcDbLinetypeTableRecord
  2
CENTER
 70
64
  3
____ _ ____ _ ____ _ ____ _ ____ _ ____ _ ____
 72
65
 73
4
 40
0.6
 49
0.375
 74
0
 49
-0.075
 74
0
 49
0.075
 74
0
 49
-0.075
 74
0
  0
LTYPE
  5
1F6
100
AcDbSymbolTableRecord
100
AcDbLinetypeTableRecord
  2
HIDDEN
 70
64
  3
- - - - - - - - - - - - - - - - - - - -
 72
65
 73
2
 40
0.2
 49
0.1
 74
0
 49
-0.1
 74
0
  0
LTYPE
  5
1F7
100
AcDbSymbolTableRecord
100
AcDbLinetypeTableRecord
  2
PHANTOM
 70
64
  3
_____ _ _ _____ _ _ _____ _ _ _____
 72
65
 73
6
 40
0.8
 49
0.45
 74
0
 49
-0.05
 74
0
 49
0.1
 74
0
 49
-0.05
 74
0
 49
0.1
 74
0
 49
-0.05
 74
0
  0
LTYPE
  5
1F8
100
AcDbSymbolTableRecord
100
AcDbLinetypeTableRecord
  2
DOT
 70
64
  3
. . . . . . . . . . . . . . . . . . . .
 72
65
 73
2
 40
0.2
 49
0.1
 74
0
 49
-0.1
 74
0
  0
LTYPE
  5
1F9
100
AcDbSymbolTableRecord
100
AcDbLinetypeTableRecord
  2
DASHED
 70
64
  3
- - - - - - - - - - - - - - - - - - - -
 72
65
 73
2
 40
0.2
 49
0.1
 74
0
 49
-0.1
 74
0
  0
ENDTAB
  0
TABLE
  2
LAYER
  5
2
100
AcDbSymbolTable
 70
36
  0
LAYER
  5
10
100
AcDbSymbolTableRecord
100
AcDbLayerTableRecord
  2
0
 70
0
 62
7
  6
CONTINUOUS
370
-3
390
F
  0
LAYER
  5
1FA
100
AcDbSymbolTableRecord
100
AcDbLayerTableRecord
  2
DEFAULT_1
 70
0
 62
7
  6
CENTER
370
-3
390
F
  0
LAYER
  5
1FB
100
AcDbSymbolTableRecord
100
AcDbLayerTableRecord
  2
DEFAULT_2
 70
0
 62
7
  6
HIDDEN
370
-3
390
F
  0
LAYER
  5
1FC
100
AcDbSymbolTableRecord
100
AcDbLayerTableRecord
  2
DEFAULT_3
 70
0
 62
7
  6
PHANTOM
370
-3
390
F
  0
LAYER
  5
1FD
100
AcDbSymbolTableRecord
100
AcDbLayerTableRecord
  2
00_COMPONENTS
 70
0
 62
7
  6
CONTINUOUS
370
-3
390
F
  0
LAYER
  5
1FE
100
AcDbSymbolTableRecord
100
AcDbLayerTableRecord
  2
01_1_DEFAULT_DATUMS
 70
0
 62
7
  6
CONTINUOUS
370
-3
390
F
  0
LAYER
  5
1FF
100
AcDbSymbolTableRecord
100
AcDbLayerTableRecord
  2
01_PLANES
 70
0
 62
7
  6
CONTINUOUS
370
-3
390
F
  0
LAYER
  5
200
100
AcDbSymbolTableRecord
100
AcDbLayerTableRecord
  2
02_COORD_SYS
 70
0
 62
7
  6
CONTINUOUS
370
-3
390
F
  0
LAYER
  5
201
100
AcDbSymbolTableRecord
100
AcDbLayerTableRecord
  2
03_AXES
 70
0
 62
7
  6
CONTINUOUS
370
-3
390
F
  0
LAYER
  5
202
100
AcDbSymbolTableRecord
100
AcDbLayerTableRecord
  2
04_POINTS
 70
0
 62
7
  6
CONTINUOUS
370
-3
390
F
  0
LAYER
  5
203
100
AcDbSymbolTableRecord
100
AcDbLayerTableRecord
  2
05_CURVES
 70
0
 62
7
  6
CONTINUOUS
370
-3
390
F
  0
LAYER
  5
204
100
AcDbSymbolTableRecord
100
AcDbLayerTableRecord
  2
06_SURFS
 70
0
 62
7
  6
CONTINUOUS
370
-3
390
F
  0
LAYER
  5
205
100
AcDbSymbolTableRecord
100
AcDbLayerTableRecord
  2
07_COSMETICS
 70
0
 62
7
  6
CONTINUOUS
370
-3
390
F
  0
LAYER
  5
206
100
AcDbSymbolTableRecord
100
AcDbLayerTableRecord
  2
10_NOTES
 70
0
 62
7
  6
CONTINUOUS
370
-3
390
F
  0
LAYER
  5
207
100
AcDbSymbolTableRecord
100
AcDbLayerTableRecord
  2
11_NOTES_PUB
 70
0
 62
7
  6
CONTINUOUS
370
-3
390
F
  0
LAYER
  5
208
100
AcDbSymbolTableRecord
100
AcDbLayerTableRecord
  2
13_REF_GTOL
 70
0
 62
7
  6
CONTINUOUS
370
-3
390
F
  0
LAYER
  5
209
100
AcDbSymbolTableRecord
100
AcDbLayerTableRecord
  2
16_MISC
 70
0
 62
7
  6
CONTINUOUS
370
-3
390
F
  0
LAYER
  5
20A
100
AcDbSymbolTableRecord
100
AcDbLayerTableRecord
  2
17_NO_PRINT
 70
0
 62
7
  6
CONTINUOUS
370
-3
390
F
  0
LAYER
  5
20B
100
AcDbSymbolTableRecord
100
AcDbLayerTableRecord
  2
18_DATUM_CAMS_JOINTS
 70
0
 62
7
  6
CONTINUOUS
370
-3
390
F
  0
LAYER
  5
20C
100
AcDbSymbolTableRecord
100
AcDbLayerTableRecord
  2
19_DATUM_FUNCTIONAL
 70
0
 62
7
  6
CONTINUOUS
370
-3
390
F
  0
LAYER
  5
20D
100
AcDbSymbolTableRecord
100
AcDbLayerTableRecord
  2
20_DATUM_KINEMATIC_SCHEME
 70
0
 62
7
  6
CONTINUOUS
370
-3
390
F
  0
ENDTAB
  0
TABLE
  2
STYLE
  5
3
100
AcDbSymbolTable
 70
1
  0
STYLE
  5
11
100
AcDbSymbolTableRecord
100
AcDbTextStyleTableRecord
  2
STANDARD
 70
0
 40
0.0
 41
1.0
 50
0.0
 71
0
 42
0.2
  3
ARIAL.TTF
  4

  0
STYLE
  5
20E
100
AcDbSymbolTableRecord
100
AcDbTextStyleTableRecord
  2
TEXTSTYLE_1
 70
0
 40
0.0
 41
0.8
 50
0.0
 71
0
 42
0.2
  3
gdt
  4

  0
ENDTAB
  0
TABLE
  2
VIEW
  5
6
100
AcDbSymbolTable
 70
0
  0
ENDTAB
  0
TABLE
  2
UCS
  5
7
100
AcDbSymbolTable
 70
0
  0
ENDTAB
  0
TABLE
  2
APPID
  5
9
100
AcDbSymbolTable
 70
1
  0
APPID
  5
20F
100
AcDbSymbolTableRecord
100
AcDbRegAppTableRecord
  2
ACAD
 70
0
  0
ENDTAB
  0
TABLE
  2
BLOCK_RECORD
  5
1
100
AcDbSymbolTable
 70
0
  0
BLOCK_RECORD
  5
210
100
AcDbSymbolTableRecord
100
AcDbBlockTableRecord
  2
*Model_Space
  0
BLOCK_RECORD
  5
211
100
AcDbSymbolTableRecord
100
AcDbBlockTableRecord
  2
*Paper_Space
  0
BLOCK_RECORD
  5
212
100
AcDbSymbolTableRecord
100
AcDbBlockTableRecord
  2
_FILLED
  0
ENDTAB
  0
TABLE
  2
DIMSTYLE
  5
A
100
AcDbSymbolTable
 70
1
100
AcDbDimStyleTable
 71
0
  0
DIMSTYLE
105
213
100
AcDbSymbolTableRecord
100
AcDbDimStyleTableRecord
  2
STANDARD
 70
0
  3

  4

 40
1.0
 41
0.7476394901
 42
1.0
 43
0.38
 44
1.0
 45
0.0
 46
0.0
 47
0.01
 48
0.01
140
1.0466952862
141
0.09
142
0.0
143
25.4
144
1.0
145
0.0
146
1.0
147
0.625
 71
1
 72
0
 73
0
 74
0
 75
0
 76
0
 77
1
 78
8
 79
2
170
0
171
1
172
0
173
0
174
0
175
0
176
0
177
0
178
0
270
2
179
2
271
2
272
2
273
2
274
2
275
0
280
0
281
0
282
0
283
1
284
8
285
0
286
0
287
3
288
0
340
11
278
46
341
212
342
212
343
212
344
212
  0
ENDTAB
  0
ENDSEC
  0
SECTION
  2
BLOCKS
  0
BLOCK
  5
20
100
AcDbEntity
  8
0
100
AcDbBlockBegin
  2
*Model_Space
 70
0
 10
0.0
 20
0.0
 30
0.0
  3
*Model_Space
  1

  0
ENDBLK
  5
21
100
AcDbEntity
  8
0
100
AcDbBlockEnd
  0
BLOCK
  5
1C
100
AcDbEntity
  8
0
100
AcDbBlockBegin
  2
*Paper_Space
 70
0
 10
0.0
 20
0.0
 30
0.0
  3
*Paper_Space
  1

  0
ENDBLK
  5
1D
100
AcDbEntity
  8
0
100
AcDbBlockEnd
  0
BLOCK
  5
214
100
AcDbEntity
  8
0
100
AcDbBlockBegin
  2
_FILLED
 70
64
 10
0.0
 20
0.0
  3
_FILLED
  1

  0
SOLID
  5
215
100
AcDbEntity
  8
0
  6
BYBLOCK
 62
0
100
AcDbTrace
 10
0.0
 20
0.0
 11
-1.0
 21
0.25
 12
-1.0
 22
-0.25
 13
-1.0
 23
-0.25
  0
ENDBLK
  5
216
100
AcDbEntity
  8
0
  6
BYBLOCK
 62
0
100
AcDbBlockEnd
  0
ENDSEC
  0
SECTION
  2
ENTITIES
  0
LINE
  5
217
100
AcDbEntity
  8
0
100
AcDbLine
 62
7
  6
BYLAYER
 10
34.6095745725
 20
6.5772142857
 11
32.6095745725
 21
6.5772142857
  0
LINE
  5
218
100
AcDbEntity
  8
0
100
AcDbLine
 62
7
  6
BYLAYER
 10
17.0095745725
 20
69.6772142857
 11
16.5095745725
 21
69.1772142857
  0
LINE
  5
219
100
AcDbEntity
  8
0
100
AcDbLine
 62
7
  6
BYLAYER
 10
34.8149660835
 20
16.5772142857
 11
32.4041830444
 21
16.5772142857
  0
LINE
  5
21A
100
AcDbEntity
  8
0
100
AcDbLine
 62
7
  6
BYLAYER
 10
35.0146920075
 20
16.7667470945
 11
32.2044571374
 21
16.7667470945
  0
LINE
  5
21B
100
AcDbEntity
  8
0
100
AcDbLine
 62
7
  6
BYLAYER
 10
37.6951313197
 20
18.5772142857
 11
25.3238209108
 21
18.5772142857
  0
LINE
  5
21C
100
AcDbEntity
  8
0
100
AcDbLine
 62
7
  6
BYLAYER
 10
24.7887161969
 20
21.6119439212
 11
38.2304329481
 21
21.6119439212
  0
LINE
  5
21D
100
AcDbEntity
  8
0
100
AcDbLine
 62
7
  6
BYLAYER
 10
45.5594948134
 20
21.7772142857
 11
17.4596543316
 21
21.7772142857
  0
LINE
  5
21E
100
AcDbEntity
  8
0
100
AcDbLine
 62
7
  6
BYLAYER
 10
45.7595745725
 20
21.9772142857
 11
17.2595745725
 21
21.9772142857
  0
LINE
  5
21F
100
AcDbEntity
  8
0
100
AcDbLine
 62
7
  6
BYLAYER
 10
17.2595745725
 20
24.7772142857
 11
45.7594478746
 21
24.7772142857
  0
LINE
  5
220
100
AcDbEntity
  8
0
100
AcDbLine
 62
7
  6
BYLAYER
 10
45.7594941037
 20
24.8772142857
 11
17.2596550413
 21
24.8772142857
  0
LINE
  5
221
100
AcDbEntity
  8
0
100
AcDbLine
 62
7
  6
BYLAYER
 10
17.2595745725
 20
28.5772142857
 11
16.5095745725
 21
29.3272142857
  0
LINE
  5
222
100
AcDbEntity
  8
0
100
AcDbLine
 62
7
  6
BYLAYER
 10
13.5095745725
 20
55.6772142857
 11
13.5095745725
 21
51.6772142857
  0
LINE
  5
223
100
AcDbEntity
  8
0
100
AcDbLine
 62
7
  6
BYLAYER
 10
13.5095745725
 20
61.6772142857
 11
13.5095745725
 21
65.6772142857
  0
LINE
  5
224
100
AcDbEntity
  8
0
100
AcDbLine
 62
7
  6
BYLAYER
 10
14.1157923551
 20
55.0224536954
 11
14.1157923551
 21
52.3319748666
  0
LINE
  5
225
100
AcDbEntity
  8
0
100
AcDbLine
 62
7
  6
BYLAYER
 10
14.1157923551
 20
62.3319748678
 11
14.1157923551
 21
65.0224537036
  0
LINE
  5
226
100
AcDbEntity
  8
0
100
AcDbLine
 62
7
  6
BYLAYER
 10
15.258164411
 20
55.8772142857
 11
15.2045745725
 21
55.6772142857
  0
LINE
  5
227
100
AcDbEntity
  8
0
100
AcDbLine
 62
7
  6
BYLAYER
 10
16.5095745725
 20
69.1772142857
 11
16.5095745725
 21
65.6772142857
  0
LINE
  5
228
100
AcDbEntity
  8
0
100
AcDbLine
 62
7
  6
BYLAYER
 10
16.5095745725
 20
61.0303787845
 11
16.5095745725
 21
56.3240514284
  0
LINE
  5
229
100
AcDbEntity
  8
0
100
AcDbLine
 62
7
  6
BYLAYER
 10
16.5095745725
 20
51.6772142857
 11
16.5095745725
 21
29.3272142857
  0
LINE
  5
22A
100
AcDbEntity
  8
0
100
AcDbLine
 62
7
  6
BYLAYER
 10
17.2595745725
 20
82.4772142857
 11
17.2595745725
 21
69.6772142857
  0
LINE
  5
22B
100
AcDbEntity
  8
0
100
AcDbLine
 62
7
  6
BYLAYER
 10
17.2595745725
 20
28.5772142857
 11
17.2595745725
 21
24.8772142857
  0
LINE
  5
22C
100
AcDbEntity
  8
0
100
AcDbLine
 62
7
  6
BYLAYER
 10
17.2595745725
 20
24.7772142857
 11
17.2595745725
 21
21.9772142857
  0
LINE
  5
22D
100
AcDbEntity
  8
0
100
AcDbLine
 62
7
  6
BYLAYER
 10
17.3095745725
 20
24.8772142857
 11
17.3095745725
 21
24.7772142857
  0
LINE
  5
22E
100
AcDbEntity
  8
0
100
AcDbLine
 62
7
  6
BYLAYER
 10
17.2595745725
 20
28.5772142857
 11
45.7595745725
 21
28.5772142857
  0
LINE
  5
22F
100
AcDbEntity
  8
0
100
AcDbLine
 62
7
  6
BYLAYER
 10
46.5095745725
 20
29.3272142857
 11
16.5095745725
 21
29.3272142857
  0
LINE
  5
230
100
AcDbEntity
  8
0
100
AcDbLine
 62
7
  6
BYLAYER
 10
31.0095745725
 20
60.9772142857
 11
31.5095745725
 21
61.4772142857
  0
LINE
  5
231
100
AcDbEntity
  8
0
100
AcDbLine
 62
7
  6
BYLAYER
 10
15.258164411
 20
61.4772142857
 11
15.2045745725
 21
61.6772142857
  0
LINE
  5
232
100
AcDbEntity
  8
0
100
AcDbLine
 62
7
  6
BYLAYER
 10
25.3238209107
 20
18.5772142857
 11
24.7887161969
 21
21.6119439212
  0
LINE
  5
233
100
AcDbEntity
  8
0
100
AcDbLine
 62
7
  6
BYLAYER
 10
32.0095745725
 20
56.3772142857
 11
31.5095745725
 21
55.8772142857
  0
LINE
  5
234
100
AcDbEntity
  8
0
100
AcDbLine
 62
7
  6
BYLAYER
 10
32.2044571374
 20
16.7667470945
 11
32.1095745725
 21
18.5772142857
  0
LINE
  5
235
100
AcDbEntity
  8
0
100
AcDbLine
 62
7
  6
BYLAYER
 10
30.3168885283
 20
76.1772142857
 11
30.3168885283
 21
82.4772142857
  0
LINE
  5
236
100
AcDbEntity
  8
0
100
AcDbLine
 62
7
  6
BYLAYER
 10
30.9033567898
 20
55.0224537635
 11
30.9033567898
 21
52.331974808
  0
LINE
  5
237
100
AcDbEntity
  8
0
100
AcDbLine
 62
7
  6
BYLAYER
 10
30.9033567898
 20
62.3319748576
 11
30.9033567898
 21
65.022453771
  0
LINE
  5
238
100
AcDbEntity
  8
0
100
AcDbLine
 62
7
  6
BYLAYER
 10
31.9425872744
 20
54.9968444922
 11
31.9425872744
 21
52.3575840748
  0
LINE
  5
239
100
AcDbEntity
  8
0
100
AcDbLine
 62
7
  6
BYLAYER
 10
31.9425872744
 20
62.357584074
 11
31.9425872744
 21
64.9968444974
  0
LINE
  5
23A
100
AcDbEntity
  8
0
100
AcDbLine
 62
7
  6
BYLAYER
 10
32.6095745725
 20
6.5772142857
 11
32.6095745725
 21
16.5772142857
  0
LINE
  5
23B
100
AcDbEntity
  8
0
100
AcDbLine
 62
7
  6
BYLAYER
 10
32.7022606167
 20
82.4772142857
 11
32.7022606167
 21
76.1772142857
  0
LINE
  5
23C
100
AcDbEntity
  8
0
100
AcDbLine
 62
7
  6
BYLAYER
 10
34.6095745725
 20
6.5772142857
 11
34.6095745725
 21
16.5772142857
  0
LINE
  5
23D
100
AcDbEntity
  8
0
100
AcDbLine
 62
7
  6
BYLAYER
 10
35.0146920075
 20
16.7667470945
 11
35.1095745725
 21
18.5772142857
  0
LINE
  5
23E
100
AcDbEntity
  8
0
100
AcDbLine
 62
7
  6
BYLAYER
 10
49.5095745725
 20
51.6772142857
 11
13.5095745725
 21
51.6772142857
  0
LINE
  5
23F
100
AcDbEntity
  8
0
100
AcDbLine
 62
7
  6
BYLAYER
 10
31.0095745725
 20
56.3772142857
 11
31.5095745725
 21
55.8772142857
  0
LINE
  5
240
100
AcDbEntity
  8
0
100
AcDbLine
 62
7
  6
BYLAYER
 10
37.6953282342
 20
18.5772142857
 11
38.2304329481
 21
21.6119439212
  0
LINE
  5
241
100
AcDbEntity
  8
0
100
AcDbLine
 62
7
  6
BYLAYER
 10
47.760984734
 20
61.4772142857
 11
47.8145745725
 21
61.6772142857
  0
LINE
  5
242
100
AcDbEntity
  8
0
100
AcDbLine
 62
7
  6
BYLAYER
 10
13.5095745725
 20
55.6772142857
 11
49.5095745725
 21
55.6772142857
  0
LINE
  5
243
100
AcDbEntity
  8
0
100
AcDbLine
 62
7
  6
BYLAYER
 10
45.7095745725
 20
24.8772142857
 11
45.7095745725
 21
24.7772142857
  0
LINE
  5
244
100
AcDbEntity
  8
0
100
AcDbLine
 62
7
  6
BYLAYER
 10
45.7595745725
 20
82.4772142857
 11
45.7595745725
 21
69.6772142857
  0
LINE
  5
245
100
AcDbEntity
  8
0
100
AcDbLine
 62
7
  6
BYLAYER
 10
45.7595745725
 20
28.5772142857
 11
45.7595745725
 21
24.8772142857
  0
LINE
  5
246
100
AcDbEntity
  8
0
100
AcDbLine
 62
7
  6
BYLAYER
 10
45.7595745725
 20
24.7772142857
 11
45.7595745725
 21
21.9772142857
  0
LINE
  5
247
100
AcDbEntity
  8
0
100
AcDbLine
 62
7
  6
BYLAYER
 10
15.3998964503
 20
56.3772142857
 11
15.7230042372
 21
56.3772142857
  0
LINE
  5
248
100
AcDbEntity
  8
0
100
AcDbLine
 62
7
  6
BYLAYER
 10
15.731462748
 20
56.3772142857
 11
15.981433349
 21
56.3772142857
  0
LINE
  5
249
100
AcDbEntity
  8
0
100
AcDbLine
 62
7
  6
BYLAYER
 10
16.0782299436
 20
56.3772142857
 11
16.3580409916
 21
56.3772142857
  0
LINE
  5
24A
100
AcDbEntity
  8
0
100
AcDbLine
 62
7
  6
BYLAYER
 10
16.5424389895
 20
56.3772142857
 11
16.8499609536
 21
56.3772142857
  0
LINE
  5
24B
100
AcDbEntity
  8
0
100
AcDbLine
 62
7
  6
BYLAYER
 10
17.1205569745
 20
56.3772142857
 11
17.4534494269
 21
56.3772142857
  0
LINE
  5
24C
100
AcDbEntity
  8
0
100
AcDbLine
 62
7
  6
BYLAYER
 10
17.8081840718
 20
56.3772142857
 11
18.1639134999
 21
56.3772142857
  0
LINE
  5
24D
100
AcDbEntity
  8
0
100
AcDbLine
 62
7
  6
BYLAYER
 10
18.600087024
 20
56.3772142857
 11
18.975946112
 21
56.3772142857
  0
LINE
  5
24E
100
AcDbEntity
  8
0
100
AcDbLine
 62
7
  6
BYLAYER
 10
19.4902389714
 20
56.3772142857
 11
19.8833672047
 21
56.3772142857
  0
LINE
  5
24F
100
AcDbEntity
  8
0
100
AcDbLine
 62
7
  6
BYLAYER
 10
20.4718653201
 20
56.3772142857
 11
20.8792707555
 21
56.3772142857
  0
LINE
  5
250
100
AcDbEntity
  8
0
100
AcDbLine
 62
7
  6
BYLAYER
 10
21.537495301
 20
56.3772142857
 11
21.9560773371
 21
56.3772142857
  0
LINE
  5
251
100
AcDbEntity
  8
0
100
AcDbLine
 62
7
  6
BYLAYER
 10
22.6790188265
 20
56.3772142857
 11
23.1055918013
 21
56.3772142857
  0
LINE
  5
252
100
AcDbEntity
  8
0
100
AcDbLine
 62
7
  6
BYLAYER
 10
23.8877482133
 20
56.3772142857
 11
24.3190656488
 21
56.3772142857
  0
LINE
  5
253
100
AcDbEntity
  8
0
100
AcDbLine
 62
7
  6
BYLAYER
 10
25.1544843008
 20
56.3772142857
 11
25.587263611
 21
56.3772142857
  0
LINE
  5
254
100
AcDbEntity
  8
0
100
AcDbLine
 62
7
  6
BYLAYER
 10
26.4695864626
 20
56.3772142857
 11
26.9005339356
 21
56.3772142857
  0
LINE
  5
255
100
AcDbEntity
  8
0
100
AcDbLine
 62
7
  6
BYLAYER
 10
27.8230459771
 20
56.3772142857
 11
28.2488818424
 21
56.3772142857
  0
LINE
  5
256
100
AcDbEntity
  8
0
100
AcDbLine
 62
7
  6
BYLAYER
 10
29.2045622003
 20
56.3772142857
 11
29.6220455898
 21
56.3772142857
  0
LINE
  5
257
100
AcDbEntity
  8
0
100
AcDbLine
 62
7
  6
BYLAYER
 10
30.6036209594
 20
56.3772142857
 11
31.0095745725
 21
56.3772142857
  0
LINE
  5
258
100
AcDbEntity
  8
0
100
AcDbLine
 62
7
  6
BYLAYER
 10
32.0095745725
 20
56.3772142857
 11
32.4155281856
 21
56.3772142857
  0
LINE
  5
259
100
AcDbEntity
  8
0
100
AcDbLine
 62
7
  6
BYLAYER
 10
33.3971035551
 20
56.3772142857
 11
33.8145869447
 21
56.3772142857
  0
LINE
  5
25A
100
AcDbEntity
  8
0
100
AcDbLine
 62
7
  6
BYLAYER
 10
34.7702673025
 20
56.3772142857
 11
35.1961031678
 21
56.3772142857
  0
LINE
  5
25B
100
AcDbEntity
  8
0
100
AcDbLine
 62
7
  6
BYLAYER
 10
36.1186152094
 20
56.3772142857
 11
36.5495626824
 21
56.3772142857
  0
LINE
  5
25C
100
AcDbEntity
  8
0
100
AcDbLine
 62
7
  6
BYLAYER
 10
37.4318855339
 20
56.3772142857
 11
37.8646648442
 21
56.3772142857
  0
LINE
  5
25D
100
AcDbEntity
  8
0
100
AcDbLine
 62
7
  6
BYLAYER
 10
38.7000834961
 20
56.3772142857
 11
39.1314009317
 21
56.3772142857
  0
LINE
  5
25E
100
AcDbEntity
  8
0
100
AcDbLine
 62
7
  6
BYLAYER
 10
39.9135573436
 20
56.3772142857
 11
40.3401303184
 21
56.3772142857
  0
LINE
  5
25F
100
AcDbEntity
  8
0
100
AcDbLine
 62
7
  6
BYLAYER
 10
41.0630718078
 20
56.3772142857
 11
41.4816538439
 21
56.3772142857
  0
LINE
  5
260
100
AcDbEntity
  8
0
100
AcDbLine
 62
7
  6
BYLAYER
 10
42.1398783895
 20
56.3772142857
 11
42.5472838248
 21
56.3772142857
  0
LINE
  5
261
100
AcDbEntity
  8
0
100
AcDbLine
 62
7
  6
BYLAYER
 10
43.1357819403
 20
56.3772142857
 11
43.5289101736
 21
56.3772142857
  0
LINE
  5
262
100
AcDbEntity
  8
0
100
AcDbLine
 62
7
  6
BYLAYER
 10
44.043203033
 20
56.3772142857
 11
44.4190621209
 21
56.3772142857
  0
LINE
  5
263
100
AcDbEntity
  8
0
100
AcDbLine
 62
7
  6
BYLAYER
 10
44.8552356451
 20
56.3772142857
 11
45.2109650731
 21
56.3772142857
  0
LINE
  5
264
100
AcDbEntity
  8
0
100
AcDbLine
 62
7
  6
BYLAYER
 10
45.5656997181
 20
56.3772142857
 11
45.8985912359
 21
56.3772142857
  0
LINE
  5
265
100
AcDbEntity
  8
0
100
AcDbLine
 62
7
  6
BYLAYER
 10
46.1691881914
 20
56.3772142857
 11
46.4767101555
 21
56.3772142857
  0
LINE
  5
266
100
AcDbEntity
  8
0
100
AcDbLine
 62
7
  6
BYLAYER
 10
46.6611081533
 20
56.3772142857
 11
46.9409192014
 21
56.3772142857
  0
LINE
  5
267
100
AcDbEntity
  8
0
100
AcDbLine
 62
7
  6
BYLAYER
 10
47.037715796
 20
56.3772142857
 11
47.2876863969
 21
56.3772142857
  0
LINE
  5
268
100
AcDbEntity
  8
0
100
AcDbLine
 62
7
  6
BYLAYER
 10
47.2961449078
 20
56.3772142857
 11
47.6192526947
 21
56.3772142857
  0
LINE
  5
269
100
AcDbEntity
  8
0
100
AcDbLine
 62
7
  6
BYLAYER
 10
32.0095745725
 20
60.9772142857
 11
31.5095745725
 21
61.4772142857
  0
LINE
  5
26A
100
AcDbEntity
  8
0
100
AcDbLine
 62
7
  6
BYLAYER
 10
46.5095745725
 20
69.1772142857
 11
46.5095745725
 21
65.6772142857
  0
LINE
  5
26B
100
AcDbEntity
  8
0
100
AcDbLine
 62
7
  6
BYLAYER
 10
46.5095745725
 20
61.030377143
 11
46.5095745725
 21
56.324049787
  0
LINE
  5
26C
100
AcDbEntity
  8
0
100
AcDbLine
 62
7
  6
BYLAYER
 10
46.5095745725
 20
51.6772142857
 11
46.5095745725
 21
29.3272142857
  0
LINE
  5
26D
100
AcDbEntity
  8
0
100
AcDbLine
 62
7
  6
BYLAYER
 10
47.6192526947
 20
60.9772142857
 11
47.2961449078
 21
60.9772142857
  0
LINE
  5
26E
100
AcDbEntity
  8
0
100
AcDbLine
 62
7
  6
BYLAYER
 10
47.2876863969
 20
60.9772142857
 11
47.037715796
 21
60.9772142857
  0
LINE
  5
26F
100
AcDbEntity
  8
0
100
AcDbLine
 62
7
  6
BYLAYER
 10
46.9409192014
 20
60.9772142857
 11
46.6611081533
 21
60.9772142857
  0
LINE
  5
270
100
AcDbEntity
  8
0
100
AcDbLine
 62
7
  6
BYLAYER
 10
46.4767101555
 20
60.9772142857
 11
46.1691881914
 21
60.9772142857
  0
LINE
  5
271
100
AcDbEntity
  8
0
100
AcDbLine
 62
7
  6
BYLAYER
 10
45.8985912359
 20
60.9772142857
 11
45.5656997181
 21
60.9772142857
  0
LINE
  5
272
100
AcDbEntity
  8
0
100
AcDbLine
 62
7
  6
BYLAYER
 10
45.2109650731
 20
60.9772142857
 11
44.8552356451
 21
60.9772142857
  0
LINE
  5
273
100
AcDbEntity
  8
0
100
AcDbLine
 62
7
  6
BYLAYER
 10
44.4190621209
 20
60.9772142857
 11
44.043203033
 21
60.9772142857
  0
LINE
  5
274
100
AcDbEntity
  8
0
100
AcDbLine
 62
7
  6
BYLAYER
 10
43.5289101736
 20
60.9772142857
 11
43.1357819403
 21
60.9772142857
  0
LINE
  5
275
100
AcDbEntity
  8
0
100
AcDbLine
 62
7
  6
BYLAYER
 10
42.5472838248
 20
60.9772142857
 11
42.1398783895
 21
60.9772142857
  0
LINE
  5
276
100
AcDbEntity
  8
0
100
AcDbLine
 62
7
  6
BYLAYER
 10
41.4816538439
 20
60.9772142857
 11
41.0630718078
 21
60.9772142857
  0
LINE
  5
277
100
AcDbEntity
  8
0
100
AcDbLine
 62
7
  6
BYLAYER
 10
40.3401303184
 20
60.9772142857
 11
39.9135573436
 21
60.9772142857
  0
LINE
  5
278
100
AcDbEntity
  8
0
100
AcDbLine
 62
7
  6
BYLAYER
 10
39.1314009317
 20
60.9772142857
 11
38.7000834961
 21
60.9772142857
  0
LINE
  5
279
100
AcDbEntity
  8
0
100
AcDbLine
 62
7
  6
BYLAYER
 10
37.8646648442
 20
60.9772142857
 11
37.4318855339
 21
60.9772142857
  0
LINE
  5
27A
100
AcDbEntity
  8
0
100
AcDbLine
 62
7
  6
BYLAYER
 10
36.5495626824
 20
60.9772142857
 11
36.1186152094
 21
60.9772142857
  0
LINE
  5
27B
100
AcDbEntity
  8
0
100
AcDbLine
 62
7
  6
BYLAYER
 10
35.1961031678
 20
60.9772142857
 11
34.7702673025
 21
60.9772142857
  0
LINE
  5
27C
100
AcDbEntity
  8
0
100
AcDbLine
 62
7
  6
BYLAYER
 10
33.8145869447
 20
60.9772142857
 11
33.3971035551
 21
60.9772142857
  0
LINE
  5
27D
100
AcDbEntity
  8
0
100
AcDbLine
 62
7
  6
BYLAYER
 10
32.4155281856
 20
60.9772142857
 11
32.0095745725
 21
60.9772142857
  0
LINE
  5
27E
100
AcDbEntity
  8
0
100
AcDbLine
 62
7
  6
BYLAYER
 10
31.0095745725
 20
60.9772142857
 11
30.6036209594
 21
60.9772142857
  0
LINE
  5
27F
100
AcDbEntity
  8
0
100
AcDbLine
 62
7
  6
BYLAYER
 10
29.6220455898
 20
60.9772142857
 11
29.2045622003
 21
60.9772142857
  0
LINE
  5
280
100
AcDbEntity
  8
0
100
AcDbLine
 62
7
  6
BYLAYER
 10
28.2488818424
 20
60.9772142857
 11
27.8230459771
 21
60.9772142857
  0
LINE
  5
281
100
AcDbEntity
  8
0
100
AcDbLine
 62
7
  6
BYLAYER
 10
26.9005339356
 20
60.9772142857
 11
26.4695864626
 21
60.9772142857
  0
LINE
  5
282
100
AcDbEntity
  8
0
100
AcDbLine
 62
7
  6
BYLAYER
 10
25.587263611
 20
60.9772142857
 11
25.1544843008
 21
60.9772142857
  0
LINE
  5
283
100
AcDbEntity
  8
0
100
AcDbLine
 62
7
  6
BYLAYER
 10
24.3190656488
 20
60.9772142857
 11
23.8877482133
 21
60.9772142857
  0
LINE
  5
284
100
AcDbEntity
  8
0
100
AcDbLine
 62
7
  6
BYLAYER
 10
23.1055918013
 20
60.9772142857
 11
22.6790188265
 21
60.9772142857
  0
LINE
  5
285
100
AcDbEntity
  8
0
100
AcDbLine
 62
7
  6
BYLAYER
 10
21.9560773371
 20
60.9772142857
 11
21.537495301
 21
60.9772142857
  0
LINE
  5
286
100
AcDbEntity
  8
0
100
AcDbLine
 62
7
  6
BYLAYER
 10
20.8792707555
 20
60.9772142857
 11
20.4718653201
 21
60.9772142857
  0
LINE
  5
287
100
AcDbEntity
  8
0
100
AcDbLine
 62
7
  6
BYLAYER
 10
19.8833672047
 20
60.9772142857
 11
19.4902389714
 21
60.9772142857
  0
LINE
  5
288
100
AcDbEntity
  8
0
100
AcDbLine
 62
7
  6
BYLAYER
 10
18.975946112
 20
60.9772142857
 11
18.600087024
 21
60.9772142857
  0
LINE
  5
289
100
AcDbEntity
  8
0
100
AcDbLine
 62
7
  6
BYLAYER
 10
18.1639134999
 20
60.9772142857
 11
17.8081840718
 21
60.9772142857
  0
LINE
  5
28A
100
AcDbEntity
  8
0
100
AcDbLine
 62
7
  6
BYLAYER
 10
17.4534494269
 20
60.9772142857
 11
17.1205569745
 21
60.9772142857
  0
LINE
  5
28B
100
AcDbEntity
  8
0
100
AcDbLine
 62
7
  6
BYLAYER
 10
16.8499609536
 20
60.9772142857
 11
16.5424389895
 21
60.9772142857
  0
LINE
  5
28C
100
AcDbEntity
  8
0
100
AcDbLine
 62
7
  6
BYLAYER
 10
16.3580409916
 20
60.9772142857
 11
16.0782299436
 21
60.9772142857
  0
LINE
  5
28D
100
AcDbEntity
  8
0
100
AcDbLine
 62
7
  6
BYLAYER
 10
15.981433349
 20
60.9772142857
 11
15.731462748
 21
60.9772142857
  0
LINE
  5
28E
100
AcDbEntity
  8
0
100
AcDbLine
 62
7
  6
BYLAYER
 10
15.7230042372
 20
60.9772142857
 11
15.3998964503
 21
60.9772142857
  0
LINE
  5
28F
100
AcDbEntity
  8
0
100
AcDbLine
 62
7
  6
BYLAYER
 10
49.5095745725
 20
61.6772142857
 11
13.5095745725
 21
61.6772142857
  0
LINE
  5
290
100
AcDbEntity
  8
0
100
AcDbLine
 62
7
  6
BYLAYER
 10
49.0765618706
 20
54.9968445281
 11
49.0765618706
 21
52.3575840433
  0
LINE
  5
291
100
AcDbEntity
  8
0
100
AcDbLine
 62
7
  6
BYLAYER
 10
49.0765618706
 20
62.3575840722
 11
49.0765618706
 21
64.9968445233
  0
LINE
  5
292
100
AcDbEntity
  8
0
100
AcDbLine
 62
7
  6
BYLAYER
 10
49.5095745725
 20
51.6772142857
 11
49.5095745725
 21
55.6772142857
  0
LINE
  5
293
100
AcDbEntity
  8
0
100
AcDbLine
 62
7
  6
BYLAYER
 10
49.5095745725
 20
61.6772142857
 11
49.5095745725
 21
65.6772142857
  0
LINE
  5
294
100
AcDbEntity
  8
0
100
AcDbLine
 62
7
  6
BYLAYER
 10
47.760984734
 20
55.8772142857
 11
47.8145745725
 21
55.6772142857
  0
LINE
  5
295
100
AcDbEntity
  8
0
100
AcDbLine
 62
7
  6
BYLAYER
 10
45.7595745725
 20
28.5772142857
 11
46.5095745725
 21
29.3272142857
  0
LINE
  5
296
100
AcDbEntity
  8
0
100
AcDbLine
 62
7
  6
BYLAYER
 10
13.5095745725
 20
65.6772142857
 11
49.5095745725
 21
65.6772142857
  0
LINE
  5
297
100
AcDbEntity
  8
0
100
AcDbLine
 62
7
  6
BYLAYER
 10
16.5095745725
 20
69.1772142857
 11
46.5095745725
 21
69.1772142857
  0
LINE
  5
298
100
AcDbEntity
  8
0
100
AcDbLine
 62
7
  6
BYLAYER
 10
17.0095745725
 20
69.6772142857
 11
46.0094457224
 21
69.6772142857
  0
LINE
  5
299
100
AcDbEntity
  8
0
100
AcDbLine
 62
7
  6
BYLAYER
 10
46.0095745725
 20
69.6772142857
 11
46.5095745725
 21
69.1772142857
  0
LINE
  5
29A
100
AcDbEntity
  8
0
100
AcDbLine
 62
7
  6
BYLAYER
 10
30.3168885283
 20
76.1772142857
 11
32.7022606167
 21
76.1772142857
  0
LINE
  5
29B
100
AcDbEntity
  8
0
100
AcDbLine
 62
7
  6
BYLAYER
 10
17.2595745725
 20
82.4772142857
 11
30.3168885283
 21
82.4772142857
  0
LINE
  5
29C
100
AcDbEntity
  8
0
100
AcDbLine
 62
7
  6
BYLAYER
 10
32.7022606167
 20
82.4772142857
 11
45.7595745725
 21
82.4772142857
  0
LINE
  5
29D
100
AcDbEntity
  8
0
100
AcDbLine
 62
7
  6
BYLAYER
 10
17.4595745725
 20
82.6772142857
 11
45.5595500952
 21
82.6772142857
  0
ARC
  5
29E
100
AcDbEntity
  8
0
100
AcDbCircle
 62
7
  6
BYLAYER
 10
29.5387935411
 20
-21.4507900262
 40
76.4854172282
100
AcDbArc
 50
88.1990041548
 51
88.9777415612
  0
ARC
  5
29F
100
AcDbEntity
  8
0
100
AcDbCircle
 62
7
  6
BYLAYER
 10
29.5387935411
 20
138.8052185976
 40
76.4854172282
100
AcDbArc
 50
271.0222584388
 51
271.8009958452
  0
ARC
  5
2A0
100
AcDbEntity
  8
0
100
AcDbCircle
 62
7
  6
BYLAYER
 10
29.538794034
 20
-11.4507700243
 40
76.4853972206
100
AcDbArc
 50
88.1990040529
 51
88.977741663
  0
ARC
  5
2A1
100
AcDbEntity
  8
0
100
AcDbCircle
 62
7
  6
BYLAYER
 10
29.538794034
 20
128.8051985952
 40
76.4853972201
100
AcDbArc
 50
271.022258337
 51
271.8009959471
  0
ARC
  5
2A2
100
AcDbEntity
  8
0
100
AcDbCircle
 62
7
  6
BYLAYER
 10
14.9131007333
 20
28.9607042157
 40
26.0739426827
100
AcDbArc
 50
91.7523060432
 51
93.0856480669
  0
ARC
  5
2A3
100
AcDbEntity
  8
0
100
AcDbCircle
 62
7
  6
BYLAYER
 10
14.9131007333
 20
88.3937243558
 40
26.0739426828
100
AcDbArc
 50
266.9143519331
 51
268.2476939568
  0
ARC
  5
2A4
100
AcDbEntity
  8
0
100
AcDbCircle
 62
7
  6
BYLAYER
 10
14.9131006288
 20
78.3937218817
 40
26.0739402067
100
AcDbArc
 50
266.9143518697
 51
268.2476940201
  0
ARC
  5
2A5
100
AcDbEntity
  8
0
100
AcDbCircle
 62
7
  6
BYLAYER
 10
14.9131006288
 20
38.9607066897
 40
26.0739402066
100
AcDbArc
 50
91.7523059799
 51
93.0856481303
  0
ARC
  5
2A6
100
AcDbEntity
  8
0
100
AcDbCircle
 62
7
  6
BYLAYER
 10
50.0815281721
 20
75.6764422486
 40
13.3567189518
100
AcDbArc
 50
265.6849586316
 51
267.5457632371
  0
ARC
  5
2A7
100
AcDbEntity
  8
0
100
AcDbCircle
 62
7
  6
BYLAYER
 10
50.081528157
 20
51.6779865775
 40
13.3567186968
100
AcDbArc
 50
92.4542367451
 51
94.3150413862
  0
ARC
  5
2A8
100
AcDbEntity
  8
0
100
AcDbCircle
 62
7
  6
BYLAYER
 10
50.0809338526
 20
41.688035365
 40
13.3466536786
100
AcDbArc
 50
92.4535350456
 51
94.3157430857
  0
ARC
  5
2A9
100
AcDbEntity
  8
0
100
AcDbCircle
 62
7
  6
BYLAYER
 10
50.0809338375
 20
65.6663929519
 40
13.3466534237
100
AcDbArc
 50
265.6842568965
 51
267.5464649722
  0
ARC
  5
2AA
100
AcDbEntity
  8
0
100
AcDbCircle
 62
7
  6
BYLAYER
 10
17.4595745725
 20
82.4772142857
 40
0.2
100
AcDbArc
 50
90.0
 51
180.0
  0
ARC
  5
2AB
100
AcDbEntity
  8
0
100
AcDbCircle
 62
7
  6
BYLAYER
 10
45.5595745725
 20
82.4772142857
 40
0.2
100
AcDbArc
 50
0.0
 51
90.0
  0
ARC
  5
2AC
100
AcDbEntity
  8
0
100
AcDbCircle
 62
7
  6
BYLAYER
 10
38.4273944987
 20
21.5772142857
 40
0.2
100
AcDbArc
 50
90.0
 51
170.0
  0
ARC
  5
2AD
100
AcDbEntity
  8
0
100
AcDbCircle
 62
7
  6
BYLAYER
 10
17.4595745725
 20
21.9772142857
 40
0.2
100
AcDbArc
 50
180.0
 51
270.0
  0
ARC
  5
2AE
100
AcDbEntity
  8
0
100
AcDbCircle
 62
7
  6
BYLAYER
 10
45.5595745725
 20
21.9772142857
 40
0.2
100
AcDbArc
 50
270.0
 51
360.0
  0
ARC
  5
2AF
100
AcDbEntity
  8
0
100
AcDbCircle
 62
7
  6
BYLAYER
 10
34.8149661006
 20
16.7772142857
 40
0.2
100
AcDbArc
 50
270.0000000016
 51
357.0000000139
  0
ARC
  5
2B0
100
AcDbEntity
  8
0
100
AcDbCircle
 62
7
  6
BYLAYER
 10
32.4041830444
 20
16.7772142857
 40
0.2
100
AcDbArc
 50
182.9999999861
 51
270.0
  0
ARC
  5
2B1
100
AcDbEntity
  8
0
100
AcDbCircle
 62
7
  6
BYLAYER
 10
24.5917546462
 20
21.5772142857
 40
0.2
100
AcDbArc
 50
10.0
 51
90.0
  0
SPLINE
  5
2B2
100
AcDbEntity
  8
0
100
AcDbSpline
 62
7
  6
BYLAYER
 70
0
 71
3
 72
10
 73
6
 74
0
 42
0.0000001
 43
0.0000001
 44
0.0000000001
 40
0.0
 40
0.0
 40
0.0
 40
0.0
 40
0.5003195042
 40
0.7502115143
 40
1.0
 40
1.0
 40
1.0
 40
1.0
 10
30.9033567898
 20
52.3319748004
 30
0.0
 10
29.513027955
 20
52.1280316994
 30
0.0
 10
27.4185744689
 20
51.879979589
 30
0.0
 10
24.6147326718
 20
51.7067041079
 30
0.0
 10
23.2111311842
 20
51.6772142544
 30
0.0
 10
22.5095703688
 20
51.6772143142
 30
0.0
  0
SPLINE
  5
2B3
100
AcDbEntity
  8
0
100
AcDbSpline
 62
7
  6
BYLAYER
 70
0
 71
3
 72
10
 73
6
 74
0
 42
0.0000001
 43
0.0000001
 44
0.0000000001
 40
0.0
 40
0.0
 40
0.0
 40
0.0
 40
0.2497808372
 40
0.4996693425
 40
1.0
 40
1.0
 40
1.0
 40
1.0
 10
40.5095703688
 20
51.6772143142
 30
0.0
 10
39.7934579926
 20
51.6772143727
 30
0.0
 10
38.3607241704
 20
51.7079382666
 30
0.0
 10
35.4988359315
 20
51.8883766222
 30
0.0
 10
33.3613505536
 20
52.1461639807
 30
0.0
 10
31.9425872744
 20
52.3575840748
 30
0.0
  0
SPLINE
  5
2B4
100
AcDbEntity
  8
0
100
AcDbSpline
 62
7
  6
BYLAYER
 70
0
 71
3
 72
10
 73
6
 74
0
 42
0.0000001
 43
0.0000001
 44
0.0000000001
 40
0.0
 40
0.0
 40
0.0
 40
0.0
 40
0.2497884532
 40
0.4996804584
 40
1.0
 40
1.0
 40
1.0
 40
1.0
 10
22.5095703688
 20
51.6772143142
 30
0.0
 10
21.808010306
 20
51.6772143715
 30
0.0
 10
20.4044100746
 20
51.7066959363
 30
0.0
 10
17.600571069
 20
51.8799773774
 30
0.0
 10
15.5061199819
 20
52.1280319327
 30
0.0
 10
14.1157923551
 20
52.3319748666
 30
0.0
  0
SPLINE
  5
2B5
100
AcDbEntity
  8
0
100
AcDbSpline
 62
7
  6
BYLAYER
 70
0
 71
3
 72
10
 73
6
 74
0
 42
0.0000001
 43
0.0000001
 44
0.0000000001
 40
0.0
 40
0.0
 40
0.0
 40
0.0
 40
0.5003195007
 40
0.7502115219
 40
1.0
 40
1.0
 40
1.0
 40
1.0
 10
14.1157923551
 20
55.0224536954
 30
0.0
 10
15.5061198045
 20
55.2263966043
 30
0.0
 10
17.6005716798
 20
55.4744409155
 30
0.0
 10
20.4044097256
 20
55.6477347479
 30
0.0
 10
21.8080101474
 20
55.6772142169
 30
0.0
 10
22.509570248
 20
55.6772142597
 30
0.0
  0
SPLINE
  5
2B6
100
AcDbEntity
  8
0
100
AcDbSpline
 62
7
  6
BYLAYER
 70
0
 71
3
 72
10
 73
6
 74
0
 42
0.0000001
 43
0.0000001
 44
0.0000000001
 40
0.0
 40
0.0
 40
0.0
 40
0.0
 40
0.2497884794
 40
0.4996805005
 40
1.0
 40
1.0
 40
1.0
 40
1.0
 10
22.509570248
 20
55.6772142597
 30
0.0
 10
23.2111310676
 20
55.6772143374
 30
0.0
 10
24.6147328834
 20
55.6477333393
 30
0.0
 10
27.4185739197
 20
55.4744419702
 30
0.0
 10
29.513027925
 20
55.226396824
 30
0.0
 10
30.9033567898
 20
55.0224537139
 30
0.0
  0
SPLINE
  5
2B7
100
AcDbEntity
  8
0
100
AcDbSpline
 62
7
  6
BYLAYER
 70
0
 71
3
 72
10
 73
6
 74
0
 42
0.0000001
 43
0.0000001
 44
0.0000000001
 40
0.0
 40
0.0
 40
0.0
 40
0.0
 40
0.5003306106
 40
0.7502191338
 40
1.0
 40
1.0
 40
1.0
 40
1.0
 10
31.9425872744
 20
54.9968444922
 30
0.0
 10
33.3613503504
 20
55.2082645564
 30
0.0
 10
35.4988365977
 20
55.4660408491
 30
0.0
 10
38.3607237916
 20
55.6464922799
 30
0.0
 10
39.793457824
 20
55.6772142157
 30
0.0
 10
40.509570248
 20
55.6772142598
 30
0.0
  0
SPLINE
  5
2B8
100
AcDbEntity
  8
0
100
AcDbSpline
 62
7
  6
BYLAYER
 70
0
 71
3
 72
10
 73
6
 74
0
 42
0.0000001
 43
0.0000001
 44
0.0000000001
 40
0.0
 40
0.0
 40
0.0
 40
0.0
 40
0.2497808676
 40
0.4996693907
 40
1.0
 40
1.0
 40
1.0
 40
1.0
 10
40.509570248
 20
55.6772142598
 30
0.0
 10
41.2256833915
 20
55.6772143387
 30
0.0
 10
42.658418816
 20
55.6464908362
 30
0.0
 10
45.5203090124
 20
55.4660420044
 30
0.0
 10
47.6577973801
 20
55.2082647715
 30
0.0
 10
49.0765618706
 20
54.9968444992
 30
0.0
  0
SPLINE
  5
2B9
100
AcDbEntity
  8
0
100
AcDbSpline
 62
7
  6
BYLAYER
 70
0
 71
3
 72
10
 73
6
 74
0
 42
0.0000001
 43
0.0000001
 44
0.0000000001
 40
0.0
 40
0.0
 40
0.0
 40
0.0
 40
0.5003306153
 40
0.7502191272
 40
1.0
 40
1.0
 40
1.0
 40
1.0
 10
49.0765618706
 20
52.3575840481
 30
0.0
 10
47.6577974003
 20
52.14616378
 30
0.0
 10
45.5203095813
 20
51.8883794873
 30
0.0
 10
42.6584186203
 20
51.7079458043
 30
0.0
 10
41.2256835084
 20
51.6772142532
 30
0.0
 10
40.5095703688
 20
51.6772143142
 30
0.0
  0
SPLINE
  5
2BA
100
AcDbEntity
  8
0
100
AcDbSpline
 62
7
  6
BYLAYER
 70
0
 71
3
 72
10
 73
6
 74
0
 42
0.0000001
 43
0.0000001
 44
0.0000000001
 40
0.0
 40
0.0
 40
0.0
 40
0.0
 40
0.2497884873
 40
0.4996804982
 40
1.0
 40
1.0
 40
1.0
 40
1.0
 10
22.5095703688
 20
65.6772142572
 30
0.0
 10
23.2111311887
 20
65.677214317
 30
0.0
 10
24.6147326829
 20
65.647724467
 30
0.0
 10
27.4185744799
 20
65.4744489809
 30
0.0
 10
29.5130279615
 20
65.2263968711
 30
0.0
 10
30.9033567898
 20
65.022453771
 30
0.0
  0
SPLINE
  5
2BB
100
AcDbEntity
  8
0
100
AcDbSpline
 62
7
  6
BYLAYER
 70
0
 71
3
 72
10
 73
6
 74
0
 42
0.0000001
 43
0.0000001
 44
0.0000000001
 40
0.0
 40
0.0
 40
0.0
 40
0.0
 40
0.5003306608
 40
0.750219165
 40
1.0
 40
1.0
 40
1.0
 40
1.0
 10
31.9425872744
 20
64.9968444966
 30
0.0
 10
33.3613505629
 20
65.2082645921
 30
0.0
 10
35.4988359473
 20
65.4660519503
 30
0.0
 10
38.3607241861
 20
65.6464903069
 30
0.0
 10
39.793457999
 20
65.6772141987
 30
0.0
 10
40.5095703688
 20
65.6772142572
 30
0.0
  0
SPLINE
  5
2BC
100
AcDbEntity
  8
0
100
AcDbSpline
 62
7
  6
BYLAYER
 70
0
 71
3
 72
10
 73
6
 74
0
 42
0.0000001
 43
0.0000001
 44
0.0000000001
 40
0.0
 40
0.0
 40
0.0
 40
0.0
 40
0.2497884797
 40
0.4996805017
 40
1.0
 40
1.0
 40
1.0
 40
1.0
 10
22.509570248
 20
61.6772143117
 30
0.0
 10
21.8080101429
 20
61.6772143545
 30
0.0
 10
20.4044097146
 20
61.70669382
 30
0.0
 10
17.600571669
 20
61.8799876581
 30
0.0
 10
15.5061197981
 20
62.128031968
 30
0.0
 10
14.1157923551
 20
62.3319748761
 30
0.0
  0
SPLINE
  5
2BD
100
AcDbEntity
  8
0
100
AcDbSpline
 62
7
  6
BYLAYER
 70
0
 71
3
 72
10
 73
6
 74
0
 42
0.0000001
 43
0.0000001
 44
0.0000000001
 40
0.0
 40
0.0
 40
0.0
 40
0.0
 40
0.5003195018
 40
0.7502115222
 40
1.0
 40
1.0
 40
1.0
 40
1.0
 10
30.9033567898
 20
62.3319748576
 30
0.0
 10
29.5130279185
 20
62.1280317465
 30
0.0
 10
27.4185739088
 20
61.8799865986
 30
0.0
 10
24.6147328722
 20
61.706695236
 30
0.0
 10
23.2111310631
 20
61.677214234
 30
0.0
 10
22.509570248
 20
61.6772143117
 30
0.0
  0
SPLINE
  5
2BE
100
AcDbEntity
  8
0
100
AcDbSpline
 62
7
  6
BYLAYER
 70
0
 71
3
 72
10
 73
6
 74
0
 42
0.0000001
 43
0.0000001
 44
0.0000000001
 40
0.0
 40
0.0
 40
0.0
 40
0.0
 40
0.2497808681
 40
0.499669392
 40
1.0
 40
1.0
 40
1.0
 40
1.0
 10
40.509570248
 20
61.6772143117
 30
0.0
 10
39.7934578187
 20
61.6772143557
 30
0.0
 10
38.3607237787
 20
61.7079362872
 30
0.0
 10
35.4988365851
 20
61.8883877254
 30
0.0
 10
33.361350343
 20
62.1461640161
 30
0.0
 10
31.9425872744
 20
62.3575840792
 30
0.0
  0
SPLINE
  5
2BF
100
AcDbEntity
  8
0
100
AcDbSpline
 62
7
  6
BYLAYER
 70
0
 71
3
 72
10
 73
6
 74
0
 42
0.0000001
 43
0.0000001
 44
0.0000000001
 40
0.0
 40
0.0
 40
0.0
 40
0.0
 40
0.2497808747
 40
0.4996693873
 40
1.0
 40
1.0
 40
1.0
 40
1.0
 10
40.5095703688
 20
65.6772142572
 30
0.0
 10
41.2256835137
 20
65.6772143182
 30
0.0
 10
42.6584186333
 20
65.6464827715
 30
0.0
 10
45.5203095941
 20
65.4660490817
 30
0.0
 10
47.6577974078
 20
65.2082647903
 30
0.0
 10
49.0765618706
 20
64.9968445233
 30
0.0
  0
SPLINE
  5
2C0
100
AcDbEntity
  8
0
100
AcDbSpline
 62
7
  6
BYLAYER
 70
0
 71
3
 72
10
 73
6
 74
0
 42
0.0000001
 43
0.0000001
 44
0.0000000001
 40
0.0
 40
0.0
 40
0.0
 40
0.0
 40
0.500330612
 40
0.7502191342
 40
1.0
 40
1.0
 40
1.0
 40
1.0
 10
49.0765618706
 20
62.3575840722
 30
0.0
 10
47.6577973726
 20
62.1461637988
 30
0.0
 10
45.5203089997
 20
61.8883865633
 30
0.0
 10
42.658418803
 20
61.7079377399
 30
0.0
 10
41.2256833863
 20
61.6772142328
 30
0.0
 10
40.509570248
 20
61.6772143117
 30
0.0
  0
SPLINE
  5
2C1
100
AcDbEntity
  8
0
100
AcDbSpline
 62
7
  6
BYLAYER
 70
0
 71
3
 72
10
 73
6
 74
0
 42
0.0000001
 43
0.0000001
 44
0.0000000001
 40
0.0
 40
0.0
 40
0.0
 40
0.0
 40
0.5003195444
 40
0.7502115487
 40
1.0
 40
1.0
 40
1.0
 40
1.0
 10
14.1157923551
 20
65.0224537048
 30
0.0
 10
15.5061199898
 20
65.2263966399
 30
0.0
 10
17.6005710824
 20
65.4744511948
 30
0.0
 10
20.404410088
 20
65.6477326368
 30
0.0
 10
21.8080103115
 20
65.6772142
 30
0.0
 10
22.5095703688
 20
65.6772142572
 30
0.0
  0
SPLINE
  5
2C2
100
AcDbEntity
  8
0
100
AcDbSpline
 62
7
  6
BYLAYER
 70
0
 71
3
 72
45
 73
41
 74
0
 42
0.0000001
 43
0.0000001
 44
0.0000000001
 40
0.0
 40
0.0
 40
0.0
 40
0.0
 40
0.0038861776
 40
0.0077901222
 40
0.0116961748
 40
0.0156030127
 40
0.023413343
 40
0.0312256036
 40
0.0468483823
 40
0.0624734248
 40
0.0780990979
 40
0.0937250011
 40
0.1249759669
 40
0.1562276246
 40
0.1874795613
 40
0.2187316281
 40
0.249983769
 40
0.3124874373
 40
0.3749914402
 40
0.4374956022
 40
0.4999998454
 40
0.5625041368
 40
0.6250083644
 40
0.6875124092
 40
0.7500161102
 40
0.7812682617
 40
0.8125203373
 40
0.8437722801
 40
0.8750239418
 40
0.9062749089
 40
0.9219008122
 40
0.9375264852
 40
0.953151528
 40
0.9687743076
 40
0.9765865676
 40
0.984396901
 40
0.9883037431
 40
0.9922097998
 40
0.9961138171
 40
1.0
 40
1.0
 40
1.0
 40
1.0
 10
32.7022606167
 20
82.4772142857
 30
0.0
 10
32.7022606167
 20
82.4803670131
 30
0.0
 10
32.7003000357
 20
82.4867139758
 30
0.0
 10
32.6941570258
 20
82.4940732448
 30
0.0
 10
32.6867742529
 20
82.500110191
 30
0.0
 10
32.6760570753
 20
82.5069118313
 30
0.0
 10
32.6617701883
 20
82.5138505514
 30
0.0
 10
32.6381325215
 20
82.5230367866
 30
0.0
 10
32.6077516216
 20
82.5321839043
 30
0.0
 10
32.5707812114
 20
82.5411156963
 30
0.0
 10
32.5335006014
 20
82.5486630687
 30
0.0
 10
32.483546152
 20
82.5573848168
 30
0.0
 10
32.4207876621
 20
82.5663606737
 30
0.0
 10
32.3452229986
 20
82.5750759831
 30
0.0
 10
32.269497502
 20
82.5822558952
 30
0.0
 10
32.1936688371
 20
82.5882319069
 30
0.0
 10
32.0924700636
 20
82.5948811097
 30
0.0
 10
31.9658465242
 20
82.6011199731
 30
0.0
 10
31.8137995623
 20
82.6060669657
 30
0.0
 10
31.661698695
 20
82.6088895225
 30
0.0
 10
31.509574904
 20
82.6098081293
 30
0.0
 10
31.3574510595
 20
82.6088895695
 30
0.0
 10
31.205350065
 20
82.6060670137
 30
0.0
 10
31.0533029938
 20
82.6011199144
 30
0.0
 10
30.9266793789
 20
82.594881177
 30
0.0
 10
30.8254805659
 20
82.5882319267
 30
0.0
 10
30.7496518799
 20
82.582255921
 30
0.0
 10
30.6739263688
 20
82.5750759995
 30
0.0
 10
30.5983616949
 20
82.5663607003
 30
0.0
 10
30.5356031997
 20
82.5573848495
 30
0.0
 10
30.4856487484
 20
82.5486631068
 30
0.0
 10
30.4483681366
 20
82.5411157402
 30
0.0
 10
30.4113977261
 20
82.5321839496
 30
0.0
 10
30.3810168143
 20
82.5230368657
 30
0.0
 10
30.3573791494
 20
82.5138506201
 30
0.0
 10
30.3430922421
 20
82.5069119301
 30
0.0
 10
30.3323750468
 20
82.5001103011
 30
0.0
 10
30.3249921914
 20
82.4940733558
 30
0.0
 10
30.3188491088
 20
82.4867140476
 30
0.0
 10
30.3168885283
 20
82.4803670174
 30
0.0
 10
30.3168885283
 20
82.4772142857
 30
0.0
  0
ELLIPSE
  5
2C3
100
AcDbEntity
  8
0
100
AcDbEllipse
 62
7
  6
BYLAYER
 10
31.918455108
 20
51.18583627
 30
0.0
 11
-10.0427045149
 21
14.9543464083
 31
0.0
 40
0.9066977799
 41
-1.8464703263
 42
-1.8167011824
  0
ELLIPSE
  5
2C4
100
AcDbEntity
  8
0
100
AcDbEllipse
 62
7
  6
BYLAYER
 10
32.3242238157
 20
51.18583627
 30
0.0
 11
-11.8601695234
 21
14.4741311195
 31
0.0
 40
0.8306103506
 41
-1.8971234584
 42
-1.8673543145
  0
ELLIPSE
  5
2C5
100
AcDbEntity
  8
0
100
AcDbEllipse
 62
7
  6
BYLAYER
 10
32.7237925507
 20
51.18583627
 30
0.0
 11
-12.8060309747
 21
14.5700382847
 31
0.0
 40
0.7581403628
 41
-1.8873170525
 42
-1.8575479087
  0
ELLIPSE
  5
2C6
100
AcDbEntity
  8
0
100
AcDbEllipse
 62
7
  6
BYLAYER
 10
33.1141203538
 20
51.18583627
 30
0.0
 11
-13.5094930283
 21
14.8194770471
 31
0.0
 40
0.6901509118
 41
-1.8611064818
 42
-1.8313373379
  0
ELLIPSE
  5
2C7
100
AcDbEntity
  8
0
100
AcDbEllipse
 62
7
  6
BYLAYER
 10
33.4922365947
 20
51.18583627
 30
0.0
 11
-14.1001405585
 21
15.1182070608
 31
0.0
 40
0.6263036642
 41
-1.8281998094
 42
-1.7984306655
  0
ELLIPSE
  5
2C8
100
AcDbEntity
  8
0
100
AcDbEllipse
 62
7
  6
BYLAYER
 10
33.8552635803
 20
51.18583627
 30
0.0
 11
-14.6201143459
 21
15.4285527016
 31
0.0
 40
0.5661264515
 41
-1.7919226086
 42
-1.7621534647
  0
ELLIPSE
  5
2C9
100
AcDbEntity
  8
0
100
AcDbEllipse
 62
7
  6
BYLAYER
 10
34.2004384563
 20
51.18583627
 30
0.0
 11
-15.0865489373
 21
15.7334287619
 31
0.0
 40
0.5091621171
 41
-1.7537182443
 42
-1.7239491005
  0
ELLIPSE
  5
2CA
100
AcDbEntity
  8
0
100
AcDbEllipse
 62
7
  6
BYLAYER
 10
34.5251342333
 20
51.18583627
 30
0.0
 11
-15.507275323
 21
16.023819938
 31
0.0
 40
0.4549951859
 41
-1.7143141628
 42
-1.6845450189
  0
ELLIPSE
  5
2CB
100
AcDbEntity
  8
0
100
AcDbEllipse
 62
7
  6
BYLAYER
 10
34.8268797805
 20
51.18583627
 30
0.0
 11
-15.8860502942
 21
16.2944188981
 31
0.0
 40
0.4032531911
 41
-1.674117191
 42
-1.6443480471
  0
ELLIPSE
  5
2CC
100
AcDbEntity
  8
0
100
AcDbEllipse
 62
7
  6
BYLAYER
 10
35.103378632
 20
51.18583627
 30
0.0
 11
-16.2246471729
 21
16.5418339295
 31
0.0
 40
0.3536019736
 41
-1.6333731597
 42
-1.6036040158
  0
ELLIPSE
  5
2CD
100
AcDbEntity
  8
0
100
AcDbEllipse
 62
7
  6
BYLAYER
 10
35.3525264646
 20
51.18583627
 30
0.0
 11
-16.523808647
 21
16.7637596114
 31
0.0
 40
0.3057398728
 41
-1.5922399181
 42
-1.5624707743
  0
ELLIPSE
  5
2CE
100
AcDbEntity
  8
0
100
AcDbEllipse
 62
7
  6
BYLAYER
 10
35.5724271129
 20
51.18583627
 30
0.0
 11
-16.7837266909
 21
16.9585571531
 31
0.0
 40
0.2593921815
 41
-1.5508240306
 42
-1.5210548867
  0
ELLIPSE
  5
2CF
100
AcDbEntity
  8
0
100
AcDbEllipse
 62
7
  6
BYLAYER
 10
35.7614070001
 20
51.18583627
 30
0.0
 11
-17.0043043001
 21
17.1250267564
 31
0.0
 40
0.2143062114
 41
-1.5092006484
 42
-1.4794315045
  0
ELLIPSE
  5
2D0
100
AcDbEntity
  8
0
100
AcDbEllipse
 62
7
  6
BYLAYER
 10
35.9180278752
 20
51.18583627
 30
0.0
 11
-17.185307668
 21
17.2622772411
 31
0.0
 40
0.1702469903
 41
-1.4674249603
 42
-1.4376558164
  0
ELLIPSE
  5
2D1
100
AcDbEntity
  8
0
100
AcDbEllipse
 62
7
  6
BYLAYER
 10
36.0410977588
 20
51.18583627
 30
0.0
 11
-17.326459176
 21
17.3696482286
 31
0.0
 40
0.1269935126
 41
-1.425539161
 42
-1.3957700171
  0
ELLIPSE
  5
2D2
100
AcDbEntity
  8
0
100
AcDbEllipse
 62
7
  6
BYLAYER
 10
36.1296800147
 20
51.18583627
 30
0.0
 11
-17.4274961419
 21
17.4466624083
 31
0.0
 40
0.0843354388
 41
-1.3835769222
 42
-1.3538077783
  0
ELLIPSE
  5
2D3
100
AcDbEntity
  8
0
100
AcDbEllipse
 62
7
  6
BYLAYER
 10
36.1831004785
 20
51.18583627
 30
0.0
 11
-17.4882083164
 21
17.4929960222
 31
0.0
 40
0.0420701413
 41
-1.3415664268
 42
-1.3117972829
  0
ELLIPSE
  5
2D4
100
AcDbEntity
  8
0
100
AcDbEllipse
 62
7
  6
BYLAYER
 10
24.9193729873
 20
62.4925893703
 30
0.0
 11
-18.1514209571
 21
18.1605909673
 31
0.0
 40
0.0406765142
 41
-4.4098665175
 42
-4.381738787
  0
ELLIPSE
  5
2D5
100
AcDbEntity
  8
0
100
AcDbEllipse
 62
7
  6
BYLAYER
 10
32.6583224005
 20
62.4925893703
 30
0.0
 11
10.9958379272
 21
15.791979517
 31
0.0
 40
0.818317629
 41
-1.3965536952
 42
-1.3960435217
  0
ELLIPSE
  5
2D6
100
AcDbEntity
  8
0
100
AcDbEllipse
 62
7
  6
BYLAYER
 10
33.2217596349
 20
62.4925893703
 30
0.0
 11
12.3580633753
 21
15.6563003942
 31
0.0
 40
0.7470541823
 41
4.8970060586
 42
4.9020265797
  0
ELLIPSE
  5
2D7
100
AcDbEntity
  8
0
100
AcDbEllipse
 62
7
  6
BYLAYER
 10
33.7721661071
 20
62.4925893703
 30
0.0
 11
13.3023954138
 21
15.7703479229
 31
0.0
 40
0.6792721423
 41
4.881095312
 42
4.8895407588
  0
ELLIPSE
  5
2D8
100
AcDbEntity
  8
0
100
AcDbEllipse
 62
7
  6
BYLAYER
 10
34.3053528915
 20
62.4925893703
 30
0.0
 11
14.0585338956
 21
15.9844133441
 31
0.0
 40
0.6154007239
 41
-1.4290229293
 42
-1.4178485365
  0
ELLIPSE
  5
2D9
100
AcDbEntity
  8
0
100
AcDbEllipse
 62
7
  6
BYLAYER
 10
34.8172621148
 20
62.4925893703
 30
0.0
 11
14.7051040421
 21
16.2385436118
 31
0.0
 40
0.5552272381
 41
-1.4615012695
 42
-1.4480705033
  0
ELLIPSE
  5
2DA
100
AcDbEntity
  8
0
100
AcDbEllipse
 62
7
  6
BYLAYER
 10
35.3039978386
 20
62.4925893703
 30
0.0
 11
15.274965845
 21
16.5043969512
 31
0.0
 40
0.4983942514
 41
-1.4971206964
 42
-1.4817673503
  0
ELLIPSE
  5
2DB
100
AcDbEntity
  8
0
100
AcDbEllipse
 62
7
  6
BYLAYER
 10
35.7618557103
 20
62.4925893703
 30
0.0
 11
15.7835371161
 21
16.766803626
 31
0.0
 40
0.4445239339
 41
-1.5346729672
 42
-1.5176380826
  0
ELLIPSE
  5
2DC
100
AcDbEntity
  8
0
100
AcDbEllipse
 62
7
  6
BYLAYER
 10
36.1873511549
 20
62.4925893703
 30
0.0
 11
16.2384907108
 21
17.0168501026
 31
0.0
 40
0.3932536107
 41
-1.5734880867
 42
-1.5549485398
  0
ELLIPSE
  5
2DD
100
AcDbEntity
  8
0
100
AcDbEllipse
 62
7
  6
BYLAYER
 10
36.5772458952
 20
62.4925893703
 30
0.0
 11
16.6436838349
 21
17.2489119491
 31
0.0
 40
0.3442450777
 41
-1.6131670271
 42
-1.5932525833
  0
ELLIPSE
  5
2DE
100
AcDbEntity
  8
0
100
AcDbEllipse
 62
7
  6
BYLAYER
 10
36.9285725968
 20
62.4925893703
 30
0.0
 11
17.0009614673
 21
17.4592414022
 31
0.0
 40
0.2971852239
 41
-1.6534575031
 42
-1.6322627734
  0
ELLIPSE
  5
2DF
100
AcDbEntity
  8
0
100
AcDbEllipse
 62
7
  6
BYLAYER
 10
37.2386574513
 20
62.4925893703
 30
0.0
 11
17.311068251
 21
17.6452378715
 31
0.0
 40
0.2517837063
 41
-1.6940323896
 42
-1.6717847557
  0
ELLIPSE
  5
2E0
100
AcDbEntity
  8
0
100
AcDbEllipse
 62
7
  6
BYLAYER
 10
37.5051405258
 20
62.4925893703
 30
0.0
 11
17.5741469284
 21
17.8050458869
 31
0.0
 40
0.2077697388
 41
-1.735034466
 42
-1.7116814851
  0
ELLIPSE
  5
2E1
100
AcDbEntity
  8
0
100
AcDbEllipse
 62
7
  6
BYLAYER
 10
37.7259937232
 20
62.4925893703
 30
0.0
 11
17.7900285404
 21
17.9373217495
 31
0.0
 40
0.1648887629
 41
-1.7763537932
 42
-1.7518524984
  0
ELLIPSE
  5
2E2
100
AcDbEntity
  8
0
100
AcDbEllipse
 62
7
  6
BYLAYER
 10
37.8995362173
 20
62.4925893703
 30
0.0
 11
17.9584099181
 21
18.0410926156
 31
0.0
 40
0.1228992729
 41
-1.8179059513
 42
-1.7922212391
  0
ELLIPSE
  5
2E3
100
AcDbEntity
  8
0
100
AcDbEllipse
 62
7
  6
BYLAYER
 10
38.0244472449
 20
62.4925893703
 30
0.0
 11
18.0789658936
 21
18.1156691418
 31
0.0
 40
0.0815698667
 41
-1.8596229162
 42
-1.8327268879
  0
ELLIPSE
  5
2E4
100
AcDbEntity
  8
0
100
AcDbEllipse
 62
7
  6
BYLAYER
 10
38.0997761576
 20
62.4925893703
 30
0.0
 11
18.1514209571
 21
18.1605909673
 31
0.0
 40
0.0406765142
 41
-1.9014465147
 42
-1.8733187897
  0
ELLIPSE
  5
2E5
100
AcDbEntity
  8
0
100
AcDbEllipse
 62
7
  6
BYLAYER
 10
24.9947019001
 20
62.4925893703
 30
0.0
 11
-18.0789658936
 21
18.1156691418
 31
0.0
 40
0.0815698667
 41
-4.4504584193
 42
-4.4235623805
  0
ELLIPSE
  5
2E6
100
AcDbEntity
  8
0
100
AcDbEllipse
 62
7
  6
BYLAYER
 10
25.1196129277
 20
62.4925893703
 30
0.0
 11
-17.9584099181
 21
18.0410926156
 31
0.0
 40
0.1228992729
 41
-4.490964068
 42
-4.4652793409
  0
ELLIPSE
  5
2E7
100
AcDbEntity
  8
0
100
AcDbEllipse
 62
7
  6
BYLAYER
 10
25.2931554218
 20
62.4925893703
 30
0.0
 11
-17.7900285404
 21
17.9373217495
 31
0.0
 40
0.1648887629
 41
-4.5313328088
 42
-4.5068314949
  0
ELLIPSE
  5
2E8
100
AcDbEntity
  8
0
100
AcDbEllipse
 62
7
  6
BYLAYER
 10
25.5140086191
 20
62.4925893703
 30
0.0
 11
-17.5741469284
 21
17.8050458869
 31
0.0
 40
0.2077697388
 41
-4.5715038221
 42
-4.5481508182
  0
ELLIPSE
  5
2E9
100
AcDbEntity
  8
0
100
AcDbEllipse
 62
7
  6
BYLAYER
 10
25.7804916937
 20
62.4925893703
 30
0.0
 11
-17.311068251
 21
17.6452378715
 31
0.0
 40
0.2517837063
 41
-4.6114005514
 42
-4.5891528902
  0
ELLIPSE
  5
2EA
100
AcDbEntity
  8
0
100
AcDbEllipse
 62
7
  6
BYLAYER
 10
26.0905765482
 20
62.4925893703
 30
0.0
 11
-17.0009614673
 21
17.4592414022
 31
0.0
 40
0.2971852239
 41
-4.6509225338
 42
-4.6297277711
  0
ELLIPSE
  5
2EB
100
AcDbEntity
  8
0
100
AcDbEllipse
 62
7
  6
BYLAYER
 10
31.5095745725
 20
51.18583627
 30
0.0
 11
0.0
 21
17.5084611122
 31
0.0
 40
0.963433044
 41
7.5529487364
 42
7.5827178802
  0
ELLIPSE
  5
2EC
100
AcDbEntity
  8
0
100
AcDbEllipse
 62
7
  6
BYLAYER
 10
31.100694037
 20
51.18583627
 30
0.0
 11
10.0427045149
 21
14.9543464083
 31
0.0
 40
0.9066977799
 41
-4.4664841248
 42
-4.4367149809
  0
ELLIPSE
  5
2ED
100
AcDbEntity
  8
0
100
AcDbEllipse
 62
7
  6
BYLAYER
 10
30.6949253293
 20
51.18583627
 30
0.0
 11
11.8601695234
 21
14.4741311195
 31
0.0
 40
0.8306103506
 41
-4.4158309927
 42
-4.3860618488
  0
ELLIPSE
  5
2EE
100
AcDbEntity
  8
0
100
AcDbEllipse
 62
7
  6
BYLAYER
 10
30.2953565942
 20
51.18583627
 30
0.0
 11
12.8060309747
 21
14.5700382847
 31
0.0
 40
0.7581403628
 41
-4.4256373985
 42
-4.3958682546
  0
ELLIPSE
  5
2EF
100
AcDbEntity
  8
0
100
AcDbEllipse
 62
7
  6
BYLAYER
 10
29.9050287912
 20
51.18583627
 30
0.0
 11
13.5094930283
 21
14.8194770471
 31
0.0
 40
0.6901509118
 41
-4.4518479693
 42
-4.4220788254
  0
ELLIPSE
  5
2F0
100
AcDbEntity
  8
0
100
AcDbEllipse
 62
7
  6
BYLAYER
 10
29.5269125503
 20
51.18583627
 30
0.0
 11
14.1001405585
 21
15.1182070608
 31
0.0
 40
0.6263036642
 41
-4.4847546417
 42
-4.4549854978
  0
ELLIPSE
  5
2F1
100
AcDbEntity
  8
0
100
AcDbEllipse
 62
7
  6
BYLAYER
 10
29.1638855646
 20
51.18583627
 30
0.0
 11
14.6201143459
 21
15.4285527016
 31
0.0
 40
0.5661264515
 41
-4.5210318424
 42
-4.4912626986
  0
ELLIPSE
  5
2F2
100
AcDbEntity
  8
0
100
AcDbEllipse
 62
7
  6
BYLAYER
 10
28.8187106886
 20
51.18583627
 30
0.0
 11
15.0865489373
 21
15.7334287619
 31
0.0
 40
0.5091621171
 41
-4.5592362067
 42
-4.5294670628
  0
ELLIPSE
  5
2F3
100
AcDbEntity
  8
0
100
AcDbEllipse
 62
7
  6
BYLAYER
 10
28.4940149116
 20
51.18583627
 30
0.0
 11
15.507275323
 21
16.023819938
 31
0.0
 40
0.4549951859
 41
-4.5986402883
 42
-4.5688711444
  0
ELLIPSE
  5
2F4
100
AcDbEntity
  8
0
100
AcDbEllipse
 62
7
  6
BYLAYER
 10
28.1922693645
 20
51.18583627
 30
0.0
 11
15.8860502942
 21
16.2944188981
 31
0.0
 40
0.4032531911
 41
-4.6388372601
 42
-4.6090681162
  0
ELLIPSE
  5
2F5
100
AcDbEntity
  8
0
100
AcDbEllipse
 62
7
  6
BYLAYER
 10
27.915770513
 20
51.18583627
 30
0.0
 11
16.2246471729
 21
16.5418339295
 31
0.0
 40
0.3536019736
 41
-4.6795812914
 42
-4.6498121475
  0
ELLIPSE
  5
2F6
100
AcDbEntity
  8
0
100
AcDbEllipse
 62
7
  6
BYLAYER
 10
27.6666226804
 20
51.18583627
 30
0.0
 11
16.523808647
 21
16.7637596114
 31
0.0
 40
0.3057398728
 41
1.5624707743
 42
1.5922399181
  0
ELLIPSE
  5
2F7
100
AcDbEntity
  8
0
100
AcDbEllipse
 62
7
  6
BYLAYER
 10
27.4467220321
 20
51.18583627
 30
0.0
 11
16.7837266909
 21
16.9585571531
 31
0.0
 40
0.2593921815
 41
1.5210548867
 42
1.5508240306
  0
ELLIPSE
  5
2F8
100
AcDbEntity
  8
0
100
AcDbEllipse
 62
7
  6
BYLAYER
 10
27.2577421449
 20
51.18583627
 30
0.0
 11
17.0043043001
 21
17.1250267564
 31
0.0
 40
0.2143062114
 41
1.4794315045
 42
1.5092006484
  0
ELLIPSE
  5
2F9
100
AcDbEntity
  8
0
100
AcDbEllipse
 62
7
  6
BYLAYER
 10
27.1011212698
 20
51.18583627
 30
0.0
 11
17.185307668
 21
17.2622772411
 31
0.0
 40
0.1702469903
 41
1.4376558164
 42
1.4674249603
  0
ELLIPSE
  5
2FA
100
AcDbEntity
  8
0
100
AcDbEllipse
 62
7
  6
BYLAYER
 10
26.9780513862
 20
51.18583627
 30
0.0
 11
17.326459176
 21
17.3696482286
 31
0.0
 40
0.1269935126
 41
1.3957700171
 42
1.425539161
  0
ELLIPSE
  5
2FB
100
AcDbEntity
  8
0
100
AcDbEllipse
 62
7
  6
BYLAYER
 10
26.8894691303
 20
51.18583627
 30
0.0
 11
17.4274961419
 21
17.4466624083
 31
0.0
 40
0.0843354388
 41
1.3538077783
 42
1.3835769222
  0
ELLIPSE
  5
2FC
100
AcDbEntity
  8
0
100
AcDbEllipse
 62
7
  6
BYLAYER
 10
26.8360486665
 20
51.18583627
 30
0.0
 11
17.4882083164
 21
17.4929960222
 31
0.0
 40
0.0420701413
 41
1.3117972829
 42
1.3415664268
  0
ELLIPSE
  5
2FD
100
AcDbEntity
  8
0
100
AcDbEllipse
 62
7
  6
BYLAYER
 10
26.4419032498
 20
62.4925893703
 30
0.0
 11
-16.6436838349
 21
17.2489119491
 31
0.0
 40
0.3442450777
 41
-4.6899327238
 42
-4.670018258
  0
ELLIPSE
  5
2FE
100
AcDbEntity
  8
0
100
AcDbEllipse
 62
7
  6
BYLAYER
 10
26.8317979901
 20
62.4925893703
 30
0.0
 11
-16.2384907108
 21
17.0168501026
 31
0.0
 40
0.3932536107
 41
1.5549485398
 42
1.5734880833
  0
ELLIPSE
  5
2FF
100
AcDbEntity
  8
0
100
AcDbEllipse
 62
7
  6
BYLAYER
 10
27.2572934347
 20
62.4925893703
 30
0.0
 11
-15.7835371161
 21
16.766803626
 31
0.0
 40
0.4445239339
 41
1.5176380826
 42
1.5346729655
  0
ELLIPSE
  5
300
100
AcDbEntity
  8
0
100
AcDbEllipse
 62
7
  6
BYLAYER
 10
27.7151513063
 20
62.4925893703
 30
0.0
 11
-15.274965845
 21
16.5043969512
 31
0.0
 40
0.4983942514
 41
1.4817673503
 42
1.4971206958
  0
ELLIPSE
  5
301
100
AcDbEntity
  8
0
100
AcDbEllipse
 62
7
  6
BYLAYER
 10
31.5095745725
 20
51.18583627
 30
0.0
 11
-0.0
 21
17.5084611122
 31
0.0
 40
0.963433044
 41
-1.2995325731
 42
-1.2697634292
  0
ELLIPSE
  5
302
100
AcDbEntity
  8
0
100
AcDbEllipse
 62
7
  6
BYLAYER
 10
28.2018870302
 20
62.4925893703
 30
0.0
 11
-14.7051040421
 21
16.2385436118
 31
0.0
 40
0.5552272381
 41
1.4480705033
 42
1.4615012691
  0
ELLIPSE
  5
303
100
AcDbEntity
  8
0
100
AcDbEllipse
 62
7
  6
BYLAYER
 10
28.7137962535
 20
62.4925893703
 30
0.0
 11
-14.0585338956
 21
15.9844133441
 31
0.0
 40
0.6154007239
 41
1.4178485365
 42
1.4290229277
  0
ELLIPSE
  5
304
100
AcDbEntity
  8
0
100
AcDbEllipse
 62
7
  6
BYLAYER
 10
29.2469830379
 20
62.4925893703
 30
0.0
 11
-13.3023954138
 21
15.7703479229
 31
0.0
 40
0.6792721423
 41
1.3936445484
 42
1.4020899947
  0
ELLIPSE
  5
305
100
AcDbEntity
  8
0
100
AcDbEllipse
 62
7
  6
BYLAYER
 10
29.7973895101
 20
62.4925893703
 30
0.0
 11
-12.3580633753
 21
15.6563003942
 31
0.0
 40
0.7470541823
 41
1.3811587275
 42
1.3861792519
  0
ELLIPSE
  5
306
100
AcDbEntity
  8
0
100
AcDbEllipse
 62
7
  6
BYLAYER
 10
30.3608267445
 20
62.4925893703
 30
0.0
 11
-10.9958379272
 21
15.791979517
 31
0.0
 40
0.818317629
 41
1.3960435217
 42
1.3965536961
  0
ELLIPSE
  5
307
100
AcDbEntity
  8
0
100
AcDbEllipse
 62
7
  6
BYLAYER
 10
32.7237925507
 20
51.18583627
 30
0.0
 11
-12.8060309747
 21
14.5700382847
 31
0.0
 40
0.7581403628
 41
0.6819789497
 42
0.7117480936
  0
ELLIPSE
  5
308
100
AcDbEntity
  8
0
100
AcDbEllipse
 62
7
  6
BYLAYER
 10
26.8360486665
 20
51.18583627
 30
0.0
 11
17.4882083164
 21
17.4929960222
 31
0.0
 40
0.0420701413
 41
-1.2574987193
 42
-1.2277295755
  0
ELLIPSE
  5
309
100
AcDbEntity
  8
0
100
AcDbEllipse
 62
7
  6
BYLAYER
 10
26.8894691303
 20
51.18583627
 30
0.0
 11
17.4274961419
 21
17.4466624083
 31
0.0
 40
0.0843354388
 41
-1.2154882239
 42
-1.18571908
  0
ELLIPSE
  5
30A
100
AcDbEntity
  8
0
100
AcDbEllipse
 62
7
  6
BYLAYER
 10
26.9780513862
 20
51.18583627
 30
0.0
 11
17.326459176
 21
17.3696482286
 31
0.0
 40
0.1269935126
 41
-1.1735259851
 42
-1.1437568412
  0
ELLIPSE
  5
30B
100
AcDbEntity
  8
0
100
AcDbEllipse
 62
7
  6
BYLAYER
 10
27.1011212698
 20
51.18583627
 30
0.0
 11
17.185307668
 21
17.2622772411
 31
0.0
 40
0.1702469903
 41
-1.1316401859
 42
-1.101871042
  0
ELLIPSE
  5
30C
100
AcDbEntity
  8
0
100
AcDbEllipse
 62
7
  6
BYLAYER
 10
27.2577421449
 20
51.18583627
 30
0.0
 11
17.0043043001
 21
17.1250267564
 31
0.0
 40
0.2143062114
 41
-1.0898644977
 42
-1.0600953539
  0
ELLIPSE
  5
30D
100
AcDbEntity
  8
0
100
AcDbEllipse
 62
7
  6
BYLAYER
 10
27.4467220321
 20
51.18583627
 30
0.0
 11
16.7837266909
 21
16.9585571531
 31
0.0
 40
0.2593921815
 41
-1.0482411156
 42
-1.0184719717
  0
ELLIPSE
  5
30E
100
AcDbEntity
  8
0
100
AcDbEllipse
 62
7
  6
BYLAYER
 10
32.3242238157
 20
51.18583627
 30
0.0
 11
-11.8601695234
 21
14.4741311195
 31
0.0
 40
0.8306103506
 41
0.6721725439
 42
0.7019416878
  0
ELLIPSE
  5
30F
100
AcDbEntity
  8
0
100
AcDbEllipse
 62
7
  6
BYLAYER
 10
27.6666226804
 20
51.18583627
 30
0.0
 11
16.523808647
 21
16.7637596114
 31
0.0
 40
0.3057398728
 41
-1.006825228
 42
-0.9770560841
  0
ELLIPSE
  5
310
100
AcDbEntity
  8
0
100
AcDbEllipse
 62
7
  6
BYLAYER
 10
27.915770513
 20
51.18583627
 30
0.0
 11
16.2246471729
 21
16.5418339295
 31
0.0
 40
0.3536019736
 41
-0.9656919865
 42
-0.9359228426
  0
ELLIPSE
  5
311
100
AcDbEntity
  8
0
100
AcDbEllipse
 62
7
  6
BYLAYER
 10
28.1922693645
 20
51.18583627
 30
0.0
 11
15.8860502942
 21
16.2944188981
 31
0.0
 40
0.4032531911
 41
-0.9249479552
 42
-0.8951788113
  0
ELLIPSE
  5
312
100
AcDbEntity
  8
0
100
AcDbEllipse
 62
7
  6
BYLAYER
 10
28.4940149116
 20
51.18583627
 30
0.0
 11
15.507275323
 21
16.023819938
 31
0.0
 40
0.4549951859
 41
-0.8847509834
 42
-0.8549818395
  0
ELLIPSE
  5
313
100
AcDbEntity
  8
0
100
AcDbEllipse
 62
7
  6
BYLAYER
 10
28.8187106886
 20
51.18583627
 30
0.0
 11
15.0865489373
 21
15.7334287619
 31
0.0
 40
0.5091621171
 41
-0.8453469018
 42
-0.8155777579
  0
ELLIPSE
  5
314
100
AcDbEntity
  8
0
100
AcDbEllipse
 62
7
  6
BYLAYER
 10
29.1638855646
 20
51.18583627
 30
0.0
 11
14.6201143459
 21
15.4285527016
 31
0.0
 40
0.5661264515
 41
-0.8071425375
 42
-0.7773733936
  0
ELLIPSE
  5
315
100
AcDbEntity
  8
0
100
AcDbEllipse
 62
7
  6
BYLAYER
 10
31.918455108
 20
51.18583627
 30
0.0
 11
-10.0427045149
 21
14.9543464083
 31
0.0
 40
0.9066977799
 41
0.722825676
 42
0.7525948199
  0
ELLIPSE
  5
316
100
AcDbEntity
  8
0
100
AcDbEllipse
 62
7
  6
BYLAYER
 10
29.5269125503
 20
51.18583627
 30
0.0
 11
14.1001405585
 21
15.1182070608
 31
0.0
 40
0.6263036642
 41
-0.7708653368
 42
-0.7410961929
  0
ELLIPSE
  5
317
100
AcDbEntity
  8
0
100
AcDbEllipse
 62
7
  6
BYLAYER
 10
29.9050287912
 20
51.18583627
 30
0.0
 11
13.5094930283
 21
14.8194770471
 31
0.0
 40
0.6901509118
 41
-0.7379586644
 42
-0.7081895205
  0
ELLIPSE
  5
318
100
AcDbEntity
  8
0
100
AcDbEllipse
 62
7
  6
BYLAYER
 10
30.2953565942
 20
51.18583627
 30
0.0
 11
12.8060309747
 21
14.5700382847
 31
0.0
 40
0.7581403628
 41
-0.7117480936
 42
-0.6819789497
  0
ELLIPSE
  5
319
100
AcDbEntity
  8
0
100
AcDbEllipse
 62
7
  6
BYLAYER
 10
30.6949253293
 20
51.18583627
 30
0.0
 11
11.8601695234
 21
14.4741311195
 31
0.0
 40
0.8306103506
 41
-0.7019416878
 42
-0.6721725439
  0
ELLIPSE
  5
31A
100
AcDbEntity
  8
0
100
AcDbEllipse
 62
7
  6
BYLAYER
 10
31.100694037
 20
51.18583627
 30
0.0
 11
10.0427045149
 21
14.9543464083
 31
0.0
 40
0.9066977799
 41
-0.7525948199
 42
-0.722825676
  0
ELLIPSE
  5
31B
100
AcDbEntity
  8
0
100
AcDbEllipse
 62
7
  6
BYLAYER
 10
35.103378632
 20
51.18583627
 30
0.0
 11
-16.2246471729
 21
16.5418339295
 31
0.0
 40
0.3536019736
 41
0.9359228426
 42
0.9656919865
  0
ELLIPSE
  5
31C
100
AcDbEntity
  8
0
100
AcDbEllipse
 62
7
  6
BYLAYER
 10
34.8268797805
 20
51.18583627
 30
0.0
 11
-15.8860502942
 21
16.2944188981
 31
0.0
 40
0.4032531911
 41
0.8951788113
 42
0.9249479552
  0
ELLIPSE
  5
31D
100
AcDbEntity
  8
0
100
AcDbEllipse
 62
7
  6
BYLAYER
 10
36.1296800147
 20
51.18583627
 30
0.0
 11
-17.4274961419
 21
17.4466624083
 31
0.0
 40
0.0843354388
 41
1.18571908
 42
1.2154882239
  0
ELLIPSE
  5
31E
100
AcDbEntity
  8
0
100
AcDbEllipse
 62
7
  6
BYLAYER
 10
34.5251342333
 20
51.18583627
 30
0.0
 11
-15.507275323
 21
16.023819938
 31
0.0
 40
0.4549951859
 41
0.8549818395
 42
0.8847509834
  0
ELLIPSE
  5
31F
100
AcDbEntity
  8
0
100
AcDbEllipse
 62
7
  6
BYLAYER
 10
36.0410977588
 20
51.18583627
 30
0.0
 11
-17.326459176
 21
17.3696482286
 31
0.0
 40
0.1269935126
 41
1.1437568412
 42
1.1735259851
  0
ELLIPSE
  5
320
100
AcDbEntity
  8
0
100
AcDbEllipse
 62
7
  6
BYLAYER
 10
34.2004384563
 20
51.18583627
 30
0.0
 11
-15.0865489373
 21
15.7334287619
 31
0.0
 40
0.5091621171
 41
0.8155777579
 42
0.8453469018
  0
ELLIPSE
  5
321
100
AcDbEntity
  8
0
100
AcDbEllipse
 62
7
  6
BYLAYER
 10
35.9180278752
 20
51.18583627
 30
0.0
 11
-17.185307668
 21
17.2622772411
 31
0.0
 40
0.1702469903
 41
1.101871042
 42
1.1316401859
  0
ELLIPSE
  5
322
100
AcDbEntity
  8
0
100
AcDbEllipse
 62
7
  6
BYLAYER
 10
35.7614070001
 20
51.18583627
 30
0.0
 11
-17.0043043001
 21
17.1250267564
 31
0.0
 40
0.2143062114
 41
1.0600953539
 42
1.0898644977
  0
ELLIPSE
  5
323
100
AcDbEntity
  8
0
100
AcDbEllipse
 62
7
  6
BYLAYER
 10
35.5724271129
 20
51.18583627
 30
0.0
 11
-16.7837266909
 21
16.9585571531
 31
0.0
 40
0.2593921815
 41
1.0184719717
 42
1.0482411156
  0
ELLIPSE
  5
324
100
AcDbEntity
  8
0
100
AcDbEllipse
 62
7
  6
BYLAYER
 10
35.3525264646
 20
51.18583627
 30
0.0
 11
-16.523808647
 21
16.7637596114
 31
0.0
 40
0.3057398728
 41
0.9770560841
 42
1.006825228
  0
ELLIPSE
  5
325
100
AcDbEntity
  8
0
100
AcDbEllipse
 62
7
  6
BYLAYER
 10
33.8552635803
 20
51.18583627
 30
0.0
 11
-14.6201143459
 21
15.4285527016
 31
0.0
 40
0.5661264515
 41
0.7773733936
 42
0.8071425375
  0
ELLIPSE
  5
326
100
AcDbEntity
  8
0
100
AcDbEllipse
 62
7
  6
BYLAYER
 10
36.1831004785
 20
51.18583627
 30
0.0
 11
-17.4882083164
 21
17.4929960222
 31
0.0
 40
0.0420701413
 41
1.2277295755
 42
1.2574987193
  0
ELLIPSE
  5
327
100
AcDbEntity
  8
0
100
AcDbEllipse
 62
7
  6
BYLAYER
 10
33.4922365947
 20
51.18583627
 30
0.0
 11
-14.1001405585
 21
15.1182070608
 31
0.0
 40
0.6263036642
 41
0.7410961929
 42
0.7708653368
  0
ELLIPSE
  5
328
100
AcDbEntity
  8
0
100
AcDbEllipse
 62
7
  6
BYLAYER
 10
33.1141203538
 20
51.18583627
 30
0.0
 11
-13.5094930283
 21
14.8194770471
 31
0.0
 40
0.6901509118
 41
0.7081895205
 42
0.7379586644
  0
ELLIPSE
  5
329
100
AcDbEntity
  8
0
100
AcDbEllipse
 62
7
  6
BYLAYER
 10
30.3608267445
 20
54.8618392011
 30
0.0
 11
10.9958379272
 21
15.791979517
 31
0.0
 40
0.818317629
 41
-4.5381463488
 42
-4.5376361753
  0
ELLIPSE
  5
32A
100
AcDbEntity
  8
0
100
AcDbEllipse
 62
7
  6
BYLAYER
 10
29.7973895101
 20
54.8618392011
 30
0.0
 11
12.3580633753
 21
15.6563003942
 31
0.0
 40
0.7470541823
 41
1.755413405
 42
1.7604339261
  0
ELLIPSE
  5
32B
100
AcDbEntity
  8
0
100
AcDbEllipse
 62
7
  6
BYLAYER
 10
29.2469830379
 20
54.8618392011
 30
0.0
 11
13.3023954138
 21
15.7703479229
 31
0.0
 40
0.6792721423
 41
1.7395026584
 42
1.7479481052
  0
ELLIPSE
  5
32C
100
AcDbEntity
  8
0
100
AcDbEllipse
 62
7
  6
BYLAYER
 10
28.7137962535
 20
54.8618392011
 30
0.0
 11
14.0585338956
 21
15.9844133441
 31
0.0
 40
0.6154007239
 41
-4.5706155829
 42
-4.5594411901
  0
ELLIPSE
  5
32D
100
AcDbEntity
  8
0
100
AcDbEllipse
 62
7
  6
BYLAYER
 10
28.2018870302
 20
54.8618392011
 30
0.0
 11
14.7051040421
 21
16.2385436118
 31
0.0
 40
0.5552272381
 41
-4.6030939231
 42
-4.5896631569
  0
ELLIPSE
  5
32E
100
AcDbEntity
  8
0
100
AcDbEllipse
 62
7
  6
BYLAYER
 10
27.7151513063
 20
54.8618392011
 30
0.0
 11
15.274965845
 21
16.5043969512
 31
0.0
 40
0.4983942514
 41
-4.63871335
 42
-4.6233600039
  0
ELLIPSE
  5
32F
100
AcDbEntity
  8
0
100
AcDbEllipse
 62
7
  6
BYLAYER
 10
27.2572934347
 20
54.8618392011
 30
0.0
 11
15.7835371161
 21
16.766803626
 31
0.0
 40
0.4445239339
 41
-4.6762656208
 42
-4.6592307362
  0
ELLIPSE
  5
330
100
AcDbEntity
  8
0
100
AcDbEllipse
 62
7
  6
BYLAYER
 10
26.8317979901
 20
54.8618392011
 30
0.0
 11
16.2384907108
 21
17.0168501026
 31
0.0
 40
0.3932536107
 41
1.5681045669
 42
1.5866441138
  0
ELLIPSE
  5
331
100
AcDbEntity
  8
0
100
AcDbEllipse
 62
7
  6
BYLAYER
 10
26.4419032498
 20
54.8618392011
 30
0.0
 11
16.6436838349
 21
17.2489119491
 31
0.0
 40
0.3442450777
 41
1.5284256265
 42
1.5483400703
  0
ELLIPSE
  5
332
100
AcDbEntity
  8
0
100
AcDbEllipse
 62
7
  6
BYLAYER
 10
26.0905765482
 20
54.8618392011
 30
0.0
 11
17.0009614673
 21
17.4592414022
 31
0.0
 40
0.2971852239
 41
1.4881351505
 42
1.5093298802
  0
ELLIPSE
  5
333
100
AcDbEntity
  8
0
100
AcDbEllipse
 62
7
  6
BYLAYER
 10
25.7804916937
 20
54.8618392011
 30
0.0
 11
17.311068251
 21
17.6452378715
 31
0.0
 40
0.2517837063
 41
1.447560264
 42
1.4698078979
  0
ELLIPSE
  5
334
100
AcDbEntity
  8
0
100
AcDbEllipse
 62
7
  6
BYLAYER
 10
25.5140086191
 20
54.8618392011
 30
0.0
 11
17.5741469284
 21
17.8050458869
 31
0.0
 40
0.2077697388
 41
1.4065581876
 42
1.4299111685
  0
ELLIPSE
  5
335
100
AcDbEntity
  8
0
100
AcDbEllipse
 62
7
  6
BYLAYER
 10
25.2931554218
 20
54.8618392011
 30
0.0
 11
17.7900285404
 21
17.9373217495
 31
0.0
 40
0.1648887629
 41
1.3652388603
 42
1.3897401552
  0
ELLIPSE
  5
336
100
AcDbEntity
  8
0
100
AcDbEllipse
 62
7
  6
BYLAYER
 10
25.1196129277
 20
54.8618392011
 30
0.0
 11
17.9584099181
 21
18.0410926156
 31
0.0
 40
0.1228992729
 41
1.3236867023
 42
1.3493714145
  0
ELLIPSE
  5
337
100
AcDbEntity
  8
0
100
AcDbEllipse
 62
7
  6
BYLAYER
 10
24.9947019001
 20
54.8618392011
 30
0.0
 11
18.0789658936
 21
18.1156691418
 31
0.0
 40
0.0815698667
 41
1.2819697374
 42
1.3088657657
  0
ELLIPSE
  5
338
100
AcDbEntity
  8
0
100
AcDbEllipse
 62
7
  6
BYLAYER
 10
24.9193729873
 20
54.8618392011
 30
0.0
 11
18.1514209571
 21
18.1605909673
 31
0.0
 40
0.0406765142
 41
1.2401461389
 42
1.2682738639
  0
ELLIPSE
  5
339
100
AcDbEntity
  8
0
100
AcDbEllipse
 62
7
  6
BYLAYER
 10
36.1831004785
 20
66.1685923014
 30
0.0
 11
17.4882083164
 21
17.4929960222
 31
0.0
 40
0.0420701413
 41
-1.8297953707
 42
-1.8000262268
  0
ELLIPSE
  5
33A
100
AcDbEntity
  8
0
100
AcDbEllipse
 62
7
  6
BYLAYER
 10
36.1296800147
 20
66.1685923014
 30
0.0
 11
17.4274961419
 21
17.4466624083
 31
0.0
 40
0.0843354388
 41
-1.7877848753
 42
-1.7580157314
  0
ELLIPSE
  5
33B
100
AcDbEntity
  8
0
100
AcDbEllipse
 62
7
  6
BYLAYER
 10
36.0410977588
 20
66.1685923014
 30
0.0
 11
17.326459176
 21
17.3696482286
 31
0.0
 40
0.1269935126
 41
-1.7458226364
 42
-1.7160534926
  0
ELLIPSE
  5
33C
100
AcDbEntity
  8
0
100
AcDbEllipse
 62
7
  6
BYLAYER
 10
35.9180278752
 20
66.1685923014
 30
0.0
 11
17.185307668
 21
17.2622772411
 31
0.0
 40
0.1702469903
 41
-1.7039368372
 42
-1.6741676933
  0
ELLIPSE
  5
33D
100
AcDbEntity
  8
0
100
AcDbEllipse
 62
7
  6
BYLAYER
 10
35.7614070001
 20
66.1685923014
 30
0.0
 11
17.0043043001
 21
17.1250267564
 31
0.0
 40
0.2143062114
 41
-1.6621611491
 42
-1.6323920052
  0
ELLIPSE
  5
33E
100
AcDbEntity
  8
0
100
AcDbEllipse
 62
7
  6
BYLAYER
 10
35.5724271129
 20
66.1685923014
 30
0.0
 11
16.7837266909
 21
16.9585571531
 31
0.0
 40
0.2593921815
 41
-1.6205377669
 42
-1.590768623
  0
ELLIPSE
  5
33F
100
AcDbEntity
  8
0
100
AcDbEllipse
 62
7
  6
BYLAYER
 10
35.3525264646
 20
66.1685923014
 30
0.0
 11
16.523808647
 21
16.7637596114
 31
0.0
 40
0.3057398728
 41
-1.5791218793
 42
-1.5493527354
  0
ELLIPSE
  5
340
100
AcDbEntity
  8
0
100
AcDbEllipse
 62
7
  6
BYLAYER
 10
35.103378632
 20
66.1685923014
 30
0.0
 11
16.2246471729
 21
16.5418339295
 31
0.0
 40
0.3536019736
 41
-1.5379886378
 42
-1.5082194939
  0
ELLIPSE
  5
341
100
AcDbEntity
  8
0
100
AcDbEllipse
 62
7
  6
BYLAYER
 10
34.8268797805
 20
66.1685923014
 30
0.0
 11
15.8860502942
 21
16.2944188981
 31
0.0
 40
0.4032531911
 41
-1.4972446065
 42
-1.4674754626
  0
ELLIPSE
  5
342
100
AcDbEntity
  8
0
100
AcDbEllipse
 62
7
  6
BYLAYER
 10
34.5251342333
 20
66.1685923014
 30
0.0
 11
15.507275323
 21
16.023819938
 31
0.0
 40
0.4549951859
 41
-1.4570476347
 42
-1.4272784908
  0
ELLIPSE
  5
343
100
AcDbEntity
  8
0
100
AcDbEllipse
 62
7
  6
BYLAYER
 10
34.2004384563
 20
66.1685923014
 30
0.0
 11
15.0865489373
 21
15.7334287619
 31
0.0
 40
0.5091621171
 41
-1.4176435531
 42
-1.3878744092
  0
ELLIPSE
  5
344
100
AcDbEntity
  8
0
100
AcDbEllipse
 62
7
  6
BYLAYER
 10
33.8552635803
 20
66.1685923014
 30
0.0
 11
14.6201143459
 21
15.4285527016
 31
0.0
 40
0.5661264515
 41
-1.3794391888
 42
-1.349670045
  0
ELLIPSE
  5
345
100
AcDbEntity
  8
0
100
AcDbEllipse
 62
7
  6
BYLAYER
 10
33.4922365947
 20
66.1685923014
 30
0.0
 11
14.1001405585
 21
15.1182070608
 31
0.0
 40
0.6263036642
 41
-1.3431619881
 42
-1.3133928442
  0
ELLIPSE
  5
346
100
AcDbEntity
  8
0
100
AcDbEllipse
 62
7
  6
BYLAYER
 10
33.1141203538
 20
66.1685923014
 30
0.0
 11
13.5094930283
 21
14.8194770471
 31
0.0
 40
0.6901509118
 41
-1.3102553157
 42
-1.2804861718
  0
ELLIPSE
  5
347
100
AcDbEntity
  8
0
100
AcDbEllipse
 62
7
  6
BYLAYER
 10
32.7237925507
 20
66.1685923014
 30
0.0
 11
12.8060309747
 21
14.5700382847
 31
0.0
 40
0.7581403628
 41
-1.2840447449
 42
-1.2542756011
  0
ELLIPSE
  5
348
100
AcDbEntity
  8
0
100
AcDbEllipse
 62
7
  6
BYLAYER
 10
32.3242238157
 20
66.1685923014
 30
0.0
 11
11.8601695234
 21
14.4741311195
 31
0.0
 40
0.8306103506
 41
-1.2742383391
 42
-1.2444691952
  0
ELLIPSE
  5
349
100
AcDbEntity
  8
0
100
AcDbEllipse
 62
7
  6
BYLAYER
 10
31.918455108
 20
66.1685923014
 30
0.0
 11
10.0427045149
 21
14.9543464083
 31
0.0
 40
0.9066977799
 41
-1.3248914712
 42
-1.2951223273
  0
ELLIPSE
  5
34A
100
AcDbEntity
  8
0
100
AcDbEllipse
 62
7
  6
BYLAYER
 10
31.5095745725
 20
66.1685923014
 30
0.0
 11
0.0
 21
17.5084611122
 31
0.0
 40
0.963433044
 41
4.4113560828
 42
4.4411252267
  0
ELLIPSE
  5
34B
100
AcDbEntity
  8
0
100
AcDbEllipse
 62
7
  6
BYLAYER
 10
32.6583224005
 20
54.8618392011
 30
0.0
 11
-10.9958379272
 21
15.791979517
 31
0.0
 40
0.818317629
 41
-1.7455491319
 42
-1.7450389575
  0
ELLIPSE
  5
34C
100
AcDbEntity
  8
0
100
AcDbEllipse
 62
7
  6
BYLAYER
 10
33.2217596349
 20
54.8618392011
 30
0.0
 11
-12.3580633753
 21
15.6563003942
 31
0.0
 40
0.7470541823
 41
-1.7604339261
 42
-1.7554134017
  0
ELLIPSE
  5
34D
100
AcDbEntity
  8
0
100
AcDbEllipse
 62
7
  6
BYLAYER
 10
33.7721661071
 20
54.8618392011
 30
0.0
 11
-13.3023954138
 21
15.7703479229
 31
0.0
 40
0.6792721423
 41
-1.7479481052
 42
-1.7395026589
  0
ELLIPSE
  5
34E
100
AcDbEntity
  8
0
100
AcDbEllipse
 62
7
  6
BYLAYER
 10
34.3053528915
 20
54.8618392011
 30
0.0
 11
-14.0585338956
 21
15.9844133441
 31
0.0
 40
0.6154007239
 41
-1.7237441171
 42
-1.7125697259
  0
ELLIPSE
  5
34F
100
AcDbEntity
  8
0
100
AcDbEllipse
 62
7
  6
BYLAYER
 10
34.8172621148
 20
54.8618392011
 30
0.0
 11
-14.7051040421
 21
16.2385436118
 31
0.0
 40
0.5552272381
 41
-1.6935221503
 42
-1.6800913845
  0
ELLIPSE
  5
350
100
AcDbEntity
  8
0
100
AcDbEllipse
 62
7
  6
BYLAYER
 10
35.3039978386
 20
54.8618392011
 30
0.0
 11
-15.274965845
 21
16.5043969512
 31
0.0
 40
0.4983942514
 41
-1.6598253033
 42
-1.6444719578
  0
ELLIPSE
  5
351
100
AcDbEntity
  8
0
100
AcDbEllipse
 62
7
  6
BYLAYER
 10
35.7618557103
 20
54.8618392011
 30
0.0
 11
-15.7835371161
 21
16.766803626
 31
0.0
 40
0.4445239339
 41
-1.623954571
 42
-1.6069196881
  0
ELLIPSE
  5
352
100
AcDbEntity
  8
0
100
AcDbEllipse
 62
7
  6
BYLAYER
 10
36.1873511549
 20
54.8618392011
 30
0.0
 11
-16.2384907108
 21
17.0168501026
 31
0.0
 40
0.3932536107
 41
-1.5866441138
 42
-1.5681045703
  0
ELLIPSE
  5
353
100
AcDbEntity
  8
0
100
AcDbEllipse
 62
7
  6
BYLAYER
 10
36.5772458952
 20
54.8618392011
 30
0.0
 11
-16.6436838349
 21
17.2489119491
 31
0.0
 40
0.3442450777
 41
-1.5483400703
 42
-1.5284256044
  0
ELLIPSE
  5
354
100
AcDbEntity
  8
0
100
AcDbEllipse
 62
7
  6
BYLAYER
 10
36.9285725968
 20
54.8618392011
 30
0.0
 11
-17.0009614673
 21
17.4592414022
 31
0.0
 40
0.2971852239
 41
-1.5093298802
 42
-1.4881351175
  0
ELLIPSE
  5
355
100
AcDbEntity
  8
0
100
AcDbEllipse
 62
7
  6
BYLAYER
 10
37.2386574513
 20
54.8618392011
 30
0.0
 11
-17.311068251
 21
17.6452378715
 31
0.0
 40
0.2517837063
 41
-1.4698078979
 42
-1.4475602366
  0
ELLIPSE
  5
356
100
AcDbEntity
  8
0
100
AcDbEllipse
 62
7
  6
BYLAYER
 10
31.5095745725
 20
66.1685923014
 30
0.0
 11
-0.0
 21
17.5084611122
 31
0.0
 40
0.963433044
 41
-4.4411252267
 42
-4.4113560828
  0
ELLIPSE
  5
357
100
AcDbEntity
  8
0
100
AcDbEllipse
 62
7
  6
BYLAYER
 10
37.5051405258
 20
54.8618392011
 30
0.0
 11
-17.5741469284
 21
17.8050458869
 31
0.0
 40
0.2077697388
 41
-1.4299111685
 42
-1.4065581646
  0
ELLIPSE
  5
358
100
AcDbEntity
  8
0
100
AcDbEllipse
 62
7
  6
BYLAYER
 10
31.100694037
 20
66.1685923014
 30
0.0
 11
-10.0427045149
 21
14.9543464083
 31
0.0
 40
0.9066977799
 41
1.2951223273
 42
1.3248914712
  0
ELLIPSE
  5
359
100
AcDbEntity
  8
0
100
AcDbEllipse
 62
7
  6
BYLAYER
 10
37.7259937232
 20
54.8618392011
 30
0.0
 11
-17.7900285404
 21
17.9373217495
 31
0.0
 40
0.1648887629
 41
-1.3897401552
 42
-1.3652388413
  0
ELLIPSE
  5
35A
100
AcDbEntity
  8
0
100
AcDbEllipse
 62
7
  6
BYLAYER
 10
30.6949253293
 20
66.1685923014
 30
0.0
 11
-11.8601695234
 21
14.4741311195
 31
0.0
 40
0.8306103506
 41
1.2444691952
 42
1.2742383391
  0
ELLIPSE
  5
35B
100
AcDbEntity
  8
0
100
AcDbEllipse
 62
7
  6
BYLAYER
 10
37.8995362173
 20
54.8618392011
 30
0.0
 11
-17.9584099181
 21
18.0410926156
 31
0.0
 40
0.1228992729
 41
-1.3493714145
 42
-1.3236866873
  0
ELLIPSE
  5
35C
100
AcDbEntity
  8
0
100
AcDbEllipse
 62
7
  6
BYLAYER
 10
30.2953565942
 20
66.1685923014
 30
0.0
 11
-12.8060309747
 21
14.5700382847
 31
0.0
 40
0.7581403628
 41
1.2542756011
 42
1.2840447449
  0
ELLIPSE
  5
35D
100
AcDbEntity
  8
0
100
AcDbEllipse
 62
7
  6
BYLAYER
 10
38.0244472449
 20
54.8618392011
 30
0.0
 11
-18.0789658936
 21
18.1156691418
 31
0.0
 40
0.0815698667
 41
-1.3088657657
 42
-1.2819697269
  0
ELLIPSE
  5
35E
100
AcDbEntity
  8
0
100
AcDbEllipse
 62
7
  6
BYLAYER
 10
29.9050287912
 20
66.1685923014
 30
0.0
 11
-13.5094930283
 21
14.8194770471
 31
0.0
 40
0.6901509118
 41
1.2804861718
 42
1.3102553157
  0
ELLIPSE
  5
35F
100
AcDbEntity
  8
0
100
AcDbEllipse
 62
7
  6
BYLAYER
 10
38.0997761576
 20
54.8618392011
 30
0.0
 11
-18.1514209571
 21
18.1605909673
 31
0.0
 40
0.0406765142
 41
-1.2682738639
 42
-1.2401461334
  0
ELLIPSE
  5
360
100
AcDbEntity
  8
0
100
AcDbEllipse
 62
7
  6
BYLAYER
 10
29.5269125503
 20
66.1685923014
 30
0.0
 11
-14.1001405585
 21
15.1182070608
 31
0.0
 40
0.6263036642
 41
1.3133928442
 42
1.3431619881
  0
ELLIPSE
  5
361
100
AcDbEntity
  8
0
100
AcDbEllipse
 62
7
  6
BYLAYER
 10
29.1638855646
 20
66.1685923014
 30
0.0
 11
-14.6201143459
 21
15.4285527016
 31
0.0
 40
0.5661264515
 41
1.349670045
 42
1.3794391888
  0
ELLIPSE
  5
362
100
AcDbEntity
  8
0
100
AcDbEllipse
 62
7
  6
BYLAYER
 10
28.8187106886
 20
66.1685923014
 30
0.0
 11
-15.0865489373
 21
15.7334287619
 31
0.0
 40
0.5091621171
 41
1.3878744092
 42
1.4176435531
  0
ELLIPSE
  5
363
100
AcDbEntity
  8
0
100
AcDbEllipse
 62
7
  6
BYLAYER
 10
28.4940149116
 20
66.1685923014
 30
0.0
 11
-15.507275323
 21
16.023819938
 31
0.0
 40
0.4549951859
 41
1.4272784908
 42
1.4570476347
  0
ELLIPSE
  5
364
100
AcDbEntity
  8
0
100
AcDbEllipse
 62
7
  6
BYLAYER
 10
26.8360486665
 20
66.1685923014
 30
0.0
 11
-17.4882083164
 21
17.4929960222
 31
0.0
 40
0.0420701413
 41
-4.4831590804
 42
-4.4533899365
  0
ELLIPSE
  5
365
100
AcDbEntity
  8
0
100
AcDbEllipse
 62
7
  6
BYLAYER
 10
28.1922693645
 20
66.1685923014
 30
0.0
 11
-15.8860502942
 21
16.2944188981
 31
0.0
 40
0.4032531911
 41
1.4674754626
 42
1.4972446065
  0
ELLIPSE
  5
366
100
AcDbEntity
  8
0
100
AcDbEllipse
 62
7
  6
BYLAYER
 10
26.8894691303
 20
66.1685923014
 30
0.0
 11
-17.4274961419
 21
17.4466624083
 31
0.0
 40
0.0843354388
 41
-4.5251695758
 42
-4.4954004319
  0
ELLIPSE
  5
367
100
AcDbEntity
  8
0
100
AcDbEllipse
 62
7
  6
BYLAYER
 10
27.915770513
 20
66.1685923014
 30
0.0
 11
-16.2246471729
 21
16.5418339295
 31
0.0
 40
0.3536019736
 41
1.5082194939
 42
1.5379886378
  0
ELLIPSE
  5
368
100
AcDbEntity
  8
0
100
AcDbEllipse
 62
7
  6
BYLAYER
 10
27.6666226804
 20
66.1685923014
 30
0.0
 11
-16.523808647
 21
16.7637596114
 31
0.0
 40
0.3057398728
 41
1.5493527354
 42
1.5791218793
  0
ELLIPSE
  5
369
100
AcDbEntity
  8
0
100
AcDbEllipse
 62
7
  6
BYLAYER
 10
26.9780513862
 20
66.1685923014
 30
0.0
 11
-17.326459176
 21
17.3696482286
 31
0.0
 40
0.1269935126
 41
-4.5671318146
 42
-4.5373626707
  0
ELLIPSE
  5
36A
100
AcDbEntity
  8
0
100
AcDbEllipse
 62
7
  6
BYLAYER
 10
27.4467220321
 20
66.1685923014
 30
0.0
 11
-16.7837266909
 21
16.9585571531
 31
0.0
 40
0.2593921815
 41
-4.6924166842
 42
-4.6626475403
  0
ELLIPSE
  5
36B
100
AcDbEntity
  8
0
100
AcDbEllipse
 62
7
  6
BYLAYER
 10
27.1011212698
 20
66.1685923014
 30
0.0
 11
-17.185307668
 21
17.2622772411
 31
0.0
 40
0.1702469903
 41
-4.6090176139
 42
-4.57924847
  0
ELLIPSE
  5
36C
100
AcDbEntity
  8
0
100
AcDbEllipse
 62
7
  6
BYLAYER
 10
27.2577421449
 20
66.1685923014
 30
0.0
 11
-17.0043043001
 21
17.1250267564
 31
0.0
 40
0.2143062114
 41
-4.650793302
 42
-4.6210241581
  0
ELLIPSE
  5
36D
100
AcDbEntity
  8
0
100
AcDbEllipse
 62
7
  6
BYLAYER
 10
32.7237925507
 20
66.1685923014
 30
0.0
 11
12.8060309747
 21
14.5700382847
 31
0.0
 40
0.7581403628
 41
-3.8533407472
 42
-3.8235716033
  0
ELLIPSE
  5
36E
100
AcDbEntity
  8
0
100
AcDbEllipse
 62
7
  6
BYLAYER
 10
33.1141203538
 20
66.1685923014
 30
0.0
 11
13.5094930283
 21
14.8194770471
 31
0.0
 40
0.6901509118
 41
-3.879551318
 42
-3.8497821741
  0
ELLIPSE
  5
36F
100
AcDbEntity
  8
0
100
AcDbEllipse
 62
7
  6
BYLAYER
 10
28.1922693645
 20
66.1685923014
 30
0.0
 11
-15.8860502942
 21
16.2944188981
 31
0.0
 40
0.4032531911
 41
-2.2464138423
 42
-2.2166446984
  0
ELLIPSE
  5
370
100
AcDbEntity
  8
0
100
AcDbEllipse
 62
7
  6
BYLAYER
 10
33.4922365947
 20
66.1685923014
 30
0.0
 11
14.1001405585
 21
15.1182070608
 31
0.0
 40
0.6263036642
 41
-3.9124579904
 42
-3.8826888465
  0
ELLIPSE
  5
371
100
AcDbEntity
  8
0
100
AcDbEllipse
 62
7
  6
BYLAYER
 10
33.8552635803
 20
66.1685923014
 30
0.0
 11
14.6201143459
 21
15.4285527016
 31
0.0
 40
0.5661264515
 41
-3.9487351911
 42
-3.9189660472
  0
ELLIPSE
  5
372
100
AcDbEntity
  8
0
100
AcDbEllipse
 62
7
  6
BYLAYER
 10
34.2004384563
 20
66.1685923014
 30
0.0
 11
15.0865489373
 21
15.7334287619
 31
0.0
 40
0.5091621171
 41
-3.9869395554
 42
-3.9571704115
  0
ELLIPSE
  5
373
100
AcDbEntity
  8
0
100
AcDbEllipse
 62
7
  6
BYLAYER
 10
27.915770513
 20
66.1685923014
 30
0.0
 11
-16.2246471729
 21
16.5418339295
 31
0.0
 40
0.3536019736
 41
-2.205669811
 42
-2.1759006671
  0
ELLIPSE
  5
374
100
AcDbEntity
  8
0
100
AcDbEllipse
 62
7
  6
BYLAYER
 10
34.5251342333
 20
66.1685923014
 30
0.0
 11
15.507275323
 21
16.023819938
 31
0.0
 40
0.4549951859
 41
-4.0263436369
 42
-3.9965744931
  0
ELLIPSE
  5
375
100
AcDbEntity
  8
0
100
AcDbEllipse
 62
7
  6
BYLAYER
 10
34.8268797805
 20
66.1685923014
 30
0.0
 11
15.8860502942
 21
16.2944188981
 31
0.0
 40
0.4032531911
 41
-4.0665406088
 42
-4.0367714649
  0
ELLIPSE
  5
376
100
AcDbEntity
  8
0
100
AcDbEllipse
 62
7
  6
BYLAYER
 10
27.6666226804
 20
66.1685923014
 30
0.0
 11
-16.523808647
 21
16.7637596114
 31
0.0
 40
0.3057398728
 41
-2.1645365695
 42
-2.1347674256
  0
ELLIPSE
  5
377
100
AcDbEntity
  8
0
100
AcDbEllipse
 62
7
  6
BYLAYER
 10
35.103378632
 20
66.1685923014
 30
0.0
 11
16.2246471729
 21
16.5418339295
 31
0.0
 40
0.3536019736
 41
-4.1072846401
 42
-4.0775154962
  0
ELLIPSE
  5
378
100
AcDbEntity
  8
0
100
AcDbEllipse
 62
7
  6
BYLAYER
 10
35.3525264646
 20
66.1685923014
 30
0.0
 11
16.523808647
 21
16.7637596114
 31
0.0
 40
0.3057398728
 41
-4.1484178816
 42
-4.1186487377
  0
ELLIPSE
  5
379
100
AcDbEntity
  8
0
100
AcDbEllipse
 62
7
  6
BYLAYER
 10
27.4467220321
 20
66.1685923014
 30
0.0
 11
-16.7837266909
 21
16.9585571531
 31
0.0
 40
0.2593921815
 41
-2.1231206819
 42
-2.093351538
  0
ELLIPSE
  5
37A
100
AcDbEntity
  8
0
100
AcDbEllipse
 62
7
  6
BYLAYER
 10
35.5724271129
 20
66.1685923014
 30
0.0
 11
16.7837266909
 21
16.9585571531
 31
0.0
 40
0.2593921815
 41
-4.1898337691
 42
-4.1600646253
  0
ELLIPSE
  5
37B
100
AcDbEntity
  8
0
100
AcDbEllipse
 62
7
  6
BYLAYER
 10
35.7614070001
 20
66.1685923014
 30
0.0
 11
17.0043043001
 21
17.1250267564
 31
0.0
 40
0.2143062114
 41
-4.2314571513
 42
-4.2016880075
  0
ELLIPSE
  5
37C
100
AcDbEntity
  8
0
100
AcDbEllipse
 62
7
  6
BYLAYER
 10
27.2577421449
 20
66.1685923014
 30
0.0
 11
-17.0043043001
 21
17.1250267564
 31
0.0
 40
0.2143062114
 41
-2.0814972997
 42
-2.0517281558
  0
ELLIPSE
  5
37D
100
AcDbEntity
  8
0
100
AcDbEllipse
 62
7
  6
BYLAYER
 10
35.9180278752
 20
66.1685923014
 30
0.0
 11
17.185307668
 21
17.2622772411
 31
0.0
 40
0.1702469903
 41
-4.2732328395
 42
-4.2434636956
  0
ELLIPSE
  5
37E
100
AcDbEntity
  8
0
100
AcDbEllipse
 62
7
  6
BYLAYER
 10
36.0410977588
 20
66.1685923014
 30
0.0
 11
17.326459176
 21
17.3696482286
 31
0.0
 40
0.1269935126
 41
-4.3151186387
 42
-4.2853494948
  0
ELLIPSE
  5
37F
100
AcDbEntity
  8
0
100
AcDbEllipse
 62
7
  6
BYLAYER
 10
27.1011212698
 20
66.1685923014
 30
0.0
 11
-17.185307668
 21
17.2622772411
 31
0.0
 40
0.1702469903
 41
-2.0397216116
 42
-2.0099524677
  0
ELLIPSE
  5
380
100
AcDbEntity
  8
0
100
AcDbEllipse
 62
7
  6
BYLAYER
 10
36.1296800147
 20
66.1685923014
 30
0.0
 11
17.4274961419
 21
17.4466624083
 31
0.0
 40
0.0843354388
 41
-4.3570808775
 42
-4.3273117336
  0
ELLIPSE
  5
381
100
AcDbEntity
  8
0
100
AcDbEllipse
 62
7
  6
BYLAYER
 10
36.1831004785
 20
66.1685923014
 30
0.0
 11
17.4882083164
 21
17.4929960222
 31
0.0
 40
0.0420701413
 41
-4.3990913729
 42
-4.369322229
  0
ELLIPSE
  5
382
100
AcDbEntity
  8
0
100
AcDbEllipse
 62
7
  6
BYLAYER
 10
26.9780513862
 20
66.1685923014
 30
0.0
 11
-17.326459176
 21
17.3696482286
 31
0.0
 40
0.1269935126
 41
-1.9978358124
 42
-1.9680666685
  0
ELLIPSE
  5
383
100
AcDbEntity
  8
0
100
AcDbEllipse
 62
7
  6
BYLAYER
 10
31.100694037
 20
66.1685923014
 30
0.0
 11
-10.0427045149
 21
14.9543464083
 31
0.0
 40
0.9066977799
 41
-2.4187669776
 42
-2.3889978337
  0
ELLIPSE
  5
384
100
AcDbEntity
  8
0
100
AcDbEllipse
 62
7
  6
BYLAYER
 10
26.8894691303
 20
66.1685923014
 30
0.0
 11
-17.4274961419
 21
17.4466624083
 31
0.0
 40
0.0843354388
 41
-1.9558735735
 42
-1.9261044297
  0
ELLIPSE
  5
385
100
AcDbEntity
  8
0
100
AcDbEllipse
 62
7
  6
BYLAYER
 10
30.6949253293
 20
66.1685923014
 30
0.0
 11
-11.8601695234
 21
14.4741311195
 31
0.0
 40
0.8306103506
 41
-2.4694201097
 42
-2.4396509658
  0
ELLIPSE
  5
386
100
AcDbEntity
  8
0
100
AcDbEllipse
 62
7
  6
BYLAYER
 10
26.8360486665
 20
66.1685923014
 30
0.0
 11
-17.4882083164
 21
17.4929960222
 31
0.0
 40
0.0420701413
 41
-1.9138630781
 42
-1.8840939343
  0
ELLIPSE
  5
387
100
AcDbEntity
  8
0
100
AcDbEllipse
 62
7
  6
BYLAYER
 10
30.2953565942
 20
66.1685923014
 30
0.0
 11
-12.8060309747
 21
14.5700382847
 31
0.0
 40
0.7581403628
 41
-2.4596137039
 42
-2.42984456
  0
ELLIPSE
  5
388
100
AcDbEntity
  8
0
100
AcDbEllipse
 62
7
  6
BYLAYER
 10
29.9050287912
 20
66.1685923014
 30
0.0
 11
-13.5094930283
 21
14.8194770471
 31
0.0
 40
0.6901509118
 41
-2.4334031331
 42
-2.4036339892
  0
ELLIPSE
  5
389
100
AcDbEntity
  8
0
100
AcDbEllipse
 62
7
  6
BYLAYER
 10
29.5269125503
 20
66.1685923014
 30
0.0
 11
-14.1001405585
 21
15.1182070608
 31
0.0
 40
0.6263036642
 41
-2.4004964607
 42
-2.3707273168
  0
ELLIPSE
  5
38A
100
AcDbEntity
  8
0
100
AcDbEllipse
 62
7
  6
BYLAYER
 10
29.1638855646
 20
66.1685923014
 30
0.0
 11
-14.6201143459
 21
15.4285527016
 31
0.0
 40
0.5661264515
 41
-2.36421926
 42
-2.3344501161
  0
ELLIPSE
  5
38B
100
AcDbEntity
  8
0
100
AcDbEllipse
 62
7
  6
BYLAYER
 10
28.8187106886
 20
66.1685923014
 30
0.0
 11
-15.0865489373
 21
15.7334287619
 31
0.0
 40
0.5091621171
 41
-2.3260148957
 42
-2.2962457518
  0
ELLIPSE
  5
38C
100
AcDbEntity
  8
0
100
AcDbEllipse
 62
7
  6
BYLAYER
 10
31.918455108
 20
66.1685923014
 30
0.0
 11
10.0427045149
 21
14.9543464083
 31
0.0
 40
0.9066977799
 41
-3.8941874735
 42
-3.8644183296
  0
ELLIPSE
  5
38D
100
AcDbEntity
  8
0
100
AcDbEllipse
 62
7
  6
BYLAYER
 10
32.3242238157
 20
66.1685923014
 30
0.0
 11
11.8601695234
 21
14.4741311195
 31
0.0
 40
0.8306103506
 41
-3.8435343414
 42
-3.8137651975
  0
ELLIPSE
  5
38E
100
AcDbEntity
  8
0
100
AcDbEllipse
 62
7
  6
BYLAYER
 10
28.4940149116
 20
66.1685923014
 30
0.0
 11
-15.507275323
 21
16.023819938
 31
0.0
 40
0.4549951859
 41
-2.2866108141
 42
-2.2568416702
  0
ENDSEC
  0
SECTION
  2
OBJECTS
  0
DICTIONARY
  5
C
100
AcDbDictionary
280
0
281
1
  3
ACAD_GROUP
350
D
  3
ACAD_MLINESTYLE
350
17
  3
ACAD_LAYOUT
350
1A
  3
ACAD_PLOTSETTINGS
350
19
  3
ACAD_PLOTSTYLENAME
350
E
  0
DICTIONARY
  5
D
102
{ACAD_REACTORS
330
C
102
}
100
AcDbDictionary
280
0
281
1
  0
ACDBDICTIONARYWDFLT
  5
E
102
{ACAD_REACTORS
330
C
102
}
100
AcDbDictionary
281
1
  3
Normal
350
F
100
AcDbDictionaryWithDefault
340
F
  0
DICTIONARY
  5
17
102
{ACAD_REACTORS
330
C
102
}
100
AcDbDictionary
280
0
281
1
  3
Standard
350
18
  0
DICTIONARY
  5
19
102
{ACAD_REACTORS
330
C
102
}
100
AcDbDictionary
281
1
  0
DICTIONARY
  5
1A
102
{ACAD_REACTORS
330
C
102
}
100
AcDbDictionary
281
1
  3
Model
350
38F
  3
Layout1
350
390
  0
ACDBPLACEHOLDER
  5
F
102
{ACAD_REACTORS
330
E
102
}
  0
MLINESTYLE
  5
18
102
{ACAD_REACTORS
330
17
102
}
100
AcDbMlineStyle
  2
STANDARD
 70
0
  3

 62
256
 51
90.0
 52
90.0
 71
2
 49
0.5
 62
256
  6
BYLAYER
 49
-0.5
 62
256
  6
BYLAYER
  0
LAYOUT
  5
38F
102
{ACAD_REACTORS
330
1A
102
}
100
AcDbPlotSettings
  1

  2
none_device
  4

  6

 40
0.0
 41
0.0
 42
0.0
 43
0.0
 44
210.0
 45
297.0
 46
0.0
 47
0.0
 48
0.0
 49
0.0
140
0.0
141
0.0
142
1.0
143
1.0
 70
1024
 72
1
 73
0
 74
0
  7

 75
0
147
1.0
148
0.0
149
0.0
100
AcDbLayout
  1
Model
 70
0
 71
0
 10
0.0
 20
0.0
 11
210.0
 21
297.0
 12
0.0
 22
0.0
 32
0.0
 14
0.0
 24
0.0
 34
0.0
 15
0.0
 25
0.0
 35
0.0
146
0.0
 13
0.0
 23
0.0
 33
0.0
 16
1.0
 26
0.0
 36
0.0
 17
0.0
 27
1.0
 37
0.0
 76
0
330
210
345
0
346
0
  0
LAYOUT
  5
390
102
{ACAD_REACTORS
330
1A
102
}
100
AcDbPlotSettings
  1

  2
none_device
  4

  6

 40
0.0
 41
0.0
 42
0.0
 43
0.0
 44
210.0
 45
297.0
 46
0.0
 47
0.0
 48
0.0
 49
0.0
140
0.0
141
0.0
142
1.0
143
1.0
 70
0
 72
1
 73
0
 74
0
  7

 75
0
147
1.0
148
0.0
149
0.0
100
AcDbLayout
  1
Layout1
 70
0
 71
1
 10
0.0
 20
0.0
 11
210.0
 21
297.0
 12
0.0
 22
0.0
 32
0.0
 14
0.0
 24
0.0
 34
0.0
 15
0.0
 25
0.0
 35
0.0
146
0.0
 13
0.0
 23
0.0
 33
0.0
 16
1.0
 26
0.0
 36
0.0
 17
0.0
 27
1.0
 37
0.0
 76
0
330
211
345
0
346
0
  0
ENDSEC
  0
EOF
