999
DXF file: C:\Users\sesa63760\Dev\_Creo\CAD\MCADID0002082_3D-CAD\drw0001_2.dxf
999
Pro/ENGINEER 2019471 by Parametric Technology Corporation
  0
SECTION
  2
HEADER
  9
$ACADVER
  1
AC1024
  9
$DWGCODEPAGE
  3
ANSI_1252
  9
$EXTMAX
 10
214.2287578377
 20
302.9806717991
 30
0.0
  9
$EXTMIN
 10
0.0
 20
0.0
 30
0.0
  9
$LIMMIN
 10
0.0
 20
0.0
  9
$LIMMAX
 10
214.2287578377
 20
302.9806717991
  9
$VIEWCTR
 10
107.1143789189
 20
151.4903358995
  9
$VIEWSIZE
 40
302.9806717991
  9
$CLAYER
  8
0
  9
$LTSCALE
 40
19.7498511988
  9
$CELTYPE
  6
BYLAYER
  9
$DIMSCALE
 40
1.0
  9
$DIMASZ
 40
2.5503423552
  9
$DIMEXO
 40
1.0
  9
$DIMDLI
 40
13.6453517373
  9
$DIMEXE
 40
1.0
  9
$DIMCEN
 40
3.2317938325
  9
$DIMLFAC
 40
1.0
  9
$DIMBLK
  1
_FILLED
  9
$DIMALT
 70
0
  9
$DIMALTF
 40
0.0393700787
  9
$DIMTXT
 40
3.5704792973
  9
$DIMTOL
 70
1
  9
$DIMLIM
 70
0
  9
$DIMTFAC
 40
1.0
  9
$DIMTP
 40
0.01
  9
$DIMTM
 40
0.01
  9
$DIMGAP
 40
0.625
  9
$DIMDSEP
 70
46
  9
$AUNITS
 70
0
  9
$PDMODE
 70
3
  9
$PDSIZE
 40
0.3125
  9
$HANDSEED
  5
4C1
  9
$TILEMODE
 70
1
  9
$MEASUREMENT
 70
1
  9
$INSUNITS
 70
4
  0
ENDSEC
  0
SECTION
  2
CLASSES
  0
CLASS
  1
ACDBDICTIONARYWDFLT
  2
AcDbDictionaryWithDefault
  3
AutoCAD 2000
 90
0
 91
1
280
0
281
0
  0
CLASS
  1
ACDBPLACEHOLDER
  2
AcDbPlaceHolder
  3
AutoCAD 2000
 90
0
 91
1
280
0
281
0
  0
CLASS
  1
LAYOUT
  2
AcDbLayout
  3
AutoCAD 2000
 90
0
 91
0
280
0
281
0
  0
ENDSEC
  0
SECTION
  2
TABLES
  0
TABLE
  2
VPORT
  5
8
100
AcDbSymbolTable
 70
2
  0
VPORT
  5
1F4
100
AcDbSymbolTableRecord
100
AcDbViewportTableRecord
  2
*ACTIVE
 70
0
 10
0.0
 20
0.0
 11
1.0
 21
1.0
 12
107.1143789189
 22
151.4903358995
 13
0.0
 23
0.0
 14
1.0
 24
1.0
 15
0.0
 25
0.0
 16
0.0
 26
0.0
 36
1.0
 17
0.0
 27
0.0
 37
0.0
 40
302.9806717991
 41
0.7070707071
 42
50.0
 43
0.0
 44
0.0
 50
0.0
 51
0.0
 71
0
 72
100
 73
1
 74
1
 75
0
 76
0
 77
0
 78
0
  0
ENDTAB
  0
TABLE
  2
LTYPE
  5
5
100
AcDbSymbolTable
 70
6
  0
LTYPE
  5
14
100
AcDbSymbolTableRecord
100
AcDbLinetypeTableRecord
  2
BYBLOCK
 70
0
  3

 72
65
 73
0
 40
0.0
  0
LTYPE
  5
15
100
AcDbSymbolTableRecord
100
AcDbLinetypeTableRecord
  2
BYLAYER
 70
0
  3

 72
65
 73
0
 40
0.0
  0
LTYPE
  5
16
100
AcDbSymbolTableRecord
100
AcDbLinetypeTableRecord
  2
CONTINUOUS
 70
64
  3
Solid line
 72
65
 73
0
 40
0.0
  0
LTYPE
  5
1F5
100
AcDbSymbolTableRecord
100
AcDbLinetypeTableRecord
  2
CENTER
 70
64
  3
____ _ ____ _ ____ _ ____ _ ____ _ ____ _ ____
 72
65
 73
4
 40
0.6
 49
0.375
 74
0
 49
-0.075
 74
0
 49
0.075
 74
0
 49
-0.075
 74
0
  0
LTYPE
  5
1F6
100
AcDbSymbolTableRecord
100
AcDbLinetypeTableRecord
  2
HIDDEN
 70
64
  3
- - - - - - - - - - - - - - - - - - - -
 72
65
 73
2
 40
0.2
 49
0.1
 74
0
 49
-0.1
 74
0
  0
LTYPE
  5
1F7
100
AcDbSymbolTableRecord
100
AcDbLinetypeTableRecord
  2
PHANTOM
 70
64
  3
_____ _ _ _____ _ _ _____ _ _ _____
 72
65
 73
6
 40
0.8
 49
0.45
 74
0
 49
-0.05
 74
0
 49
0.1
 74
0
 49
-0.05
 74
0
 49
0.1
 74
0
 49
-0.05
 74
0
  0
LTYPE
  5
1F8
100
AcDbSymbolTableRecord
100
AcDbLinetypeTableRecord
  2
DOT
 70
64
  3
. . . . . . . . . . . . . . . . . . . .
 72
65
 73
2
 40
0.2
 49
0.1
 74
0
 49
-0.1
 74
0
  0
LTYPE
  5
1F9
100
AcDbSymbolTableRecord
100
AcDbLinetypeTableRecord
  2
DASHED
 70
64
  3
- - - - - - - - - - - - - - - - - - - -
 72
65
 73
2
 40
0.2
 49
0.1
 74
0
 49
-0.1
 74
0
  0
ENDTAB
  0
TABLE
  2
LAYER
  5
2
100
AcDbSymbolTable
 70
36
  0
LAYER
  5
10
100
AcDbSymbolTableRecord
100
AcDbLayerTableRecord
  2
0
 70
0
 62
7
  6
CONTINUOUS
370
-3
390
F
  0
LAYER
  5
1FA
100
AcDbSymbolTableRecord
100
AcDbLayerTableRecord
  2
DEFAULT_1
 70
0
 62
7
  6
CENTER
370
-3
390
F
  0
LAYER
  5
1FB
100
AcDbSymbolTableRecord
100
AcDbLayerTableRecord
  2
DEFAULT_2
 70
0
 62
8
  6
HIDDEN
370
-3
390
F
  0
LAYER
  5
1FC
100
AcDbSymbolTableRecord
100
AcDbLayerTableRecord
  2
DEFAULT_3
 70
0
 62
7
  6
PHANTOM
370
-3
390
F
  0
LAYER
  5
1FD
100
AcDbSymbolTableRecord
100
AcDbLayerTableRecord
  2
00_COMPONENTS
 70
0
 62
7
  6
CONTINUOUS
370
-3
390
F
  0
LAYER
  5
1FE
100
AcDbSymbolTableRecord
100
AcDbLayerTableRecord
  2
01_1_DEFAULT_DATUMS
 70
0
 62
7
  6
CONTINUOUS
370
-3
390
F
  0
LAYER
  5
1FF
100
AcDbSymbolTableRecord
100
AcDbLayerTableRecord
  2
01_PLANES
 70
0
 62
7
  6
CONTINUOUS
370
-3
390
F
  0
LAYER
  5
200
100
AcDbSymbolTableRecord
100
AcDbLayerTableRecord
  2
02_COORD_SYS
 70
0
 62
7
  6
CONTINUOUS
370
-3
390
F
  0
LAYER
  5
201
100
AcDbSymbolTableRecord
100
AcDbLayerTableRecord
  2
03_AXES
 70
0
 62
7
  6
CONTINUOUS
370
-3
390
F
  0
LAYER
  5
202
100
AcDbSymbolTableRecord
100
AcDbLayerTableRecord
  2
04_POINTS
 70
0
 62
7
  6
CONTINUOUS
370
-3
390
F
  0
LAYER
  5
203
100
AcDbSymbolTableRecord
100
AcDbLayerTableRecord
  2
05_CURVES
 70
0
 62
7
  6
CONTINUOUS
370
-3
390
F
  0
LAYER
  5
204
100
AcDbSymbolTableRecord
100
AcDbLayerTableRecord
  2
06_SURFS
 70
0
 62
7
  6
CONTINUOUS
370
-3
390
F
  0
LAYER
  5
205
100
AcDbSymbolTableRecord
100
AcDbLayerTableRecord
  2
07_COSMETICS
 70
0
 62
7
  6
CONTINUOUS
370
-3
390
F
  0
LAYER
  5
206
100
AcDbSymbolTableRecord
100
AcDbLayerTableRecord
  2
10_NOTES
 70
0
 62
7
  6
CONTINUOUS
370
-3
390
F
  0
LAYER
  5
207
100
AcDbSymbolTableRecord
100
AcDbLayerTableRecord
  2
11_NOTES_PUB
 70
0
 62
7
  6
CONTINUOUS
370
-3
390
F
  0
LAYER
  5
208
100
AcDbSymbolTableRecord
100
AcDbLayerTableRecord
  2
13_REF_GTOL
 70
0
 62
7
  6
CONTINUOUS
370
-3
390
F
  0
LAYER
  5
209
100
AcDbSymbolTableRecord
100
AcDbLayerTableRecord
  2
16_MISC
 70
0
 62
7
  6
CONTINUOUS
370
-3
390
F
  0
LAYER
  5
20A
100
AcDbSymbolTableRecord
100
AcDbLayerTableRecord
  2
17_NO_PRINT
 70
0
 62
7
  6
CONTINUOUS
370
-3
390
F
  0
LAYER
  5
20B
100
AcDbSymbolTableRecord
100
AcDbLayerTableRecord
  2
18_DATUM_CAMS_JOINTS
 70
0
 62
7
  6
CONTINUOUS
370
-3
390
F
  0
LAYER
  5
20C
100
AcDbSymbolTableRecord
100
AcDbLayerTableRecord
  2
19_DATUM_FUNCTIONAL
 70
0
 62
7
  6
CONTINUOUS
370
-3
390
F
  0
LAYER
  5
20D
100
AcDbSymbolTableRecord
100
AcDbLayerTableRecord
  2
20_DATUM_KINEMATIC_SCHEME
 70
0
 62
7
  6
CONTINUOUS
370
-3
390
F
  0
ENDTAB
  0
TABLE
  2
STYLE
  5
3
100
AcDbSymbolTable
 70
1
  0
STYLE
  5
11
100
AcDbSymbolTableRecord
100
AcDbTextStyleTableRecord
  2
STANDARD
 70
0
 40
0.0
 41
0.8
 50
0.0
 71
0
 42
0.2
  3
txt
  4

  0
STYLE
  5
20E
100
AcDbSymbolTableRecord
100
AcDbTextStyleTableRecord
  2
TEXTSTYLE_1
 70
0
 40
0.0
 41
0.8
 50
0.0
 71
0
 42
0.2
  3
gdt
  4

  0
ENDTAB
  0
TABLE
  2
VIEW
  5
6
100
AcDbSymbolTable
 70
0
  0
ENDTAB
  0
TABLE
  2
UCS
  5
7
100
AcDbSymbolTable
 70
0
  0
ENDTAB
  0
TABLE
  2
APPID
  5
9
100
AcDbSymbolTable
 70
1
  0
APPID
  5
20F
100
AcDbSymbolTableRecord
100
AcDbRegAppTableRecord
  2
ACAD
 70
0
  0
ENDTAB
  0
TABLE
  2
BLOCK_RECORD
  5
1
100
AcDbSymbolTable
 70
0
  0
BLOCK_RECORD
  5
210
100
AcDbSymbolTableRecord
100
AcDbBlockTableRecord
  2
*Model_Space
  0
BLOCK_RECORD
  5
211
100
AcDbSymbolTableRecord
100
AcDbBlockTableRecord
  2
*Paper_Space
  0
BLOCK_RECORD
  5
212
100
AcDbSymbolTableRecord
100
AcDbBlockTableRecord
  2
_FILLED
  0
ENDTAB
  0
TABLE
  2
DIMSTYLE
  5
A
100
AcDbSymbolTable
 70
1
100
AcDbDimStyleTable
 71
0
  0
DIMSTYLE
105
213
100
AcDbSymbolTableRecord
100
AcDbDimStyleTableRecord
  2
STANDARD
 70
0
  3

  4

 40
1.0
 41
2.5503423552
 42
1.0
 43
0.38
 44
1.0
 45
0.0
 46
0.0
 47
0.01
 48
0.01
140
3.5704792973
141
0.09
142
0.0
143
25.4
144
1.0
145
0.0
146
1.0
147
0.625
 71
1
 72
0
 73
0
 74
0
 75
0
 76
0
 77
1
 78
8
 79
2
170
0
171
1
172
0
173
0
174
0
175
0
176
0
177
0
178
0
270
2
179
2
271
2
272
2
273
2
274
2
275
0
280
0
281
0
282
0
283
1
284
8
285
0
286
0
287
3
288
0
340
11
278
46
341
212
342
212
343
212
344
212
  0
ENDTAB
  0
ENDSEC
  0
SECTION
  2
BLOCKS
  0
BLOCK
  5
20
100
AcDbEntity
  8
0
100
AcDbBlockBegin
  2
*Model_Space
 70
0
 10
0.0
 20
0.0
 30
0.0
  3
*Model_Space
  1

  0
ENDBLK
  5
21
100
AcDbEntity
  8
0
100
AcDbBlockEnd
  0
BLOCK
  5
1C
100
AcDbEntity
  8
0
100
AcDbBlockBegin
  2
*Paper_Space
 70
0
 10
0.0
 20
0.0
 30
0.0
  3
*Paper_Space
  1

  0
ENDBLK
  5
1D
100
AcDbEntity
  8
0
100
AcDbBlockEnd
  0
BLOCK
  5
214
100
AcDbEntity
  8
0
100
AcDbBlockBegin
  2
_FILLED
 70
64
 10
0.0
 20
0.0
  3
_FILLED
  1

  0
SOLID
  5
215
100
AcDbEntity
  8
0
  6
BYBLOCK
 62
0
100
AcDbTrace
 10
0.0
 20
0.0
 11
-1.0
 21
0.25
 12
-1.0
 22
-0.25
 13
-1.0
 23
-0.25
  0
ENDBLK
  5
216
100
AcDbEntity
  8
0
  6
BYBLOCK
 62
0
100
AcDbBlockEnd
  0
ENDSEC
  0
SECTION
  2
ENTITIES
  0
LINE
  5
217
100
AcDbEntity
  8
0
100
AcDbLine
 62
7
  6
CONTINUOUS
 10
133.8873624563
 20
21.1699271952
 11
128.9464597476
 21
20.9753834965
  0
LINE
  5
218
100
AcDbEntity
  8
0
100
AcDbLine
 62
7
  6
CONTINUOUS
 10
131.3834201263
 20
25.9727058256
 11
131.8147172583
 21
25.9892823922
  0
LINE
  5
219
100
AcDbEntity
  8
0
100
AcDbLine
 62
7
  6
CONTINUOUS
 10
128.9464597476
 20
20.9753834965
 11
108.9257574139
 21
20.2115857109
  0
LINE
  5
21A
100
AcDbEntity
  8
0
100
AcDbLine
 62
7
  6
CONTINUOUS
 10
108.9248009302
 20
20.2369209385
 11
128.9458722335
 21
20.9910900238
  0
LINE
  5
21B
100
AcDbEntity
  8
0
100
AcDbLine
 62
7
  6
CONTINUOUS
 10
129.3769723483
 20
21.0071151384
 11
131.7136956641
 21
21.0939464891
  0
LINE
  5
21C
100
AcDbEntity
  8
0
100
AcDbLine
 62
7
  6
CONTINUOUS
 10
131.7136956641
 20
21.0939464891
 11
133.856001938
 21
21.1700438724
  0
LINE
  5
21D
100
AcDbEntity
  8
0
100
AcDbLine
 62
7
  6
CONTINUOUS
 10
109.0396932044
 20
25.2133566065
 11
131.3834564536
 21
25.9727058382
  0
LINE
  5
21E
100
AcDbEntity
  8
0
100
AcDbLine
 62
7
  6
CONTINUOUS
 10
109.0396367099
 20
25.2148942542
 11
131.3834253595
 21
25.9724948529
  0
LINE
  5
21F
100
AcDbEntity
  8
0
100
AcDbLine
 62
7
  6
CONTINUOUS
 10
137.5918919889
 20
26.1373395153
 11
138.6984337487
 21
26.1681439281
  0
LINE
  5
220
100
AcDbEntity
  8
0
100
AcDbLine
 62
7
  6
CONTINUOUS
 10
131.8147172577
 20
25.989282583
 11
138.698384531
 21
26.1681609841
  0
LINE
  5
221
100
AcDbEntity
  8
0
100
AcDbLine
 62
7
  6
CONTINUOUS
 10
107.6400665206
 20
25.2110812033
 11
109.0396907339
 21
25.2133566065
  0
LINE
  5
222
100
AcDbEntity
  8
0
100
AcDbLine
 62
7
  6
CONTINUOUS
 10
107.6400491269
 20
25.2593922519
 11
106.3803867555
 21
25.2589384869
  0
LINE
  5
223
100
AcDbEntity
  8
0
100
AcDbLine
 62
7
  6
CONTINUOUS
 10
106.8549176348
 20
20.2110815276
 11
108.9257585904
 21
20.2115857109
  0
LINE
  5
224
100
AcDbEntity
  8
0
100
AcDbLine
 62
7
  6
CONTINUOUS
 10
105.5952378698
 20
20.2589388111
 11
107.5261214967
 21
20.2593925761
  0
LINE
  5
225
100
AcDbEntity
  8
0
100
AcDbLine
 62
7
  6
CONTINUOUS
 10
99.2695826392
 20
21.8958057236
 11
99.8722473612
 21
21.8958057236
  0
LINE
  5
226
100
AcDbEntity
  8
0
100
AcDbLine
 62
7
  6
CONTINUOUS
 10
105.5779742785
 20
20.2623684232
 11
105.5822192669
 21
20.2613616567
  0
LINE
  5
227
100
AcDbEntity
  8
0
100
AcDbLine
 62
7
  6
CONTINUOUS
 10
99.262226566
 20
21.8976181441
 11
99.2695826392
 21
21.8958057235
  0
LINE
  5
228
100
AcDbEntity
  8
0
100
AcDbLine
 62
7
  6
CONTINUOUS
 10
106.2606501293
 20
20.2613616567
 11
99.8722473612
 21
21.8958057236
  0
LINE
  5
229
100
AcDbEntity
  8
0
100
AcDbLine
 62
7
  6
CONTINUOUS
 10
99.2619253886
 20
21.8976959801
 11
105.5822192669
 21
20.2613616567
  0
LINE
  5
22A
100
AcDbEntity
  8
0
100
AcDbLine
 62
7
  6
CONTINUOUS
 10
93.4135942323
 20
30.1246169721
 11
92.9678230901
 21
30.1246169721
  0
LINE
  5
22B
100
AcDbEntity
  8
0
100
AcDbLine
 62
7
  6
CONTINUOUS
 10
99.9825709784
 20
26.7376342569
 11
106.3709737465
 21
25.1031901901
  0
LINE
  5
22C
100
AcDbEntity
  8
0
100
AcDbLine
 62
7
  6
CONTINUOUS
 10
138.2069313321
 20
40.310528394
 11
138.1895537164
 21
40.3105210478
  0
LINE
  5
22D
100
AcDbEntity
  8
0
100
AcDbLine
 62
7
  6
CONTINUOUS
 10
138.1896496761
 20
88.3105252813
 11
138.1722720604
 21
88.3105179352
  0
LINE
  5
22E
100
AcDbEntity
  8
0
100
AcDbLine
 62
7
  6
CONTINUOUS
 10
79.5507949085
 20
218.2987948301
 11
79.5430569222
 21
218.2813953662
  0
LINE
  5
22F
100
AcDbEntity
  8
0
100
AcDbLine
 62
7
  6
CONTINUOUS
 10
78.3893538067
 20
213.949171411
 11
78.3898459245
 21
213.9502079749
  0
LINE
  5
230
100
AcDbEntity
  8
0
100
AcDbLine
 62
7
  6
CONTINUOUS
 10
108.5533754749
 20
95.1153714725
 11
107.6149001091
 21
95.1110766705
  0
LINE
  5
231
100
AcDbEntity
  8
0
100
AcDbLine
 62
7
  6
CONTINUOUS
 10
106.3552383458
 20
95.1089339573
 11
107.6149007172
 21
95.1093877223
  0
LINE
  5
232
100
AcDbEntity
  8
0
100
AcDbLine
 62
7
  6
CONTINUOUS
 10
109.0145274337
 20
95.1115808539
 11
130.7950787623
 21
95.1200397211
  0
LINE
  5
233
100
AcDbEntity
  8
0
100
AcDbLine
 62
7
  6
CONTINUOUS
 10
109.0145241836
 20
95.1145616411
 11
107.6148993265
 21
95.1140574577
  0
LINE
  5
234
100
AcDbEntity
  8
0
100
AcDbLine
 62
7
  6
CONTINUOUS
 10
109.0145249662
 20
95.1115808539
 11
108.5533754749
 21
95.1153714725
  0
LINE
  5
235
100
AcDbEntity
  8
0
100
AcDbLine
 62
7
  6
CONTINUOUS
 10
79.4941338248
 20
218.3031527181
 11
79.3805187295
 21
217.915934724
  0
LWPOLYLINE
  5
236
100
AcDbEntity
  8
0
100
AcDbPolyline
 62
7
  6
CONTINUOUS
 90
6
 70
0
 10
79.4998137132
 20
218.3183738326
 10
79.3868062825
 20
217.9854861226
 10
79.0986803144
 20
216.9456992569
 10
78.9216380929
 20
216.2376720657
 10
78.5210481456
 20
214.5345999058
 10
78.3893525972
 20
213.9491690049
  0
LINE
  5
237
100
AcDbEntity
  8
0
100
AcDbLine
 62
7
  6
CONTINUOUS
 10
79.5008164935
 20
218.3210215087
 11
79.4941338248
 21
218.3031527181
  0
LINE
  5
238
100
AcDbEntity
  8
0
100
AcDbLine
 62
7
  6
CONTINUOUS
 10
79.4941338248
 20
218.3031527181
 11
79.4976344497
 21
218.3119543427
  0
LINE
  5
239
100
AcDbEntity
  8
0
100
AcDbLine
 62
7
  6
CONTINUOUS
 10
79.5791875488
 20
218.4275843141
 11
79.5707366604
 21
218.4069726371
  0
LINE
  5
23A
100
AcDbEntity
  8
0
100
AcDbLine
 62
7
  6
CONTINUOUS
 10
73.0935093083
 20
190.1285081249
 11
73.0940338033
 21
190.1296899002
  0
LWPOLYLINE
  5
23B
100
AcDbEntity
  8
0
100
AcDbPolyline
 62
7
  6
CONTINUOUS
 90
4
 70
0
 10
73.0935091796
 20
190.1285074984
 10
72.949169141
 20
189.2534192106
 10
72.9095647568
 20
188.0381136984
 10
72.9918945117
 20
187.1863315905
  0
LINE
  5
23C
100
AcDbEntity
  8
0
100
AcDbLine
 62
7
  6
CONTINUOUS
 10
77.0702811096
 20
208.017383023
 11
78.3898459301
 21
213.950208341
  0
LINE
  5
23D
100
AcDbEntity
  8
0
100
AcDbLine
 62
7
  6
CONTINUOUS
 10
78.2415575794
 20
212.9191269391
 11
75.5598817063
 21
200.9181601475
  0
LINE
  5
23E
100
AcDbEntity
  8
0
100
AcDbLine
 62
7
  6
CONTINUOUS
 10
75.9696748982
 20
200.9183077663
 11
78.6513507713
 21
212.9192745579
  0
LINE
  5
23F
100
AcDbEntity
  8
0
100
AcDbLine
 62
7
  6
CONTINUOUS
 10
77.4755214835
 20
207.4418375608
 11
77.4005970956
 21
207.1065378701
  0
LINE
  5
240
100
AcDbEntity
  8
0
100
AcDbLine
 62
7
  6
CONTINUOUS
 10
78.019201766
 20
209.5928645126
 11
78.1842415696
 21
210.3314463906
  0
LINE
  5
241
100
AcDbEntity
  8
0
100
AcDbLine
 62
7
  6
CONTINUOUS
 10
78.3117717289
 20
210.5791096939
 11
77.9602178243
 21
209.0058447158
  0
LINE
  5
242
100
AcDbEntity
  8
0
100
AcDbLine
 62
7
  6
CONTINUOUS
 10
77.9536426031
 20
208.9764194552
 11
77.4660898044
 21
206.7945357289
  0
LINE
  5
243
100
AcDbEntity
  8
0
100
AcDbLine
 62
7
  6
CONTINUOUS
 10
77.4852055932
 20
206.7945357289
 11
77.8485692255
 21
208.4206512961
  0
LINE
  5
244
100
AcDbEntity
  8
0
100
AcDbLine
 62
7
  6
CONTINUOUS
 10
77.9718567543
 20
208.9723844695
 11
77.9784245143
 21
209.0017763401
  0
LINE
  5
245
100
AcDbEntity
  8
0
100
AcDbLine
 62
7
  6
CONTINUOUS
 10
78.0687872673
 20
209.4061654046
 11
78.3308875177
 21
210.5791096939
  0
LINE
  5
246
100
AcDbEntity
  8
0
100
AcDbLine
 62
7
  6
CONTINUOUS
 10
77.8328341403
 20
208.2487849027
 11
77.6313592295
 21
207.3471495717
  0
LINE
  5
247
100
AcDbEntity
  8
0
100
AcDbLine
 62
7
  6
CONTINUOUS
 10
78.1080474123
 20
209.3544544846
 11
77.7181949411
 21
207.6097967476
  0
LINE
  5
248
100
AcDbEntity
  8
0
100
AcDbLine
 62
7
  6
CONTINUOUS
 10
77.6551844451
 20
207.2422671475
 11
77.923128313
 21
208.4413626432
  0
LINE
  5
249
100
AcDbEntity
  8
0
100
AcDbLine
 62
7
  6
CONTINUOUS
 10
77.9262135495
 20
208.3527850959
 11
77.5778178192
 21
206.7936534979
  0
LINE
  5
24A
100
AcDbEntity
  8
0
100
AcDbLine
 62
7
  6
CONTINUOUS
 10
77.4768938797
 20
206.3419543823
 11
76.9836450204
 21
204.1345797925
  0
LINE
  5
24B
100
AcDbEntity
  8
0
100
AcDbLine
 62
7
  6
CONTINUOUS
 10
77.0547982886
 20
204.4197012159
 11
77.2081200164
 21
205.1058426626
  0
LINE
  5
24C
100
AcDbEntity
  8
0
100
AcDbLine
 62
7
  6
CONTINUOUS
 10
77.2719302152
 20
205.3914044207
 11
77.4206238892
 21
206.0568345203
  0
LINE
  5
24D
100
AcDbEntity
  8
0
100
AcDbLine
 62
7
  6
CONTINUOUS
 10
77.5969232018
 20
206.7936534979
 11
77.6489865197
 21
207.026645917
  0
LINE
  5
24E
100
AcDbEntity
  8
0
100
AcDbLine
 62
7
  6
CONTINUOUS
 10
77.5246990537
 20
206.3419543823
 11
77.0311550095
 21
204.1332587883
  0
LINE
  5
24F
100
AcDbEntity
  8
0
100
AcDbLine
 62
7
  6
CONTINUOUS
 10
77.0379693958
 20
204.1332587883
 11
77.1035602989
 21
204.4267895083
  0
LINE
  5
250
100
AcDbEntity
  8
0
100
AcDbLine
 62
7
  6
CONTINUOUS
 10
77.3220235871
 20
205.4044507883
 11
77.5315134401
 21
206.3419543823
  0
LINE
  5
251
100
AcDbEntity
  8
0
100
AcDbLine
 62
7
  6
CONTINUOUS
 10
78.2475959593
 20
209.3544544846
 11
77.6738952376
 21
206.7870437925
  0
LINE
  5
252
100
AcDbEntity
  8
0
100
AcDbLine
 62
7
  6
CONTINUOUS
 10
77.1180584745
 20
204.2773606716
 11
77.1405271616
 21
204.3779119614
  0
LINE
  5
253
100
AcDbEntity
  8
0
100
AcDbLine
 62
7
  6
CONTINUOUS
 10
77.6930110264
 20
206.7870437925
 11
77.7419113796
 21
207.0058813937
  0
LINE
  5
254
100
AcDbEntity
  8
0
100
AcDbLine
 62
7
  6
CONTINUOUS
 10
78.2440305766
 20
209.2529522902
 11
78.2667117481
 21
209.3544544846
  0
LINE
  5
255
100
AcDbEntity
  8
0
100
AcDbLine
 62
7
  6
CONTINUOUS
 10
76.3931218856
 20
200.9181601475
 11
79.0747977587
 21
212.9191269391
  0
LINE
  5
256
100
AcDbEntity
  8
0
100
AcDbLine
 62
7
  6
CONTINUOUS
 10
77.3648075696
 20
205.994697356
 11
77.4702809364
 21
206.4560916432
  0
LINE
  5
257
100
AcDbEntity
  8
0
100
AcDbLine
 62
7
  6
CONTINUOUS
 10
77.2677964386
 20
205.7355775424
 11
77.0726307198
 21
204.8837390729
  0
LINE
  5
258
100
AcDbEntity
  8
0
100
AcDbLine
 62
7
  6
CONTINUOUS
 10
77.0319296934
 20
204.769601812
 11
76.9167432816
 21
204.2681073963
  0
LINE
  5
259
100
AcDbEntity
  8
0
100
AcDbLine
 62
7
  6
CONTINUOUS
 10
77.1120158877
 20
204.9520440464
 11
77.3360393601
 21
205.927273052
  0
LINE
  5
25A
100
AcDbEntity
  8
0
100
AcDbLine
 62
7
  6
CONTINUOUS
 10
77.2976399712
 20
205.7161871995
 11
77.2249655369
 21
205.4002173613
  0
LINE
  5
25B
100
AcDbEntity
  8
0
100
AcDbLine
 62
7
  6
CONTINUOUS
 10
77.1563111119
 20
205.1005539614
 11
77.0835891046
 21
204.7850260194
  0
LINE
  5
25C
100
AcDbEntity
  8
0
100
AcDbLine
 62
7
  6
CONTINUOUS
 10
77.0988162933
 20
205.061774837
 11
77.1721892022
 21
205.3786253447
  0
LINE
  5
25D
100
AcDbEntity
  8
0
100
AcDbLine
 62
7
  6
CONTINUOUS
 10
77.239764218
 20
205.6769661789
 11
77.3131014285
 21
205.9933763518
  0
LINE
  5
25E
100
AcDbEntity
  8
0
100
AcDbLine
 62
7
  6
CONTINUOUS
 10
130.1067250984
 20
116.0547541211
 11
132.297825216
 21
116.2707323689
  0
LINE
  5
25F
100
AcDbEntity
  8
0
100
AcDbLine
 62
7
  6
CONTINUOUS
 10
131.5712178691
 20
116.1996163836
 11
132.2978046943
 21
116.2700281834
  0
LINE
  5
260
100
AcDbEntity
  8
0
100
AcDbLine
 62
7
  6
CONTINUOUS
 10
106.4234482495
 20
114.58808822
 11
107.6831106209
 21
114.588541985
  0
LINE
  5
261
100
AcDbEntity
  8
0
100
AcDbLine
 62
7
  6
CONTINUOUS
 10
107.6831097422
 20
114.5902349278
 11
109.0077778405
 21
114.5907121096
  0
LINE
  5
262
100
AcDbEntity
  8
0
100
AcDbLine
 62
7
  6
CONTINUOUS
 10
89.0661741216
 20
114.0587367679
 11
89.0661388078
 21
114.0587652126
  0
LWPOLYLINE
  5
263
100
AcDbEntity
  8
0
100
AcDbPolyline
 62
7
  6
CONTINUOUS
 90
4
 70
0
 10
84.8630526092
 20
118.0972152678
 10
85.8848004069
 20
117.0257521076
 10
87.6264069256
 20
115.2781358063
 10
89.0661773997
 20
114.0587307119
  0
LWPOLYLINE
  5
264
100
AcDbEntity
  8
0
100
AcDbPolyline
 62
7
  6
CONTINUOUS
 90
6
 70
0
 10
88.1917035087
 20
114.0307863888
 10
89.1834136211
 20
112.9753632473
 10
90.1771449999
 20
111.0389902732
 10
91.0514447412
 20
108.2530577838
 10
92.0347072563
 20
103.8285618375
 10
92.7917435208
 20
98.9058829939
  0
LWPOLYLINE
  5
265
100
AcDbEntity
  8
0
100
AcDbPolyline
 62
7
  6
CONTINUOUS
 90
4
 70
0
 10
84.0009787815
 20
118.1180092583
 10
84.9723182189
 20
117.0808352806
 10
86.7201845613
 20
115.2969550928
 10
88.1916917821
 20
114.0307922805
  0
LWPOLYLINE
  5
266
100
AcDbEntity
  8
0
100
AcDbPolyline
 62
7
  6
CONTINUOUS
 90
6
 70
0
 10
89.0661388078
 20
114.0587652126
 10
90.08587738
 20
112.9550130349
 10
91.1832041304
 20
110.6285456317
 10
91.6734382832
 20
109.018322033
 10
92.7038103522
 20
104.323812474
 10
93.4610735555
 20
98.9309027206
  0
LINE
  5
267
100
AcDbEntity
  8
0
100
AcDbLine
 62
7
  6
CONTINUOUS
 10
84.0009541104
 20
118.1178385105
 11
83.4651783907
 21
118.936279017
  0
LWPOLYLINE
  5
268
100
AcDbEntity
  8
0
100
AcDbPolyline
 62
7
  6
CONTINUOUS
 90
4
 70
0
 10
92.96558034
 20
30.043825842
 10
93.7239652554
 20
26.5446054078
 10
96.1669090783
 20
23.4312428852
 10
99.2622319385
 20
21.897616753
  0
LINE
  5
269
100
AcDbEntity
  8
0
100
AcDbLine
 62
7
  6
CONTINUOUS
 10
82.5733142099
 20
124.015995764
 11
82.5723180232
 21
124.0259980442
  0
LWPOLYLINE
  5
26A
100
AcDbEntity
  8
0
100
AcDbPolyline
 62
7
  6
CONTINUOUS
 90
3
 70
0
 10
82.5733148773
 20
124.015991501
 10
82.9086235937
 20
121.9020771996
 10
83.0949629902
 20
120.7520597984
  0
LWPOLYLINE
  5
26B
100
AcDbEntity
  8
0
100
AcDbPolyline
 62
7
  6
CONTINUOUS
 90
3
 70
0
 10
81.0209693625
 20
133.9511338926
 10
81.5710650041
 20
130.4267366987
 10
82.5733158382
 20
124.0159853651
  0
LINE
  5
26C
100
AcDbEntity
  8
0
100
AcDbLine
 62
7
  6
CONTINUOUS
 10
83.0608970345
 20
120.965563932
 11
73.8578420192
 21
181.6740923944
  0
LINE
  5
26D
100
AcDbEntity
  8
0
100
AcDbLine
 62
7
  6
CONTINUOUS
 10
74.7398657123
 20
181.6740923944
 11
83.9613007157
 21
120.8180443161
  0
LWPOLYLINE
  5
26E
100
AcDbEntity
  8
0
100
AcDbPolyline
 62
7
  6
CONTINUOUS
 90
4
 70
0
 10
72.9918945062
 20
187.1863316276
 10
75.6426488716
 20
169.6048329085
 10
78.353945642
 20
151.6281164941
 10
81.0209691994
 20
133.9511349552
  0
LINE
  5
26F
100
AcDbEntity
  8
0
100
AcDbLine
 62
7
  6
CONTINUOUS
 10
92.7917703279
 20
98.9055738907
 11
92.7917435208
 21
98.9058829939
  0
LWPOLYLINE
  5
270
100
AcDbEntity
  8
0
100
AcDbPolyline
 62
7
  6
CONTINUOUS
 90
4
 70
0
 10
92.7917488544
 20
98.9055653289
 10
92.8146321712
 20
98.6085230467
 10
92.8397432604
 20
98.0907713847
 10
92.8437561694
 20
97.9168874019
  0
LINE
  5
271
100
AcDbEntity
  8
0
100
AcDbLine
 62
7
  6
CONTINUOUS
 10
93.4610356187
 20
98.9304201221
 11
93.4610021563
 21
98.9309407909
  0
LWPOLYLINE
  5
272
100
AcDbEntity
  8
0
100
AcDbPolyline
 62
7
  6
CONTINUOUS
 90
4
 70
0
 10
93.4610356187
 20
98.9304201221
 10
93.472326491
 20
98.7329771125
 10
93.4872572403
 20
98.3026877692
 10
93.4898053965
 20
98.0603208175
  0
LINE
  5
273
100
AcDbEntity
  8
0
100
AcDbLine
 62
7
  6
CONTINUOUS
 10
95.4781767932
 20
236.1443734986
 11
95.4369378191
 21
235.5269665395
  0
LINE
  5
274
100
AcDbEntity
  8
0
100
AcDbLine
 62
7
  6
CONTINUOUS
 10
96.6055612793
 20
244.8617281545
 11
95.4781767956
 21
236.1443735259
  0
LINE
  5
275
100
AcDbEntity
  8
0
100
AcDbLine
 62
7
  6
CONTINUOUS
 10
81.0209757612
 20
133.951091471
 11
81.0211789404
 21
133.9515092677
  0
LINE
  5
276
100
AcDbEntity
  8
0
100
AcDbLine
 62
7
  6
CONTINUOUS
 10
107.7513205246
 20
134.0676962477
 11
82.8709544363
 21
134.0579484718
  0
LWPOLYLINE
  5
277
100
AcDbEntity
  8
0
100
AcDbPolyline
 62
7
  6
CONTINUOUS
 90
4
 70
0
 10
92.8437588884
 20
97.9167064969
 10
92.8774737899
 20
95.7151603801
 10
92.91229782
 20
93.4659719958
 10
92.9457589803
 20
91.4079338989
  0
LINE
  5
278
100
AcDbEntity
  8
0
100
AcDbLine
 62
7
  6
CONTINUOUS
 10
92.9408093057
 20
91.7021738579
 11
92.9434967181
 21
91.3818205005
  0
LINE
  5
279
100
AcDbEntity
  8
0
100
AcDbLine
 62
7
  6
CONTINUOUS
 10
92.843817606
 20
97.9227787049
 11
92.8418669921
 21
103.340631202
  0
LINE
  5
27A
100
AcDbEntity
  8
0
100
AcDbLine
 62
7
  6
CONTINUOUS
 10
92.965575068
 20
30.0438472401
 11
92.9434913177
 21
91.3817157609
  0
LINE
  5
27B
100
AcDbEntity
  8
0
100
AcDbLine
 62
7
  6
CONTINUOUS
 10
92.9678230901
 20
30.1246169721
 11
92.9457589803
 21
91.4079338989
  0
LINE
  5
27C
100
AcDbEntity
  8
0
100
AcDbLine
 62
7
  6
CONTINUOUS
 10
93.3915509599
 20
91.3500578883
 11
93.4135942323
 21
30.1246169721
  0
LINE
  5
27D
100
AcDbEntity
  8
0
100
AcDbLine
 62
7
  6
CONTINUOUS
 10
93.4898036022
 20
98.0569801635
 11
93.4898020165
 21
98.0605354029
  0
LINE
  5
27E
100
AcDbEntity
  8
0
100
AcDbLine
 62
7
  6
CONTINUOUS
 10
93.4886927363
 20
98.1661510879
 11
93.4887904132
 21
97.8948523917
  0
LINE
  5
27F
100
AcDbEntity
  8
0
100
AcDbLine
 62
7
  6
CONTINUOUS
 10
99.9825709784
 20
26.7376342569
 11
99.958250302
 21
94.2885910703
  0
LINE
  5
280
100
AcDbEntity
  8
0
100
AcDbLine
 62
7
  6
CONTINUOUS
 10
92.9655755082
 20
30.0426247451
 11
92.9655754601
 21
30.0427897619
  0
LINE
  5
281
100
AcDbEntity
  8
0
100
AcDbLine
 62
7
  6
CONTINUOUS
 10
95.3795881139
 20
223.5215166455
 11
95.4369378191
 21
235.5269665395
  0
LINE
  5
282
100
AcDbEntity
  8
0
100
AcDbLine
 62
7
  6
CONTINUOUS
 10
98.6449891328
 20
247.6717657994
 11
98.6712621822
 21
253.1717030133
  0
LINE
  5
283
100
AcDbEntity
  8
0
100
AcDbLine
 62
7
  6
CONTINUOUS
 10
99.6855815268
 20
256.1668918482
 11
99.7118545762
 21
261.6668290621
  0
LINE
  5
284
100
AcDbEntity
  8
0
100
AcDbLine
 62
7
  6
CONTINUOUS
 10
100.6261750618
 20
264.6624955889
 11
100.6524481111
 21
270.1624328028
  0
LINE
  5
285
100
AcDbEntity
  8
0
100
AcDbLine
 62
7
  6
CONTINUOUS
 10
93.4887904132
 20
97.8948523917
 11
93.4898036022
 21
98.0569801635
  0
LINE
  5
286
100
AcDbEntity
  8
0
100
AcDbLine
 62
7
  6
CONTINUOUS
 10
92.843817606
 20
97.9227787049
 11
92.8437561667
 21
97.9168875929
  0
LINE
  5
287
100
AcDbEntity
  8
0
100
AcDbLine
 62
7
  6
CONTINUOUS
 10
92.9655754601
 20
30.0427897619
 11
92.9678230901
 21
30.1246169721
  0
LINE
  5
288
100
AcDbEntity
  8
0
100
AcDbLine
 62
7
  6
CONTINUOUS
 10
92.9457589803
 20
91.4079338989
 11
92.943491219
 21
91.3820161513
  0
LINE
  5
289
100
AcDbEntity
  8
0
100
AcDbLine
 62
7
  6
CONTINUOUS
 10
92.7917435208
 20
98.9058829939
 11
92.7955081608
 21
98.9454151108
  0
LINE
  5
28A
100
AcDbEntity
  8
0
100
AcDbLine
 62
7
  6
CONTINUOUS
 10
132.7935401118
 20
134.2302241039
 11
128.8482177203
 21
134.2167228715
  0
LINE
  5
28B
100
AcDbEntity
  8
0
100
AcDbLine
 62
7
  6
CONTINUOUS
 10
72.9918945117
 20
187.1863315905
 11
72.9922852728
 21
187.1854991573
  0
LINE
  5
28C
100
AcDbEntity
  8
0
100
AcDbLine
 62
7
  6
CONTINUOUS
 10
106.3803867555
 20
25.2589384868
 11
106.3552383458
 21
95.1089339573
  0
LINE
  5
28D
100
AcDbEntity
  8
0
100
AcDbLine
 62
7
  6
CONTINUOUS
 10
106.4916581532
 20
134.0672424826
 11
106.4629726914
 21
213.7414404062
  0
LINE
  5
28E
100
AcDbEntity
  8
0
100
AcDbLine
 62
7
  6
CONTINUOUS
 10
106.9822008947
 20
20.259196641
 11
106.9822182178
 21
20.2110815276
  0
LINE
  5
28F
100
AcDbEntity
  8
0
100
AcDbLine
 62
7
  6
CONTINUOUS
 10
107.3321244321
 20
20.2112075734
 11
107.332107109
 21
20.2593227242
  0
LINE
  5
290
100
AcDbEntity
  8
0
100
AcDbLine
 62
7
  6
CONTINUOUS
 10
107.3988209303
 20
20.2593467435
 11
107.3988383074
 21
20.2110815276
  0
LINE
  5
291
100
AcDbEntity
  8
0
100
AcDbLine
 62
7
  6
CONTINUOUS
 10
107.6400665206
 20
25.2110812033
 11
107.6149001091
 21
95.1110766705
  0
LINE
  5
292
100
AcDbEntity
  8
0
100
AcDbLine
 62
7
  6
CONTINUOUS
 10
107.7226350628
 20
213.7418941712
 11
107.7513205246
 21
134.0676962477
  0
LINE
  5
293
100
AcDbEntity
  8
0
100
AcDbLine
 62
7
  6
CONTINUOUS
 10
109.0396907339
 20
25.2133566065
 11
109.0145249662
 21
95.1115808539
  0
LINE
  5
294
100
AcDbEntity
  8
0
100
AcDbLine
 62
7
  6
CONTINUOUS
 10
108.9723073145
 20
213.7223443362
 11
109.0009850182
 21
134.0698130749
  0
LINE
  5
295
100
AcDbEntity
  8
0
100
AcDbLine
 62
7
  6
CONTINUOUS
 10
101.7667663148
 20
273.1571439459
 11
101.7930393642
 21
278.6570811598
  0
LINE
  5
296
100
AcDbEntity
  8
0
100
AcDbLine
 62
7
  6
CONTINUOUS
 10
106.5772473482
 20
237.2270249784
 11
106.4289290291
 21
224.2693991604
  0
LINE
  5
297
100
AcDbEntity
  8
0
100
AcDbLine
 62
7
  6
CONTINUOUS
 10
109.577050837
 20
237.1926879928
 11
109.4287325179
 21
224.2350621748
  0
LINE
  5
298
100
AcDbEntity
  8
0
100
AcDbLine
 62
7
  6
CONTINUOUS
 10
113.066637387
 20
273.1031647715
 11
113.0929104364
 21
278.6031019854
  0
LINE
  5
299
100
AcDbEntity
  8
0
100
AcDbLine
 62
7
  6
CONTINUOUS
 10
114.126021033
 20
264.5980071946
 11
114.1522940824
 21
270.0979444085
  0
LINE
  5
29A
100
AcDbEntity
  8
0
100
AcDbLine
 62
7
  6
CONTINUOUS
 10
114.9854069609
 20
256.0938050014
 11
115.0116800102
 21
261.5937422153
  0
LINE
  5
29B
100
AcDbEntity
  8
0
100
AcDbLine
 62
7
  6
CONTINUOUS
 10
115.9447917478
 20
247.5891251164
 11
115.9710647971
 21
253.0890623303
  0
LINE
  5
29C
100
AcDbEntity
  8
0
100
AcDbLine
 62
7
  6
CONTINUOUS
 10
118.984357366
 20
224.4635324895
 11
119.036668554
 21
235.4142312725
  0
LINE
  5
29D
100
AcDbEntity
  8
0
100
AcDbLine
 62
7
  6
CONTINUOUS
 10
119.0013299996
 20
236.0320040404
 11
119.036668554
 21
235.4142312725
  0
LINE
  5
29E
100
AcDbEntity
  8
0
100
AcDbLine
 62
7
  6
CONTINUOUS
 10
126.1671569183
 20
208.1852117549
 11
126.1691898629
 21
202.5360431795
  0
LWPOLYLINE
  5
29F
100
AcDbEntity
  8
0
100
AcDbPolyline
 62
7
  6
CONTINUOUS
 90
6
 70
0
 10
138.6946480365
 20
35.827913906
 10
138.6836604414
 20
35.9940517105
 10
138.5340779369
 20
36.9216997181
 10
138.4169349374
 20
37.6414697615
 10
138.2249215994
 20
39.548641165
 10
138.2069313321
 20
40.310528394
  0
LWPOLYLINE
  5
2A0
100
AcDbEntity
  8
0
100
AcDbPolyline
 62
7
  6
CONTINUOUS
 90
6
 70
0
 10
138.6773663805
 20
83.8279107933
 10
138.6663787854
 20
83.9940485978
 10
138.5167962809
 20
84.9216966054
 10
138.3996532815
 20
85.6414666488
 10
138.2076399434
 20
87.5486380523
 10
138.1896496761
 20
88.3105252813
  0
LINE
  5
2A1
100
AcDbEntity
  8
0
100
AcDbLine
 62
7
  6
CONTINUOUS
 10
128.8420674904
 20
142.2057979892
 11
128.8482177203
 21
134.2167228715
  0
LINE
  5
2A2
100
AcDbEntity
  8
0
100
AcDbLine
 62
7
  6
CONTINUOUS
 10
128.840876693
 20
145.5132513618
 11
128.8203461737
 21
202.5370032071
  0
LINE
  5
2A3
100
AcDbEntity
  8
0
100
AcDbLine
 62
7
  6
CONTINUOUS
 10
131.3834201263
 20
25.9727058256
 11
131.35856477
 21
95.0087418403
  0
LINE
  5
2A4
100
AcDbEntity
  8
0
100
AcDbLine
 62
7
  6
CONTINUOUS
 10
131.7898962053
 20
94.9300405627
 11
131.8147172583
 21
25.9892823922
  0
LINE
  5
2A5
100
AcDbEntity
  8
0
100
AcDbLine
 62
7
  6
CONTINUOUS
 10
132.7700400077
 20
202.3100526692
 11
132.7859277776
 21
158.1815904243
  0
LINE
  5
2A6
100
AcDbEntity
  8
0
100
AcDbLine
 62
7
  6
CONTINUOUS
 10
132.7938672993
 20
136.1294779864
 11
132.7935401118
 21
134.2302241039
  0
LINE
  5
2A7
100
AcDbEntity
  8
0
100
AcDbLine
 62
7
  6
CONTINUOUS
 10
142.7392373853
 20
172.3120930046
 11
144.2829062112
 21
172.3127059361
  0
LINE
  5
2A8
100
AcDbEntity
  8
0
100
AcDbLine
 62
7
  6
CONTINUOUS
 10
117.6197726359
 20
247.5811237943
 11
119.0013299975
 21
236.0320040676
  0
LWPOLYLINE
  5
2A9
100
AcDbEntity
  8
0
100
AcDbPolyline
 62
7
  6
CONTINUOUS
 90
4
 70
0
 10
144.0342112299
 20
139.2629038586
 10
143.9913900366
 20
140.7118048046
 10
143.685673627
 20
141.6070827752
 10
143.0556611906
 20
142.5496536212
  0
LINE
  5
2AA
100
AcDbEntity
  8
0
100
AcDbLine
 62
7
  6
CONTINUOUS
 10
138.6949622052
 20
35.810415999
 11
138.6947035255
 21
35.8286287741
  0
LINE
  5
2AB
100
AcDbEntity
  8
0
100
AcDbLine
 62
7
  6
CONTINUOUS
 10
138.6776805493
 20
83.8104128863
 11
138.6774218695
 21
83.8286256614
  0
LINE
  5
2AC
100
AcDbEntity
  8
0
100
AcDbLine
 62
7
  6
CONTINUOUS
 10
138.698433756
 20
26.1681442127
 11
138.6949622052
 21
35.810415999
  0
LINE
  5
2AD
100
AcDbEntity
  8
0
100
AcDbLine
 62
7
  6
CONTINUOUS
 10
138.6917220057
 20
44.8101072382
 11
138.6776805493
 21
83.8104128863
  0
LINE
  5
2AE
100
AcDbEntity
  8
0
100
AcDbLine
 62
7
  6
CONTINUOUS
 10
138.6744403497
 20
92.8101041255
 11
138.6737003949
 21
94.8653370317
  0
LINE
  5
2AF
100
AcDbEntity
  8
0
100
AcDbLine
 62
7
  6
CONTINUOUS
 10
142.326258803
 20
173.1119376201
 11
142.3174739612
 21
197.5119360379
  0
LINE
  5
2B0
100
AcDbEntity
  8
0
100
AcDbLine
 62
7
  6
CONTINUOUS
 10
143.8737707312
 20
198.3125603172
 11
143.8831316282
 21
172.3125620032
  0
LINE
  5
2B1
100
AcDbEntity
  8
0
100
AcDbLine
 62
7
  6
CONTINUOUS
 10
144.2833894202
 20
171.5866172909
 11
144.2831280032
 21
172.312706016
  0
LINE
  5
2B2
100
AcDbEntity
  8
0
100
AcDbLine
 62
7
  6
CONTINUOUS
 10
144.2737671062
 20
198.31270433
 11
144.273393671
 21
199.3499249382
  0
LWPOLYLINE
  5
2B3
100
AcDbEntity
  8
0
100
AcDbPolyline
 62
7
  6
CONTINUOUS
 90
3
 70
0
 10
138.6736782852
 20
94.8648812995
 10
138.6742892305
 20
94.9599065394
 10
138.6925299144
 20
95.3807543813
  0
LINE
  5
2B4
100
AcDbEntity
  8
0
100
AcDbLine
 62
7
  6
CONTINUOUS
 10
138.6741922579
 20
92.7917182342
 11
138.6744403497
 21
92.8101041255
  0
LINE
  5
2B5
100
AcDbEntity
  8
0
100
AcDbLine
 62
7
  6
CONTINUOUS
 10
138.6914739138
 20
44.7917213469
 11
138.6917220057
 21
44.8101072382
  0
LWPOLYLINE
  5
2B6
100
AcDbEntity
  8
0
100
AcDbPolyline
 62
7
  6
CONTINUOUS
 90
4
 70
0
 10
138.1896496752
 20
88.3105252814
 10
138.205845749
 20
89.0446815006
 10
138.3954209993
 20
90.9641971178
 10
138.6631306071
 20
92.6260629918
  0
LWPOLYLINE
  5
2B7
100
AcDbEntity
  8
0
100
AcDbPolyline
 62
7
  6
CONTINUOUS
 90
4
 70
0
 10
138.2069313312
 20
40.3105283941
 10
138.223127405
 20
41.0446846131
 10
138.4127026552
 20
42.9642002303
 10
138.6804122631
 20
44.6260661045
  0
LINE
  5
2B8
100
AcDbEntity
  8
0
100
AcDbLine
 62
7
  6
CONTINUOUS
 10
138.6925456698
 20
95.3810259888
 11
138.692540255
 21
95.380824507
  0
LINE
  5
2B9
100
AcDbEntity
  8
0
100
AcDbLine
 62
7
  6
CONTINUOUS
 10
144.2829122746
 20
171.137723377
 11
144.2934350608
 21
171.497981375
  0
LINE
  5
2BA
100
AcDbEntity
  8
0
100
AcDbLine
 62
7
  6
CONTINUOUS
 10
144.2791331802
 20
171.4977934783
 11
144.2833894202
 21
171.5866172909
  0
LINE
  5
2BB
100
AcDbEntity
  8
0
100
AcDbLine
 62
7
  6
CONTINUOUS
 10
138.6631306071
 20
92.6260629918
 11
138.6741351199
 21
92.7934183478
  0
LINE
  5
2BC
100
AcDbEntity
  8
0
100
AcDbLine
 62
7
  6
CONTINUOUS
 10
138.6804122631
 20
44.6260661045
 11
138.6914167759
 21
44.7934214605
  0
LINE
  5
2BD
100
AcDbEntity
  8
0
100
AcDbLine
 62
7
  6
CONTINUOUS
 10
138.692540255
 20
95.380824507
 11
138.72832072
 21
95.8617769427
  0
LWPOLYLINE
  5
2BE
100
AcDbEntity
  8
0
100
AcDbPolyline
 62
7
  6
CONTINUOUS
 90
4
 70
0
 10
138.7285401725
 20
95.8647463415
 10
138.7346048338
 20
95.9399377645
 10
138.7785519214
 20
96.3205478243
 10
138.8217265335
 20
96.5829591499
  0
LINE
  5
2BF
100
AcDbEntity
  8
0
100
AcDbLine
 62
7
  6
CONTINUOUS
 10
140.8320545594
 20
118.2607675473
 11
144.0342798208
 21
139.2631717632
  0
LWPOLYLINE
  5
2C0
100
AcDbEntity
  8
0
100
AcDbPolyline
 62
7
  6
CONTINUOUS
 90
5
 70
0
 10
143.9014456477
 20
167.8028693072
 10
144.0430309436
 20
168.4574104433
 10
144.1674712116
 20
169.4162160525
 10
144.2293522722
 20
170.272607225
 10
144.273260605
 20
171.1366650327
  0
LINE
  5
2C1
100
AcDbEntity
  8
0
100
AcDbLine
 62
7
  6
CONTINUOUS
 10
140.3017142397
 20
153.8231439847
 11
143.9013790565
 21
167.8026071628
  0
LINE
  5
2C2
100
AcDbEntity
  8
0
100
AcDbLine
 62
7
  6
CONTINUOUS
 10
74.1165234077
 20
180.8549327695
 11
74.863730562
 21
180.8549327695
  0
LINE
  5
2C3
100
AcDbEntity
  8
0
100
AcDbLine
 62
7
  6
CONTINUOUS
 10
74.7398657123
 20
181.6740923944
 11
73.8578420192
 21
181.6740923944
  0
LINE
  5
2C4
100
AcDbEntity
  8
0
100
AcDbLine
 62
7
  6
CONTINUOUS
 10
72.9922854952
 20
187.1854992341
 11
73.9347654077
 21
187.1854992341
  0
LWPOLYLINE
  5
2C5
100
AcDbEntity
  8
0
100
AcDbPolyline
 62
7
  6
CONTINUOUS
 90
13
 70
0
 10
144.2734434301
 20
199.351343761
 10
144.2317696026
 20
200.3455570684
 10
144.0119359944
 20
201.8380736749
 10
143.6266338419
 20
203.233329007
 10
143.1033573941
 20
204.5156931688
 10
142.4774546908
 20
205.6629186047
 10
141.7963462045
 20
206.651429077
 10
141.1756362158
 20
207.4021437755
 10
140.7223869077
 20
207.8944484602
 10
140.2152289287
 20
208.4237718035
 10
139.5490790063
 20
209.107232325
 10
138.7379496414
 20
209.9310568288
 10
137.9064138989
 20
210.7697732848
  0
LWPOLYLINE
  5
2C6
100
AcDbEntity
  8
0
100
AcDbPolyline
 62
7
  6
CONTINUOUS
 90
4
 70
0
 10
141.2839233269
 20
108.1207718278
 10
141.4430659559
 20
109.2641553535
 10
141.4030490484
 20
110.7510150907
 10
141.1867789042
 20
111.8691594198
  0
LINE
  5
2C7
100
AcDbEntity
  8
0
100
AcDbLine
 62
7
  6
CONTINUOUS
 10
138.8217660124
 20
96.5831729758
 11
138.8217265335
 21
96.5829591499
  0
LINE
  5
2C8
100
AcDbEntity
  8
0
100
AcDbLine
 62
7
  6
CONTINUOUS
 10
138.8655016028
 20
96.8019788799
 11
138.8217660124
 21
96.5831729758
  0
LINE
  5
2C9
100
AcDbEntity
  8
0
100
AcDbLine
 62
7
  6
CONTINUOUS
 10
138.8598906717
 20
96.7744152413
 11
141.2839251077
 21
108.1207744228
  0
LINE
  5
2CA
100
AcDbEntity
  8
0
100
AcDbLine
 62
7
  6
CONTINUOUS
 10
74.0374944498
 20
190.1296901003
 11
73.0940342833
 21
190.1296901003
  0
LINE
  5
2CB
100
AcDbEntity
  8
0
100
AcDbLine
 62
7
  6
CONTINUOUS
 10
76.8579442184
 20
203.8326561814
 11
76.8162945581
 21
203.8419679942
  0
LINE
  5
2CC
100
AcDbEntity
  8
0
100
AcDbLine
 62
7
  6
CONTINUOUS
 10
76.9348034847
 20
204.2681073963
 11
76.971428067
 21
204.2599190641
  0
LINE
  5
2CD
100
AcDbEntity
  8
0
100
AcDbLine
 62
7
  6
CONTINUOUS
 10
144.2735453142
 20
198.3127042501
 11
142.7298764883
 21
198.3120913186
  0
LINE
  5
2CE
100
AcDbEntity
  8
0
100
AcDbLine
 62
7
  6
CONTINUOUS
 10
132.5430531752
 20
202.5383525995
 11
126.1691859485
 21
202.5360431781
  0
LINE
  5
2CF
100
AcDbEntity
  8
0
100
AcDbLine
 62
7
  6
CONTINUOUS
 10
126.1595942604
 20
202.9360431488
 11
138.992250457
 21
202.940710205
  0
LINE
  5
2D0
100
AcDbEntity
  8
0
100
AcDbLine
 62
7
  6
CONTINUOUS
 10
75.5598817063
 20
200.9181601475
 11
76.3931218856
 21
200.9181601475
  0
LINE
  5
2D1
100
AcDbEntity
  8
0
100
AcDbLine
 62
7
  6
CONTINUOUS
 10
77.0379693958
 20
204.1332587883
 11
77.0311550095
 21
204.1332587883
  0
LINE
  5
2D2
100
AcDbEntity
  8
0
100
AcDbLine
 62
7
  6
CONTINUOUS
 10
77.0139648159
 20
204.1345797925
 11
76.9836450204
 21
204.1345797925
  0
LINE
  5
2D3
100
AcDbEntity
  8
0
100
AcDbLine
 62
7
  6
CONTINUOUS
 10
76.9348034847
 20
204.2681073963
 11
76.9167432816
 21
204.2681073963
  0
LINE
  5
2D4
100
AcDbEntity
  8
0
100
AcDbLine
 62
7
  6
CONTINUOUS
 10
77.0547982886
 20
204.4197012159
 11
77.0776766198
 21
204.4197012159
  0
LINE
  5
2D5
100
AcDbEntity
  8
0
100
AcDbLine
 62
7
  6
CONTINUOUS
 10
77.0435204347
 20
204.769601812
 11
77.0319296934
 21
204.769601812
  0
LINE
  5
2D6
100
AcDbEntity
  8
0
100
AcDbLine
 62
7
  6
CONTINUOUS
 10
77.0835891046
 20
204.7850260194
 11
77.098127146
 21
204.7850260194
  0
LINE
  5
2D7
100
AcDbEntity
  8
0
100
AcDbLine
 62
7
  6
CONTINUOUS
 10
77.1732948058
 20
205.1005539614
 11
77.1563111119
 21
205.1005539614
  0
LINE
  5
2D8
100
AcDbEntity
  8
0
100
AcDbLine
 62
7
  6
CONTINUOUS
 10
77.2295560643
 20
205.1058426626
 11
77.2081200164
 21
205.1058426626
  0
LINE
  5
2D9
100
AcDbEntity
  8
0
100
AcDbLine
 62
7
  6
CONTINUOUS
 10
77.2719302152
 20
205.3914044207
 11
77.2933662631
 21
205.3914044207
  0
LINE
  5
2DA
100
AcDbEntity
  8
0
100
AcDbLine
 62
7
  6
CONTINUOUS
 10
77.2249655369
 20
205.4002173613
 11
77.2435483113
 21
205.4002173613
  0
LINE
  5
2DB
100
AcDbEntity
  8
0
100
AcDbLine
 62
7
  6
CONTINUOUS
 10
77.3164422395
 20
205.7161871995
 11
77.2976399712
 21
205.7161871995
  0
LINE
  5
2DC
100
AcDbEntity
  8
0
100
AcDbLine
 62
7
  6
CONTINUOUS
 10
77.4428437754
 20
206.0568345203
 11
77.4206238892
 21
206.0568345203
  0
LINE
  5
2DD
100
AcDbEntity
  8
0
100
AcDbLine
 62
7
  6
CONTINUOUS
 10
77.4768938797
 20
206.3419543823
 11
77.5065552303
 21
206.3419543823
  0
LINE
  5
2DE
100
AcDbEntity
  8
0
100
AcDbLine
 62
7
  6
CONTINUOUS
 10
77.5246990537
 20
206.3419543823
 11
77.5315134401
 21
206.3419543823
  0
LINE
  5
2DF
100
AcDbEntity
  8
0
100
AcDbLine
 62
7
  6
CONTINUOUS
 10
77.3360393601
 20
205.927273052
 11
77.362321955
 21
205.9213969272
  0
LINE
  5
2E0
100
AcDbEntity
  8
0
100
AcDbLine
 62
7
  6
CONTINUOUS
 10
77.4392282557
 20
206.399942686
 11
77.4029316896
 21
206.4080576821
  0
LINE
  5
2E1
100
AcDbEntity
  8
0
100
AcDbLine
 62
7
  6
CONTINUOUS
 10
77.4005970956
 20
207.1065378701
 11
77.4559269849
 21
207.0941675034
  0
LINE
  5
2E2
100
AcDbEntity
  8
0
100
AcDbLine
 62
7
  6
CONTINUOUS
 10
77.9472946954
 20
208.0435628158
 11
77.8868003183
 21
208.0570878316
  0
LINE
  5
2E3
100
AcDbEntity
  8
0
100
AcDbLine
 62
7
  6
CONTINUOUS
 10
78.0071732519
 20
208.9644885921
 11
77.9718567543
 21
208.9723844695
  0
LINE
  5
2E4
100
AcDbEntity
  8
0
100
AcDbLine
 62
7
  6
CONTINUOUS
 10
78.0803555925
 20
208.9790301594
 11
78.0450372652
 21
208.986926446
  0
LINE
  5
2E5
100
AcDbEntity
  8
0
100
AcDbLine
 62
7
  6
CONTINUOUS
 10
78.0935700439
 20
209.9256755144
 11
78.0664049979
 21
209.931748933
  0
LINE
  5
2E6
100
AcDbEntity
  8
0
100
AcDbLine
 62
7
  6
CONTINUOUS
 10
78.4021104502
 20
209.9087340234
 11
78.3721049555
 21
209.9154424947
  0
LINE
  5
2E7
100
AcDbEntity
  8
0
100
AcDbLine
 62
7
  6
CONTINUOUS
 10
132.7700400077
 20
202.3100526692
 11
132.5430531752
 21
202.5383525995
  0
LINE
  5
2E8
100
AcDbEntity
  8
0
100
AcDbLine
 62
7
  6
CONTINUOUS
 10
133.8582778113
 20
210.9388613256
 11
126.1508269463
 21
210.9360426318
  0
LINE
  5
2E9
100
AcDbEntity
  8
0
100
AcDbLine
 62
7
  6
CONTINUOUS
 10
107.7226422635
 20
213.7218941725
 11
108.9723073145
 21
213.7223443362
  0
LINE
  5
2EA
100
AcDbEntity
  8
0
100
AcDbLine
 62
7
  6
CONTINUOUS
 10
80.1860458478
 20
213.732003687
 11
107.7226350628
 21
213.7418941712
  0
LINE
  5
2EB
100
AcDbEntity
  8
0
100
AcDbLine
 62
7
  6
CONTINUOUS
 10
77.6930110264
 20
206.7870437925
 11
77.6738952376
 21
206.7870437925
  0
LINE
  5
2EC
100
AcDbEntity
  8
0
100
AcDbLine
 62
7
  6
CONTINUOUS
 10
77.5969232018
 20
206.7936534979
 11
77.5778178192
 21
206.7936534979
  0
LINE
  5
2ED
100
AcDbEntity
  8
0
100
AcDbLine
 62
7
  6
CONTINUOUS
 10
77.4852055932
 20
206.7945357289
 11
77.4660898044
 21
206.7945357289
  0
LINE
  5
2EE
100
AcDbEntity
  8
0
100
AcDbLine
 62
7
  6
CONTINUOUS
 10
77.9225346427
 20
207.932816626
 11
77.8788473787
 21
207.932816626
  0
LINE
  5
2EF
100
AcDbEntity
  8
0
100
AcDbLine
 62
7
  6
CONTINUOUS
 10
78.2475959592
 20
209.3544544846
 11
78.2667117481
 21
209.3544544846
  0
LINE
  5
2F0
100
AcDbEntity
  8
0
100
AcDbLine
 62
7
  6
CONTINUOUS
 10
78.1080474123
 20
209.3544544846
 11
78.1271632381
 21
209.3544544846
  0
LINE
  5
2F1
100
AcDbEntity
  8
0
100
AcDbLine
 62
7
  6
CONTINUOUS
 10
78.3117717289
 20
210.5791096939
 11
78.3308875177
 21
210.5791096939
  0
LINE
  5
2F2
100
AcDbEntity
  8
0
100
AcDbLine
 62
7
  6
CONTINUOUS
 10
78.2415575794
 20
212.9191269391
 11
79.0747977587
 21
212.9191269391
  0
LWPOLYLINE
  5
2F3
100
AcDbEntity
  8
0
100
AcDbPolyline
 62
7
  6
CONTINUOUS
 90
3
 70
0
 10
128.4936456977
 20
220.2276714153
 10
128.1747141382
 20
220.5350246397
 10
127.757251776
 20
220.9026983553
  0
LWPOLYLINE
  5
2F4
100
AcDbEntity
  8
0
100
AcDbPolyline
 62
7
  6
CONTINUOUS
 90
3
 70
0
 10
133.9549251392
 20
214.7441214001
 10
131.7132999919
 20
216.9961128028
 10
128.4941003179
 20
220.2272188056
  0
LINE
  5
2F5
100
AcDbEntity
  8
0
100
AcDbLine
 62
7
  6
CONTINUOUS
 10
133.9548835465
 20
214.7441633675
 11
137.9064213577
 21
210.7697662755
  0
LINE
  5
2F6
100
AcDbEntity
  8
0
100
AcDbLine
 62
7
  6
CONTINUOUS
 10
95.3173286249
 20
223.5217873649
 11
95.3795942174
 21
223.5227943218
  0
LINE
  5
2F7
100
AcDbEntity
  8
0
100
AcDbLine
 62
7
  6
CONTINUOUS
 10
106.4291454202
 20
224.2694003581
 11
106.4289290291
 21
224.2693991604
  0
LINE
  5
2F8
100
AcDbEntity
  8
0
100
AcDbLine
 62
7
  6
CONTINUOUS
 10
107.9604740959
 20
223.1157730731
 11
108.781839989
 21
223.1160689517
  0
LINE
  5
2F9
100
AcDbEntity
  8
0
100
AcDbLine
 62
7
  6
CONTINUOUS
 10
106.2725053659
 20
223.1351650217
 11
107.5321677373
 21
223.1356187867
  0
LINE
  5
2FA
100
AcDbEntity
  8
0
100
AcDbLine
 62
7
  6
CONTINUOUS
 10
95.3173370723
 20
223.5217894781
 11
95.329745427
 21
223.5217870623
  0
LINE
  5
2FB
100
AcDbEntity
  8
0
100
AcDbLine
 62
7
  6
CONTINUOUS
 10
109.4287325179
 20
224.2350621748
 11
106.4291454202
 21
224.2694003581
  0
LINE
  5
2FC
100
AcDbEntity
  8
0
100
AcDbLine
 62
7
  6
CONTINUOUS
 10
127.7576825337
 20
220.902087023
 11
127.7639751176
 21
220.8968133948
  0
LINE
  5
2FD
100
AcDbEntity
  8
0
100
AcDbLine
 62
7
  6
CONTINUOUS
 10
95.3174552725
 20
223.5218134523
 11
95.3173286249
 21
223.5217873649
  0
LINE
  5
2FE
100
AcDbEntity
  8
0
100
AcDbLine
 62
7
  6
CONTINUOUS
 10
103.0413790462
 20
241.06684374
 11
105.1073239248
 21
239.8421504342
  0
LINE
  5
2FF
100
AcDbEntity
  8
0
100
AcDbLine
 62
7
  6
CONTINUOUS
 10
104.5711834262
 20
243.6474829165
 11
106.6371283048
 21
242.4227896106
  0
LINE
  5
300
100
AcDbEntity
  8
0
100
AcDbLine
 62
7
  6
CONTINUOUS
 10
106.5772473482
 20
237.2270249784
 11
106.5774637392
 21
237.2270261762
  0
LINE
  5
301
100
AcDbEntity
  8
0
100
AcDbLine
 62
7
  6
CONTINUOUS
 10
95.4369378191
 20
235.5269665395
 11
106.5571945964
 21
235.4751439224
  0
LINE
  5
302
100
AcDbEntity
  8
0
100
AcDbLine
 62
7
  6
CONTINUOUS
 10
106.5642635111
 20
236.0927099218
 11
95.4781767956
 21
236.1443735259
  0
LINE
  5
303
100
AcDbEntity
  8
0
100
AcDbLine
 62
7
  6
CONTINUOUS
 10
107.5099208009
 20
235.470598906
 11
115.1366581795
 21
235.4338103958
  0
LINE
  5
304
100
AcDbEntity
  8
0
100
AcDbLine
 62
7
  6
CONTINUOUS
 10
106.5571945964
 20
235.4751439224
 11
107.053963714
 21
235.472774789
  0
LINE
  5
305
100
AcDbEntity
  8
0
100
AcDbLine
 62
7
  6
CONTINUOUS
 10
119.0013299975
 20
236.0320040676
 11
109.564295748
 21
236.0783572007
  0
LINE
  5
306
100
AcDbEntity
  8
0
100
AcDbLine
 62
7
  6
CONTINUOUS
 10
115.1366581795
 20
235.4338103958
 11
119.036668554
 21
235.4142312725
  0
LINE
  5
307
100
AcDbEntity
  8
0
100
AcDbLine
 62
7
  6
CONTINUOUS
 10
106.5774637392
 20
237.2270261762
 11
109.577050837
 21
237.1926879928
  0
LINE
  5
308
100
AcDbEntity
  8
0
100
AcDbLine
 62
7
  6
CONTINUOUS
 10
105.1075150874
 20
239.8421018674
 11
105.1073239248
 21
239.8421504342
  0
LINE
  5
309
100
AcDbEntity
  8
0
100
AcDbLine
 62
7
  6
CONTINUOUS
 10
103.0413790462
 20
241.06684374
 11
103.0415702088
 21
241.0667951732
  0
LINE
  5
30A
100
AcDbEntity
  8
0
100
AcDbLine
 62
7
  6
CONTINUOUS
 10
97.7370272409
 20
247.676505924
 11
107.5338683528
 21
247.6304454579
  0
LINE
  5
30B
100
AcDbEntity
  8
0
100
AcDbLine
 62
7
  6
CONTINUOUS
 10
107.5338683528
 20
247.6304454579
 11
117.6196449302
 21
247.5811244043
  0
LINE
  5
30C
100
AcDbEntity
  8
0
100
AcDbLine
 62
7
  6
CONTINUOUS
 10
107.5213725883
 20
253.1303826718
 11
98.6712621822
 21
253.1717030133
  0
LINE
  5
30D
100
AcDbEntity
  8
0
100
AcDbLine
 62
7
  6
CONTINUOUS
 10
107.5357033425
 20
256.1303484248
 11
98.6856578104
 21
256.1716684564
  0
LINE
  5
30E
100
AcDbEntity
  8
0
100
AcDbLine
 62
7
  6
CONTINUOUS
 10
107.5213725883
 20
253.1303826718
 11
115.9710647971
 21
253.0890623303
  0
LINE
  5
30F
100
AcDbEntity
  8
0
100
AcDbLine
 62
7
  6
CONTINUOUS
 10
107.5357033425
 20
256.1303484248
 11
115.9853306772
 21
256.0890283932
  0
LINE
  5
310
100
AcDbEntity
  8
0
100
AcDbLine
 62
7
  6
CONTINUOUS
 10
98.733979269
 20
256.1715386708
 11
98.7419110585
 21
256.1714622819
  0
LINE
  5
311
100
AcDbEntity
  8
0
100
AcDbLine
 62
7
  6
CONTINUOUS
 10
107.5388308313
 20
261.6302856387
 11
99.7118545762
 21
261.6668290621
  0
LINE
  5
312
100
AcDbEntity
  8
0
100
AcDbLine
 62
7
  6
CONTINUOUS
 10
107.5531615855
 20
264.6302513918
 11
99.7262420211
 21
264.6667945444
  0
LINE
  5
313
100
AcDbEntity
  8
0
100
AcDbLine
 62
7
  6
CONTINUOUS
 10
107.5388308313
 20
261.6302856387
 11
115.0116800102
 21
261.5937422153
  0
LINE
  5
314
100
AcDbEntity
  8
0
100
AcDbLine
 62
7
  6
CONTINUOUS
 10
107.5531615855
 20
264.6302513918
 11
115.0259540737
 21
264.5937082392
  0
LINE
  5
315
100
AcDbEntity
  8
0
100
AcDbLine
 62
7
  6
CONTINUOUS
 10
114.9688874732
 20
261.5938572709
 11
114.9241891274
 21
261.5942877486
  0
LINE
  5
316
100
AcDbEntity
  8
0
100
AcDbLine
 62
7
  6
CONTINUOUS
 10
99.7689778673
 20
264.6666797596
 11
99.7759860493
 21
264.6666122657
  0
LWPOLYLINE
  5
317
100
AcDbEntity
  8
0
100
AcDbPolyline
 62
7
  6
CONTINUOUS
 90
4
 70
0
 10
133.8880749119
 20
21.1699527435
 10
136.3818825417
 20
21.9474739504
 10
138.1505200425
 20
23.8906922562
 10
138.6984020763
 20
26.1681600967
  0
LINE
  5
318
100
AcDbEntity
  8
0
100
AcDbLine
 62
7
  6
CONTINUOUS
 10
100.6524481111
 20
270.1624328028
 11
114.1522940824
 21
270.0979444085
  0
LINE
  5
319
100
AcDbEntity
  8
0
100
AcDbLine
 62
7
  6
CONTINUOUS
 10
101.7930393642
 20
278.6570811598
 11
113.0929104364
 21
278.6031019854
  0
LINE
  5
31A
100
AcDbEntity
  8
0
100
AcDbLine
 62
7
  6
CONTINUOUS
 10
101.8074239193
 20
281.6570466559
 11
113.1071873896
 21
281.6030679954
  0
LINE
  5
31B
100
AcDbEntity
  8
0
100
AcDbLine
 62
7
  6
CONTINUOUS
 10
100.6669239442
 20
273.1623978628
 11
114.1664797576
 21
273.0979108546
  0
LINE
  5
31C
100
AcDbEntity
  8
0
100
AcDbLine
 62
7
  6
CONTINUOUS
 10
100.6685871729
 20
273.162407196
 11
100.6706893609
 21
273.16238707
  0
ARC
  5
31D
100
AcDbEntity
  8
0
100
AcDbCircle
 62
7
  6
CONTINUOUS
 10
-407.1910391608
 20
52.0425520267
 40
495.9430949348
100
AcDbArc
 50
7.9858265651
 51
8.3470957922
  0
ARC
  5
31E
100
AcDbEntity
  8
0
100
AcDbCircle
 62
7
  6
CONTINUOUS
 10
-769.9798920596
 20
207.8922511969
 40
896.147096864
100
AcDbArc
 50
0.0187306346
 51
0.1946657748
  0
ARC
  5
31F
100
AcDbEntity
  8
0
100
AcDbCircle
 62
7
  6
CONTINUOUS
 10
118.2760721303
 20
30.3084103137
 40
193.200007625
100
AcDbArc
 50
93.5620959224
 51
100.6577790615
  0
ARC
  5
320
100
AcDbEntity
  8
0
100
AcDbCircle
 62
7
  6
CONTINUOUS
 10
117.8612302195
 20
33.8394068071
 40
191.0173890923
100
AcDbArc
 50
96.777815543
 51
100.6890649507
  0
ARC
  5
321
100
AcDbEntity
  8
0
100
AcDbCircle
 62
7
  6
CONTINUOUS
 10
202.3366090635
 20
186.3666155628
 40
126.9789725796
100
AcDbArc
 50
167.1147658368
 51
167.2624298343
  0
ARC
  5
322
100
AcDbEntity
  8
0
100
AcDbCircle
 62
7
  6
CONTINUOUS
 10
12.1598845341
 20
92.7381857268
 40
87.8120537753
100
AcDbArc
 50
1.0116640579
 51
2.1751001438
  0
ARC
  5
323
100
AcDbEntity
  8
0
100
AcDbCircle
 62
7
  6
CONTINUOUS
 10
16.9894255568
 20
79.8677221802
 40
84.0857364839
100
AcDbArc
 50
9.8466334939
 51
11.0842851007
  0
ARC
  5
324
100
AcDbEntity
  8
0
100
AcDbCircle
 62
7
  6
CONTINUOUS
 10
67.6610874615
 20
119.4627374706
 40
69.8725823313
100
AcDbArc
 50
357.2724667264
 51
358.5772174413
  0
ARC
  5
325
100
AcDbEntity
  8
0
100
AcDbCircle
 62
7
  6
CONTINUOUS
 10
72.863135131
 20
98.5822850065
 40
20.7224976463
100
AcDbArc
 50
357.7437667036
 51
358.5391163004
  0
ARC
  5
326
100
AcDbEntity
  8
0
100
AcDbCircle
 62
7
  6
CONTINUOUS
 10
94.943214207
 20
102.5758640836
 40
20.0146155063
100
AcDbArc
 50
122.4548659369
 51
123.0619484717
  0
ARC
  5
327
100
AcDbEntity
  8
0
100
AcDbCircle
 62
7
  6
CONTINUOUS
 10
75.5678537477
 20
97.6176928218
 40
17.2790002916
100
AcDbArc
 50
1.6027836468
 51
3.2270291196
  0
ARC
  5
328
100
AcDbEntity
  8
0
100
AcDbCircle
 62
7
  6
CONTINUOUS
 10
156.2465827826
 20
115.9106123092
 40
15.5926556425
100
AcDbArc
 50
171.3312339159
 51
195.0219968843
  0
ARC
  5
329
100
AcDbEntity
  8
0
100
AcDbCircle
 62
7
  6
CONTINUOUS
 10
92.4813374413
 20
106.364666975
 40
15.4962256641
100
AcDbArc
 50
123.0756720153
 51
123.3688484989
  0
ARC
  5
32A
100
AcDbEntity
  8
0
100
AcDbCircle
 62
7
  6
CONTINUOUS
 10
77.3941898055
 20
97.7288405344
 40
15.4493055919
100
AcDbArc
 50
3.1967576874
 51
4.3714699485
  0
ARC
  5
32B
100
AcDbEntity
  8
0
100
AcDbCircle
 62
7
  6
CONTINUOUS
 10
78.8493882364
 20
97.7179496671
 40
13.9959480151
100
AcDbArc
 50
1.1348463491
 51
1.5682634522
  0
ARC
  5
32C
100
AcDbEntity
  8
0
100
AcDbCircle
 62
7
  6
CONTINUOUS
 10
145.0417810455
 20
93.2064176995
 40
13.4161601564
100
AcDbArc
 50
170.9287220454
 51
172.5863266519
  0
ARC
  5
32D
100
AcDbEntity
  8
0
100
AcDbCircle
 62
7
  6
CONTINUOUS
 10
144.6450204284
 20
93.3186060623
 40
13.3935231702
100
AcDbArc
 50
171.7301764494
 51
172.7504874101
  0
ARC
  5
32E
100
AcDbEntity
  8
0
100
AcDbCircle
 62
7
  6
CONTINUOUS
 10
144.6511992501
 20
93.6841382954
 40
13.3896650181
100
AcDbArc
 50
173.3397938584
 51
174.2984732364
  0
ARC
  5
32F
100
AcDbEntity
  8
0
100
AcDbCircle
 62
7
  6
CONTINUOUS
 10
79.4616937395
 20
97.8809558885
 40
13.3762230674
100
AcDbArc
 50
4.3968173512
 51
4.5643522356
  0
ARC
  5
330
100
AcDbEntity
  8
0
100
AcDbCircle
 62
7
  6
CONTINUOUS
 10
145.1176831146
 20
93.8821554011
 40
13.3689179521
100
AcDbArc
 50
173.8049451348
 51
175.504419579
  0
ARC
  5
331
100
AcDbEntity
  8
0
100
AcDbCircle
 62
7
  6
CONTINUOUS
 10
80.0409927608
 20
97.7419648775
 40
12.8041015951
100
AcDbArc
 50
0.809132407
 51
1.1330109466
  0
ARC
  5
332
100
AcDbEntity
  8
0
100
AcDbCircle
 62
7
  6
CONTINUOUS
 10
152.2342048513
 20
150.7779063643
 40
12.3266686965
100
AcDbArc
 50
210.0294104304
 51
221.8749997717
  0
ARC
  5
333
100
AcDbEntity
  8
0
100
AcDbCircle
 62
7
  6
CONTINUOUS
 10
152.2064787414
 20
150.7584738359
 40
12.2929264415
100
AcDbArc
 50
165.5636760799
 51
210.0156669488
  0
ARC
  5
334
100
AcDbEntity
  8
0
100
AcDbCircle
 62
7
  6
CONTINUOUS
 10
83.9891395059
 20
98.4427400888
 40
9.5957514679
100
AcDbArc
 50
0.072433627
 51
2.097439691
  0
ARC
  5
335
100
AcDbEntity
  8
0
100
AcDbCircle
 62
7
  6
CONTINUOUS
 10
101.4418941807
 20
30.0469078798
 40
8.4744274246
100
AcDbArc
 50
179.4745960736
 51
180.0018426461
  0
ARC
  5
336
100
AcDbEntity
  8
0
100
AcDbCircle
 62
7
  6
CONTINUOUS
 10
101.4239745132
 20
30.044061834
 40
8.4565081444
100
AcDbArc
 50
179.9825636019
 51
204.7407657329
  0
ARC
  5
337
100
AcDbEntity
  8
0
100
AcDbCircle
 62
7
  6
CONTINUOUS
 10
101.3670998701
 20
30.0330120691
 40
8.4031961656
100
AcDbArc
 50
231.260335448
 51
255.5455955811
  0
ARC
  5
338
100
AcDbEntity
  8
0
100
AcDbCircle
 62
7
  6
CONTINUOUS
 10
101.3598371911
 20
30.0191322677
 40
8.3878256414
100
AcDbArc
 50
204.769462236
 51
231.2397004086
  0
ARC
  5
339
100
AcDbEntity
  8
0
100
AcDbCircle
 62
7
  6
CONTINUOUS
 10
146.2740717232
 20
95.2077274725
 40
7.5781630096
100
AcDbArc
 50
168.0683688364
 51
169.542803057
  0
ARC
  5
33A
100
AcDbEntity
  8
0
100
AcDbCircle
 62
7
  6
CONTINUOUS
 10
146.25516539
 20
95.2116536951
 40
7.5588534236
100
AcDbArc
 50
167.8546521238
 51
168.0678580903
  0
ARC
  5
33B
100
AcDbEntity
  8
0
100
AcDbCircle
 62
7
  6
CONTINUOUS
 10
130.4956020096
 20
134.1539464596
 40
6.9561181384
100
AcDbArc
 50
357.6460308986
 51
1.0853245602
  0
ARC
  5
33C
100
AcDbEntity
  8
0
100
AcDbCircle
 62
7
  6
CONTINUOUS
 10
137.8649036201
 20
171.4305658957
 40
6.414943888
100
AcDbArc
 50
342.0463728764
 51
357.3889516534
  0
ARC
  5
33D
100
AcDbEntity
  8
0
100
AcDbCircle
 62
7
  6
CONTINUOUS
 10
76.8509462413
 20
182.1688568674
 40
3.033721274
100
AcDbArc
 50
189.3861984275
 51
205.6648622103
  0
ARC
  5
33E
100
AcDbEntity
  8
0
100
AcDbCircle
 62
7
  6
CONTINUOUS
 10
99.8616765235
 20
94.4013693281
 40
1.6702557867
100
AcDbArc
 50
88.3877370812
 51
102.2816636267
  0
ARC
  5
33F
100
AcDbEntity
  8
0
100
AcDbCircle
 62
7
  6
CONTINUOUS
 10
131.658963751
 20
93.8399296654
 40
1.4305002671
100
AcDbArc
 50
100.8060081805
 51
102.4062355142
  0
ARC
  5
340
100
AcDbEntity
  8
0
100
AcDbCircle
 62
7
  6
CONTINUOUS
 10
131.8714660063
 20
95.6823226613
 40
0.756691475
100
AcDbArc
 50
259.8236303165
 51
263.8116066112
  0
ARC
  5
341
100
AcDbEntity
  8
0
100
AcDbCircle
 62
7
  6
CONTINUOUS
 10
131.211128941
 20
94.2865743615
 40
0.7370711787
100
AcDbArc
 50
78.4584456655
 51
80.8915977412
  0
ARC
  5
342
100
AcDbEntity
  8
0
100
AcDbCircle
 62
7
  6
CONTINUOUS
 10
23.0485491487
 20
218.6674143987
 40
84.6250359934
100
AcDbArc
 50
1.6412288361
 51
2.0997522863
  0
ARC
  5
343
100
AcDbEntity
  8
0
100
AcDbCircle
 62
7
  6
CONTINUOUS
 10
-0.6001114557
 20
223.4455607749
 40
79.9076456865
100
AcDbArc
 50
346.2328596703
 51
346.4952324194
  0
ARC
  5
344
100
AcDbEntity
  8
0
100
AcDbCircle
 62
7
  6
CONTINUOUS
 10
22.5362944964
 20
220.6258740738
 40
56.6648006521
100
AcDbArc
 50
347.3833745188
 51
347.5254191234
  0
ARC
  5
345
100
AcDbEntity
  8
0
100
AcDbCircle
 62
7
  6
CONTINUOUS
 10
26.4150684411
 20
216.8676615342
 40
52.1032381614
100
AcDbArc
 50
345.8462026901
 51
346.0649983586
  0
ARC
  5
346
100
AcDbEntity
  8
0
100
AcDbCircle
 62
7
  6
CONTINUOUS
 10
56.1934571741
 20
219.8609706289
 40
51.4586564298
100
AcDbArc
 50
2.1238629406
 51
2.5800519935
  0
ARC
  5
347
100
AcDbEntity
  8
0
100
AcDbCircle
 62
7
  6
CONTINUOUS
 10
33.3041068521
 20
216.026753506
 40
45.201981089
100
AcDbArc
 50
347.7762287453
 51
347.9269733834
  0
ARC
  5
348
100
AcDbEntity
  8
0
100
AcDbCircle
 62
7
  6
CONTINUOUS
 10
34.426727005
 20
214.8799815633
 40
43.8486912589
100
AcDbArc
 50
346.0647448673
 51
346.1849244001
  0
ARC
  5
349
100
AcDbEntity
  8
0
100
AcDbCircle
 62
7
  6
CONTINUOUS
 10
47.2712383497
 20
211.8331154944
 40
30.6238305674
100
AcDbArc
 50
346.6552140465
 51
346.8034018499
  0
ARC
  5
34A
100
AcDbEntity
  8
0
100
AcDbCircle
 62
7
  6
CONTINUOUS
 10
56.2582200095
 20
209.6926906121
 40
21.3854779884
100
AcDbArc
 50
346.2412915045
 51
346.6775644877
  0
ARC
  5
34B
100
AcDbEntity
  8
0
100
AcDbCircle
 62
7
  6
CONTINUOUS
 10
87.4723517088
 20
221.3916681827
 40
20.1429401756
100
AcDbArc
 50
3.2972563209
 51
3.4829903212
  0
ARC
  5
34C
100
AcDbEntity
  8
0
100
AcDbCircle
 62
7
  6
CONTINUOUS
 10
89.7344375519
 20
221.5289572381
 40
17.8766920705
100
AcDbArc
 50
3.4842443349
 51
3.6092278832
  0
ARC
  5
34D
100
AcDbEntity
  8
0
100
AcDbCircle
 62
7
  6
CONTINUOUS
 10
94.6722213645
 20
200.9665022347
 40
17.8292960883
100
AcDbArc
 50
166.9491288342
 51
167.3937554766
  0
ARC
  5
34E
100
AcDbEntity
  8
0
100
AcDbCircle
 62
7
  6
CONTINUOUS
 10
60.9379122199
 20
212.5977463907
 40
17.5216950022
100
AcDbArc
 50
348.132996328
 51
348.6490177599
  0
ARC
  5
34F
100
AcDbEntity
  8
0
100
AcDbCircle
 62
7
  6
CONTINUOUS
 10
90.6074048402
 20
220.5331429733
 40
17.123681832
100
AcDbArc
 50
8.7417510597
 51
8.9903924925
  0
ARC
  5
350
100
AcDbEntity
  8
0
100
AcDbCircle
 62
7
  6
CONTINUOUS
 10
61.5628878229
 20
208.583378191
 40
16.1204906414
100
AcDbArc
 50
348.0930852799
 51
348.5192495485
  0
ARC
  5
351
100
AcDbEntity
  8
0
100
AcDbCircle
 62
7
  6
CONTINUOUS
 10
61.6111942771
 20
208.3839701503
 40
15.874844845
100
AcDbArc
 50
346.0778365203
 51
346.234257878
  0
ARC
  5
352
100
AcDbEntity
  8
0
100
AcDbCircle
 62
7
  6
CONTINUOUS
 10
92.45813368
 20
205.4064574756
 40
14.990970719
100
AcDbArc
 50
165.5380473295
 51
166.1820343124
  0
ARC
  5
353
100
AcDbEntity
  8
0
100
AcDbCircle
 62
7
  6
CONTINUOUS
 10
91.7571194535
 20
201.3741915199
 40
14.9009467932
100
AcDbArc
 50
168.3102297754
 51
168.4265999757
  0
ARC
  5
354
100
AcDbEntity
  8
0
100
AcDbCircle
 62
7
  6
CONTINUOUS
 10
91.5406332387
 20
201.670217904
 40
14.6196159196
100
AcDbArc
 50
167.4066231372
 51
167.6712180049
  0
ARC
  5
355
100
AcDbEntity
  8
0
100
AcDbCircle
 62
7
  6
CONTINUOUS
 10
89.5881083568
 20
203.1459262757
 40
12.5862732709
100
AcDbArc
 50
165.710849602
 51
166.3763211341
  0
ARC
  5
356
100
AcDbEntity
  8
0
100
AcDbCircle
 62
7
  6
CONTINUOUS
 10
64.8397082239
 20
207.5825442282
 40
12.5483475419
100
AcDbArc
 50
345.7959205021
 51
346.0828179881
  0
ARC
  5
357
100
AcDbEntity
  8
0
100
AcDbCircle
 62
7
  6
CONTINUOUS
 10
66.4795543084
 20
207.5865377272
 40
11.1037889375
100
AcDbArc
 50
348.5104176921
 51
348.8739441039
  0
ARC
  5
358
100
AcDbEntity
  8
0
100
AcDbCircle
 62
7
  6
CONTINUOUS
 10
67.8955193333
 20
206.8092231097
 40
9.3962042932
100
AcDbArc
 50
345.5188656874
 51
345.7950368925
  0
ARC
  5
359
100
AcDbEntity
  8
0
100
AcDbCircle
 62
7
  6
CONTINUOUS
 10
68.7920538677
 20
210.5508566642
 40
9.2095064151
100
AcDbArc
 50
349.7082105249
 51
349.8937874459
  0
ARC
  5
35A
100
AcDbEntity
  8
0
100
AcDbCircle
 62
7
  6
CONTINUOUS
 10
80.9508815124
 20
188.3854287233
 40
8.0485455251
100
AcDbArc
 50
182.0489646379
 51
188.5739916676
  0
ARC
  5
35B
100
AcDbEntity
  8
0
100
AcDbCircle
 62
7
  6
CONTINUOUS
 10
80.948645298
 20
188.3834996492
 40
8.0463717488
100
AcDbArc
 50
167.4661784822
 51
174.1203577325
  0
ARC
  5
35C
100
AcDbEntity
  8
0
100
AcDbCircle
 62
7
  6
CONTINUOUS
 10
80.9473351778
 20
188.3844840508
 40
8.044967724
100
AcDbArc
 50
174.1263758813
 51
182.0431440581
  0
ARC
  5
35D
100
AcDbEntity
  8
0
100
AcDbCircle
 62
7
  6
CONTINUOUS
 10
84.5290263161
 20
203.6554933155
 40
7.347658464
100
AcDbArc
 50
165.4322175368
 51
166.1972809031
  0
ARC
  5
35E
100
AcDbEntity
  8
0
100
AcDbCircle
 62
7
  6
CONTINUOUS
 10
81.5735484895
 20
188.3838669927
 40
6.9358376462
100
AcDbArc
 50
167.2763599203
 51
188.6955312947
  0
ARC
  5
35F
100
AcDbEntity
  8
0
100
AcDbCircle
 62
7
  6
CONTINUOUS
 10
77.1234766598
 20
206.962886519
 40
0.5546867633
100
AcDbArc
 50
339.8113822242
 51
340.7270374559
  0
ARC
  5
360
100
AcDbEntity
  8
0
100
AcDbCircle
 62
7
  6
CONTINUOUS
 10
92.0391683481
 20
240.039971221
 40
55.5209332815
100
AcDbArc
 50
317.1903716801
 51
317.5221424987
  0
ARC
  5
361
100
AcDbEntity
  8
0
100
AcDbCircle
 62
7
  6
CONTINUOUS
 10
196.6907406151
 20
187.6378421489
 40
121.1917585358
100
AcDbArc
 50
167.2934351455
 51
167.4604491679
  0
ARC
  5
362
100
AcDbEntity
  8
0
100
AcDbCircle
 62
7
  6
CONTINUOUS
 10
179.3754962158
 20
191.6978641969
 40
103.4072163511
100
AcDbArc
 50
166.3253438706
 51
167.1572625587
  0
ARC
  5
363
100
AcDbEntity
  8
0
100
AcDbCircle
 62
7
  6
CONTINUOUS
 10
153.0593587122
 20
187.6768711336
 40
77.9399384891
100
AcDbArc
 50
167.2394057805
 51
167.4697661814
  0
ARC
  5
364
100
AcDbEntity
  8
0
100
AcDbCircle
 62
7
  6
CONTINUOUS
 10
147.827873908
 20
188.8621410318
 40
72.5758637558
100
AcDbArc
 50
167.1023780197
 51
167.2397821767
  0
ARC
  5
365
100
AcDbEntity
  8
0
100
AcDbCircle
 62
7
  6
CONTINUOUS
 10
148.2467859561
 20
199.2528186711
 40
71.3748350002
100
AcDbArc
 50
166.0660489801
 51
166.3106635567
  0
ARC
  5
366
100
AcDbEntity
  8
0
100
AcDbCircle
 62
7
  6
CONTINUOUS
 10
140.8446324494
 20
193.9888683676
 40
64.5104908176
100
AcDbArc
 50
167.1125076423
 51
167.4039206915
  0
ARC
  5
367
100
AcDbEntity
  8
0
100
AcDbCircle
 62
7
  6
CONTINUOUS
 10
137.2076930791
 20
191.1872285606
 40
61.7042457098
100
AcDbArc
 50
167.4583006663
 51
167.7634489177
  0
ARC
  5
368
100
AcDbEntity
  8
0
100
AcDbCircle
 62
7
  6
CONTINUOUS
 10
130.2450171262
 20
196.3368790733
 40
53.6352338209
100
AcDbArc
 50
166.8852546793
 51
167.0068436254
  0
ARC
  5
369
100
AcDbEntity
  8
0
100
AcDbCircle
 62
7
  6
CONTINUOUS
 10
129.2885280129
 20
193.546985535
 40
53.4557974648
100
AcDbArc
 50
166.0784781304
 51
166.371404118
  0
ARC
  5
36A
100
AcDbEntity
  8
0
100
AcDbCircle
 62
7
  6
CONTINUOUS
 10
125.230360041
 20
197.507905154
 40
48.7017822623
100
AcDbArc
 50
166.5622134567
 51
167.0480896533
  0
ARC
  5
36B
100
AcDbEntity
  8
0
100
AcDbCircle
 62
7
  6
CONTINUOUS
 10
121.9314043072
 20
194.5031268769
 40
46.0722218507
100
AcDbArc
 50
167.7669072196
 51
167.8991483407
  0
ARC
  5
36C
100
AcDbEntity
  8
0
100
AcDbCircle
 62
7
  6
CONTINUOUS
 10
121.4917335524
 20
205.9517657012
 40
43.7939632026
100
AcDbArc
 50
165.2501834229
 51
166.1168644113
  0
ARC
  5
36D
100
AcDbEntity
  8
0
100
AcDbCircle
 62
7
  6
CONTINUOUS
 10
119.6552707654
 20
200.2160293858
 40
42.7421270117
100
AcDbArc
 50
167.4035670247
 51
167.5415303052
  0
ARC
  5
36E
100
AcDbEntity
  8
0
100
AcDbCircle
 62
7
  6
CONTINUOUS
 10
118.7161674012
 20
195.6092630768
 40
42.5169227234
100
AcDbArc
 50
167.2127454138
 51
167.4046794079
  0
ARC
  5
36F
100
AcDbEntity
  8
0
100
AcDbCircle
 62
7
  6
CONTINUOUS
 10
116.5968307055
 20
200.8968397472
 40
39.6088298302
100
AcDbArc
 50
166.764283648
 51
167.399851271
  0
ARC
  5
370
100
AcDbEntity
  8
0
100
AcDbCircle
 62
7
  6
CONTINUOUS
 10
115.8673160267
 20
201.0476606961
 40
38.8639595644
100
AcDbArc
 50
167.5339613074
 51
167.9667271365
  0
ARC
  5
371
100
AcDbEntity
  8
0
100
AcDbCircle
 62
7
  6
CONTINUOUS
 10
115.6358798086
 20
199.3965021183
 40
38.6326835231
100
AcDbArc
 50
167.8945631672
 51
168.2599658408
  0
ARC
  5
372
100
AcDbEntity
  8
0
100
AcDbCircle
 62
7
  6
CONTINUOUS
 10
110.2566980406
 20
200.8049907251
 40
33.3497796297
100
AcDbArc
 50
166.8888530322
 51
167.3252372427
  0
ARC
  5
373
100
AcDbEntity
  8
0
100
AcDbCircle
 62
7
  6
CONTINUOUS
 10
109.2944332394
 20
198.4146991649
 40
32.8527125971
100
AcDbArc
 50
166.7001658336
 51
167.1241411257
  0
ARC
  5
374
100
AcDbEntity
  8
0
100
AcDbCircle
 62
7
  6
CONTINUOUS
 10
109.829953956
 20
202.3324532561
 40
32.6914051966
100
AcDbArc
 50
167.9630362332
 51
168.287677194
  0
ARC
  5
375
100
AcDbEntity
  8
0
100
AcDbCircle
 62
7
  6
CONTINUOUS
 10
106.053847449
 20
203.1160557019
 40
28.8348507092
100
AcDbArc
 50
168.2891585684
 51
168.4311862699
  0
ARC
  5
376
100
AcDbEntity
  8
0
100
AcDbCircle
 62
7
  6
CONTINUOUS
 10
103.4285245189
 20
202.7077457025
 40
26.2884270818
100
AcDbArc
 50
166.1810234101
 51
166.4740176735
  0
ARC
  5
377
100
AcDbEntity
  8
0
100
AcDbCircle
 62
7
  6
CONTINUOUS
 10
103.2382131939
 20
203.692156693
 40
25.9608833235
100
AcDbArc
 50
168.4306051628
 51
168.5999646016
  0
ARC
  5
378
100
AcDbEntity
  8
0
100
AcDbCircle
 62
7
  6
CONTINUOUS
 10
100.7244899582
 20
204.1993443401
 40
23.3965035353
100
AcDbArc
 50
168.600758039
 51
168.7203293851
  0
ARC
  5
379
100
AcDbEntity
  8
0
100
AcDbCircle
 62
7
  6
CONTINUOUS
 10
98.3517999926
 20
201.0050234669
 40
21.6076699826
100
AcDbArc
 50
166.3327473525
 51
166.7095301795
  0
ARC
  5
37A
100
AcDbEntity
  8
0
100
AcDbCircle
 62
7
  6
CONTINUOUS
 10
105.9580883532
 20
222.8939616092
 40
1.5925213026
100
AcDbArc
 50
8.0028705479
 51
8.7280666018
  0
ARC
  5
37B
100
AcDbEntity
  8
0
100
AcDbCircle
 62
7
  6
CONTINUOUS
 10
107.5241860225
 20
230.8050522409
 40
7.7016466683
100
AcDbArc
 50
272.1954143651
 51
273.2474684253
  0
ARC
  5
37C
100
AcDbEntity
  8
0
100
AcDbCircle
 62
7
  6
CONTINUOUS
 10
107.5304995541
 20
230.6380472998
 40
7.5345224541
100
AcDbArc
 50
271.1145495973
 51
272.1960888795
  0
ARC
  5
37D
100
AcDbEntity
  8
0
100
AcDbCircle
 62
7
  6
CONTINUOUS
 10
107.5314406661
 20
230.6136410256
 40
7.510102506
100
AcDbArc
 50
270.0193886323
 51
271.1109928876
  0
ARC
  5
37E
100
AcDbEntity
  8
0
100
AcDbCircle
 62
7
  6
CONTINUOUS
 10
103.5773133755
 20
237.2614802248
 40
6.00013183
100
AcDbArc
 50
359.3430826145
 51
59.3389711288
  0
ARC
  5
37F
100
AcDbEntity
  8
0
100
AcDbCircle
 62
7
  6
CONTINUOUS
 10
103.5771344997
 20
237.2613931756
 40
3.0003140302
100
AcDbArc
 50
359.3436691821
 51
59.3353382118
  0
ARC
  5
380
100
AcDbEntity
  8
0
100
AcDbCircle
 62
7
  6
CONTINUOUS
 10
115.9782301742
 20
254.5890452068
 40
1.5
100
AcDbArc
 50
269.7263017133
 51
89.7263017132
  0
ARC
  5
381
100
AcDbEntity
  8
0
100
AcDbCircle
 62
7
  6
CONTINUOUS
 10
98.6784275593
 20
254.6716858898
 40
1.5
100
AcDbArc
 50
89.7263017132
 51
269.7263017133
  0
ARC
  5
382
100
AcDbEntity
  8
0
100
AcDbCircle
 62
7
  6
CONTINUOUS
 10
115.0188453873
 20
263.0937250918
 40
1.5
100
AcDbArc
 50
269.7263017133
 51
89.7263017132
  0
ARC
  5
383
100
AcDbEntity
  8
0
100
AcDbCircle
 62
7
  6
CONTINUOUS
 10
99.7190199533
 20
263.1668119387
 40
1.5
100
AcDbArc
 50
89.7263017133
 51
269.7263017133
  0
ARC
  5
384
100
AcDbEntity
  8
0
100
AcDbCircle
 62
7
  6
CONTINUOUS
 10
107.3533922551
 20
344.4103848842
 40
120.5120302511
100
AcDbArc
 50
269.4179100962
 51
269.5586886701
  0
ARC
  5
385
100
AcDbEntity
  8
0
100
AcDbCircle
 62
7
  6
CONTINUOUS
 10
108.7523282342
 20
268.1129146719
 40
44.996855398
100
AcDbArc
 50
270.037578162
 51
270.338394649
  0
ARC
  5
386
100
AcDbEntity
  8
0
100
AcDbCircle
 62
7
  6
CONTINUOUS
 10
114.1594594595
 20
271.5979272851
 40
1.5
100
AcDbArc
 50
269.7263017133
 51
89.7263017132
  0
ARC
  5
387
100
AcDbEntity
  8
0
100
AcDbCircle
 62
7
  6
CONTINUOUS
 10
100.6596134882
 20
271.6624156793
 40
1.5
100
AcDbArc
 50
89.7263017133
 51
269.7263017133
  0
ARC
  5
388
100
AcDbEntity
  8
0
100
AcDbCircle
 62
7
  6
CONTINUOUS
 10
101.8002047413
 20
280.1570640364
 40
1.5
100
AcDbArc
 50
89.7263017133
 51
269.7263017133
  0
ARC
  5
389
100
AcDbEntity
  8
0
100
AcDbCircle
 62
7
  6
CONTINUOUS
 10
113.1000758135
 20
280.1030848619
 40
1.5
100
AcDbArc
 50
269.7263017133
 51
89.7263017132
  0
ARC
  5
38A
100
AcDbEntity
  8
0
100
AcDbCircle
 62
7
  6
CONTINUOUS
 10
549.152402495
 20
196.8912596996
 40
472.2351138716
100
AcDbArc
 50
189.0639488014
 51
189.252140492
  0
ARC
  5
38B
100
AcDbEntity
  8
0
100
AcDbCircle
 62
7
  6
CONTINUOUS
 10
110.6773336854
 20
3339.6972511174
 40
3137.2301728041
100
AcDbArc
 50
270.4074673966
 51
270.5223058663
  0
ARC
  5
38C
100
AcDbEntity
  8
0
100
AcDbCircle
 62
7
  6
CONTINUOUS
 10
2625.1442853254
 20
105.7257902244
 40
2516.1521241658
100
AcDbArc
 50
179.7981348108
 51
180.2417037787
  0
SPLINE
  5
38D
100
AcDbEntity
  8
0
100
AcDbSpline
 62
7
  6
CONTINUOUS
 70
0
 71
3
 72
19
 73
15
 74
0
 42
0.0000001
 43
0.0000001
 44
0.0000000001
 40
0.0
 40
0.0
 40
0.0
 40
0.0
 40
0.1837641439
 40
0.3617332869
 40
0.5278157244
 40
0.6763061169
 40
0.8021145467
 40
0.8551099045
 40
0.9008406591
 40
0.9388558514
 40
0.9686939868
 40
0.9897121879
 40
0.9964775906
 40
1.0
 40
1.0
 40
1.0
 40
1.0
 10
103.0413790462
 20
241.06684374
 30
0.0
 10
102.2235986648
 20
241.5516244179
 30
0.0
 10
100.6130755132
 20
242.5046319191
 30
0.0
 10
98.2608681698
 20
243.8913912868
 30
0.0
 10
96.0635644024
 20
245.1815766984
 30
0.0
 10
94.0965230788
 20
246.3309747026
 30
0.0
 10
92.6323124044
 20
247.1812828527
 30
0.0
 10
91.6259621041
 20
247.7614164174
 30
0.0
 10
91.0121407387
 20
248.1130535425
 30
0.0
 10
90.5012345333
 20
248.4033341789
 30
0.0
 10
90.1002215079
 20
248.6282028959
 30
0.0
 10
89.8390969555
 20
248.7720283002
 30
0.0
 10
89.6960201437
 20
248.8479100643
 30
0.0
 10
89.6487101753
 20
248.8723056145
 30
0.0
 10
89.6323292484
 20
248.8802885601
 30
0.0
  0
SPLINE
  5
38E
100
AcDbEntity
  8
0
100
AcDbSpline
 62
7
  6
CONTINUOUS
 70
0
 71
3
 72
28
 73
24
 74
0
 42
0.0000001
 43
0.0000001
 44
0.0000000001
 40
0.0
 40
0.0
 40
0.0
 40
0.0
 40
0.1804973137
 40
0.3535018
 40
0.4347597902
 40
0.5112985109
 40
0.5822738833
 40
0.6469053771
 40
0.7044897809
 40
0.7544142058
 40
0.7961767525
 40
0.8294336767
 40
0.8428415137
 40
0.8541659459
 40
0.8636018176
 40
0.8717841538
 40
0.8817111466
 40
0.8921348231
 40
0.9106894688
 40
0.9325222115
 40
0.9549099253
 40
0.9774273458
 40
1.0
 40
1.0
 40
1.0
 40
1.0
 10
104.5711834262
 20
243.6474829165
 30
0.0
 10
103.6354068069
 20
244.2022118317
 30
0.0
 10
101.8017236652
 20
245.2869961805
 30
0.0
 10
99.5440706291
 20
246.6169539398
 30
0.0
 10
97.8246161017
 20
247.6260953653
 30
0.0
 10
96.634660815
 20
248.3225665478
 30
0.0
 10
95.5303108125
 20
248.9669192514
 30
0.0
 10
94.5236900831
 20
249.552088576
 30
0.0
 10
93.6257302914
 20
250.0717288832
 30
0.0
 10
92.8459339685
 20
250.5203762218
 30
0.0
 10
92.1919250847
 20
250.8936373774
 30
0.0
 10
91.7277524637
 20
251.1555122458
 30
0.0
 10
91.4221531656
 20
251.3250948715
 30
0.0
 10
91.2414525161
 20
251.4238576312
 30
0.0
 10
91.0875565125
 20
251.505995695
 30
0.0
 10
90.9398217423
 20
251.5817166895
 30
0.0
 10
90.7833028081
 20
251.6534025247
 30
0.0
 10
90.5605012381
 20
251.7280437773
 30
0.0
 10
90.2553170303
 20
251.7753482155
 30
0.0
 10
89.8740606884
 20
251.7413092996
 30
0.0
 10
89.492411805
 20
251.5993421732
 30
0.0
 10
89.1591122647
 20
251.3579976841
 30
0.0
 10
88.9876608068
 20
251.1420233477
 30
0.0
 10
88.9183022156
 20
251.0249881354
 30
0.0
  0
SPLINE
  5
38F
100
AcDbEntity
  8
0
100
AcDbSpline
 62
7
  6
CONTINUOUS
 70
0
 71
3
 72
14
 73
10
 74
0
 42
0.0000001
 43
0.0000001
 44
0.0000000001
 40
0.0
 40
0.0
 40
0.0
 40
0.0
 40
0.1167612251
 40
0.2334985022
 40
0.4644093795
 40
0.6833611261
 40
0.8105989603
 40
0.9056988513
 40
1.0
 40
1.0
 40
1.0
 40
1.0
 10
88.9183022156
 20
251.0249881354
 30
0.0
 10
88.8659088751
 20
250.9365799711
 30
0.0
 10
88.7791326833
 20
250.7483167759
 30
0.0
 10
88.6866275633
 20
250.347835009
 30
0.0
 10
88.7274029334
 20
249.8355253333
 30
0.0
 10
88.9682219033
 20
249.373228
 30
0.0
 10
89.2442855298
 20
249.0960429345
 30
0.0
 10
89.4718223493
 20
248.9344010659
 30
0.0
 10
89.6112262035
 20
248.84307474
 30
0.0
 10
89.6808893268
 20
248.7979542049
 30
0.0
  0
SPLINE
  5
390
100
AcDbEntity
  8
0
100
AcDbSpline
 62
7
  6
CONTINUOUS
 70
0
 71
3
 72
12
 73
8
 74
0
 42
0.0000001
 43
0.0000001
 44
0.0000000001
 40
0.0
 40
0.0
 40
0.0
 40
0.0
 40
0.058534773
 40
0.1377081913
 40
0.3566800749
 40
0.6485862819
 40
1.0
 40
1.0
 40
1.0
 40
1.0
 10
89.6808893268
 20
248.7979542049
 30
0.0
 10
89.8119941775
 20
248.7130381009
 30
0.0
 10
90.1225722174
 20
248.516585231
 30
0.0
 10
90.9310719235
 20
248.0143091711
 30
0.0
 10
92.2750851161
 20
247.1939500321
 30
0.0
 10
94.2443194386
 20
246.0035737563
 30
0.0
 10
95.7162788964
 20
245.120114883
 30
0.0
 10
96.5208465839
 20
244.6383793705
 30
0.0
  0
SPLINE
  5
391
100
AcDbEntity
  8
0
100
AcDbSpline
 62
7
  6
CONTINUOUS
 70
0
 71
3
 72
23
 73
19
 74
0
 42
0.0000001
 43
0.0000001
 44
0.0000000001
 40
0.0
 40
0.0
 40
0.0
 40
0.0
 40
0.1953857903
 40
0.3831705426
 40
0.5559343611
 40
0.6346703243
 40
0.7072948979
 40
0.7730824669
 40
0.8314343928
 40
0.8817892393
 40
0.923655365
 40
0.9566680898
 40
0.9697455372
 40
0.9804879211
 40
0.9888808641
 40
0.994915598
 40
0.9985938132
 40
1.0
 40
1.0
 40
1.0
 40
1.0
 10
103.831758361
 20
242.3570880334
 30
0.0
 10
103.8811594841
 20
242.4404471503
 30
0.0
 10
103.9778097092
 20
242.6040590463
 30
0.0
 10
104.1173428756
 20
242.841849147
 30
0.0
 10
104.2269814057
 20
243.0301054349
 30
0.0
 10
104.3074397553
 20
243.1692634979
 30
0.0
 10
104.3611212842
 20
243.2626206054
 30
0.0
 10
104.4095226375
 20
243.3473529531
 30
0.0
 10
104.4521813297
 20
243.4226439387
 30
0.0
 10
104.4887022414
 20
243.4877826763
 30
0.0
 10
104.5187273051
 20
243.5421377566
 30
0.0
 10
104.5394925468
 20
243.5805293124
 30
0.0
 10
104.5525572878
 20
243.6054590573
 30
0.0
 10
104.5598564592
 20
243.6197643729
 30
0.0
 10
104.5651988999
 20
243.6308056524
 30
0.0
 10
104.5691838234
 20
243.6394040237
 30
0.0
 10
104.5706402203
 20
243.6438110537
 30
0.0
 10
104.5717808155
 20
243.6471231116
 30
0.0
 10
104.5711831204
 20
243.6474824006
 30
0.0
  0
SPLINE
  5
392
100
AcDbEntity
  8
0
100
AcDbSpline
 62
7
  6
CONTINUOUS
 70
0
 71
3
 72
23
 73
19
 74
0
 42
0.0000001
 43
0.0000001
 44
0.0000000001
 40
0.0
 40
0.0
 40
0.0
 40
0.0
 40
0.0017656175
 40
0.0058303245
 40
0.0122410747
 40
0.0209938217
 40
0.0320765848
 40
0.0454735551
 40
0.0790639042
 40
0.121414125
 40
0.1721484241
 40
0.2307706393
 40
0.2967071149
 40
0.369351408
 40
0.4479719896
 40
0.6200654408
 40
0.8065550258
 40
1.0
 40
1.0
 40
1.0
 40
1.0
 10
103.0415702088
 20
241.0667951732
 30
0.0
 10
103.0424609588
 20
241.0667925407
 30
0.0
 10
103.044621866
 20
241.0694646687
 30
0.0
 10
103.0485326056
 20
241.073716823
 30
0.0
 10
103.054328744
 20
241.0817766353
 30
0.0
 10
103.0619386882
 20
241.0924950307
 30
0.0
 10
103.0713576763
 20
241.1064104096
 30
0.0
 10
103.0875444661
 20
241.1308084534
 30
0.0
 10
103.1119914811
 20
241.1686879455
 30
0.0
 10
103.1461920181
 20
241.222668562
 30
0.0
 10
103.1867577172
 20
241.2875724351
 30
0.0
 10
103.2333013408
 20
241.3627683441
 30
0.0
 10
103.2853728735
 20
241.4475425357
 30
0.0
 10
103.3424636935
 20
241.5410732964
 30
0.0
 10
103.4271316869
 20
241.6805156115
 30
0.0
 10
103.5410227232
 20
241.8694066914
 30
0.0
 10
103.6840469912
 20
242.1083741674
 30
0.0
 10
103.7820028989
 20
242.2731310069
 30
0.0
 10
103.831758361
 20
242.3570880334
 30
0.0
  0
SPLINE
  5
393
100
AcDbEntity
  8
0
100
AcDbSpline
 62
7
  6
CONTINUOUS
 70
0
 71
3
 72
39
 73
35
 74
0
 42
0.0000001
 43
0.0000001
 44
0.0000000001
 40
0.0
 40
0.0
 40
0.0
 40
0.0
 40
0.0007004351
 40
0.002533698
 40
0.0055416289
 40
0.0097249899
 40
0.0150793578
 40
0.021597452
 40
0.0380508858
 40
0.0589158508
 40
0.0840099513
 40
0.1130854202
 40
0.1458599367
 40
0.1820330436
 40
0.221246163
 40
0.3072822692
 40
0.400680619
 40
0.4978768147
 40
0.5951553471
 40
0.6887967456
 40
0.7752271439
 40
0.8146906626
 40
0.8511450124
 40
0.8842301137
 40
0.9136432472
 40
0.9390959788
 40
0.9603404449
 40
0.9771893912
 40
0.9839090609
 40
0.9894680318
 40
0.9938584378
 40
0.9970742859
 40
0.9991135808
 40
1.0
 40
1.0
 40
1.0
 40
1.0
 10
106.6371279983
 20
242.4227890935
 30
0.0
 10
106.6377285717
 20
242.4224280615
 30
0.0
 10
106.6365765896
 20
242.4190985515
 30
0.0
 10
106.6351130328
 20
242.4146694336
 30
0.0
 10
106.6311020748
 20
242.4060247354
 30
0.0
 10
106.6257285093
 20
242.394924347
 30
0.0
 10
106.6183865005
 20
242.3805420145
 30
0.0
 10
106.6052471524
 20
242.3554789089
 30
0.0
 10
106.5843653995
 20
242.3168828515
 30
0.0
 10
106.5541745648
 20
242.2622400489
 30
0.0
 10
106.5174559828
 20
242.1967614764
 30
0.0
 10
106.4745727931
 20
242.1210869756
 30
0.0
 10
106.4259258788
 20
242.0359376306
 30
0.0
 10
106.3719811323
 20
241.9421357069
 30
0.0
 10
106.2911400605
 20
241.8023343226
 30
0.0
 10
106.1810439493
 20
241.6133182183
 30
0.0
 10
106.0409700974
 20
241.374634156
 30
0.0
 10
105.8944750548
 20
241.1266788429
 30
0.0
 10
105.7471569795
 20
240.8789286982
 30
0.0
 10
105.6046463494
 20
240.6408520005
 30
0.0
 10
105.4912307687
 20
240.452770955
 30
0.0
 10
105.4069263874
 20
240.3139454662
 30
0.0
 10
105.350104962
 20
240.220868954
 30
0.0
 10
105.2982863019
 20
240.1365187511
 30
0.0
 10
105.2519724381
 20
240.0617056178
 30
0.0
 10
105.2116099163
 20
239.9971380751
 30
0.0
 10
105.1775831394
 20
239.9434426135
 30
0.0
 10
105.1532611679
 20
239.9057662288
 30
0.0
 10
105.1371572196
 20
239.8815005169
 30
0.0
 10
105.1277861405
 20
239.8676611879
 30
0.0
 10
105.1202145294
 20
239.8570009288
 30
0.0
 10
105.1144463683
 20
239.8489858166
 30
0.0
 10
105.1105543666
 20
239.8447551846
 30
0.0
 10
105.1084018851
 20
239.8420992465
 30
0.0
 10
105.1075150874
 20
239.8421018674
 30
0.0
  0
SPLINE
  5
394
100
AcDbEntity
  8
0
100
AcDbSpline
 62
7
  6
CONTINUOUS
 70
0
 71
3
 72
9
 73
5
 74
0
 42
0.0000001
 43
0.0000001
 44
0.0000000001
 40
0.0
 40
0.0
 40
0.0
 40
0.0
 40
0.4982875379
 40
1.0
 40
1.0
 40
1.0
 40
1.0
 10
84.3382036604
 20
118.8670183463
 30
0.0
 10
84.4016672855
 20
118.725248203
 30
0.0
 10
84.5558606323
 20
118.4520054618
 30
0.0
 10
84.7552702989
 20
118.2105230405
 30
0.0
 10
84.8630556234
 20
118.0972025691
 30
0.0
  0
SPLINE
  5
395
100
AcDbEntity
  8
0
100
AcDbSpline
 62
7
  6
CONTINUOUS
 70
0
 71
3
 72
9
 73
5
 74
0
 42
0.0000001
 43
0.0000001
 44
0.0000000001
 40
0.0
 40
0.0
 40
0.0
 40
0.0
 40
0.2649215521
 40
1.0
 40
1.0
 40
1.0
 40
1.0
 10
107.6400491269
 20
25.2593922519
 30
0.0
 10
107.6401400168
 20
25.0069445836
 30
0.0
 10
107.6387549715
 20
24.0540321989
 30
0.0
 10
107.6313435922
 20
23.1011115554
 30
0.0
 10
107.6202957927
 20
22.4007315053
 30
0.0
  0
SPLINE
  5
396
100
AcDbEntity
  8
0
100
AcDbSpline
 62
7
  6
CONTINUOUS
 70
0
 71
3
 72
9
 73
5
 74
0
 42
0.0000001
 43
0.0000001
 44
0.0000000001
 40
0.0
 40
0.0
 40
0.0
 40
0.0
 40
0.2439542551
 40
1.0
 40
1.0
 40
1.0
 40
1.0
 10
107.6831106209
 20
114.588541985
 30
0.0
 10
107.6710968676
 20
113.0045679675
 30
0.0
 10
107.6289040891
 20
106.5116017162
 30
0.0
 10
107.6131332786
 20
100.0184686595
 30
0.0
 10
107.6149007172
 20
95.1093877223
 30
0.0
  0
SPLINE
  5
397
100
AcDbEntity
  8
0
100
AcDbSpline
 62
7
  6
CONTINUOUS
 70
0
 71
3
 72
9
 73
5
 74
0
 42
0.0000001
 43
0.0000001
 44
0.0000000001
 40
0.0
 40
0.0
 40
0.0
 40
0.0
 40
0.2543092852
 40
1.0
 40
1.0
 40
1.0
 40
1.0
 10
107.7513205246
 20
134.0676962477
 30
0.0
 10
107.7519150337
 20
132.4164405905
 30
0.0
 10
107.7480166223
 20
125.9233406923
 30
0.0
 10
107.7198328496
 20
119.4302475304
 30
0.0
 10
107.6831106209
 20
114.588541985
 30
0.0
  0
SPLINE
  5
398
100
AcDbEntity
  8
0
100
AcDbSpline
 62
7
  6
CONTINUOUS
 70
0
 71
3
 72
9
 73
5
 74
0
 42
0.0000001
 43
0.0000001
 44
0.0000000001
 40
0.0
 40
0.0
 40
0.0
 40
0.0
 40
0.1827281214
 40
1.0
 40
1.0
 40
1.0
 40
1.0
 10
107.5351002418
 20
223.1156767466
 30
0.0
 10
107.5390356644
 20
223.0877392996
 30
0.0
 10
107.5571435453
 20
222.9343754162
 30
0.0
 10
107.567727258
 20
222.7802540596
 30
0.0
 10
107.5756730385
 20
222.6543174901
 30
0.0
  0
SPLINE
  5
399
100
AcDbEntity
  8
0
100
AcDbSpline
 62
7
  6
CONTINUOUS
 70
0
 71
3
 72
9
 73
5
 74
0
 42
0.0000001
 43
0.0000001
 44
0.0000000001
 40
0.0
 40
0.0
 40
0.0
 40
0.0
 40
0.4270051317
 40
1.0
 40
1.0
 40
1.0
 40
1.0
 10
107.5819466971
 20
222.5502139626
 30
0.0
 10
107.597656604
 20
222.277712319
 30
0.0
 10
107.6241616537
 20
221.6389737771
 30
0.0
 10
107.6425402243
 20
221.0000091225
 30
0.0
 10
107.6516058064
 20
220.6338463286
 30
0.0
  0
LINE
  5
39A
100
AcDbEntity
  8
0
100
AcDbLine
 62
7
  6
CONTINUOUS
 10
107.6516058064
 20
220.6338463286
 11
107.6527655689
 21
220.586668499
  0
SPLINE
  5
39B
100
AcDbEntity
  8
0
100
AcDbSpline
 62
7
  6
CONTINUOUS
 70
0
 71
3
 72
9
 73
5
 74
0
 42
0.0000001
 43
0.0000001
 44
0.0000000001
 40
0.0
 40
0.0
 40
0.0
 40
0.0
 40
0.4566508584
 40
1.0
 40
1.0
 40
1.0
 40
1.0
 10
107.6527655689
 20
220.586668499
 30
0.0
 10
107.6781908037
 20
219.5450174775
 30
0.0
 10
107.7111949249
 20
217.2634195496
 30
0.0
 10
107.7221886976
 20
214.9816788245
 30
0.0
 10
107.7226350628
 20
213.7418941712
 30
0.0
  0
SPLINE
  5
39C
100
AcDbEntity
  8
0
100
AcDbSpline
 62
7
  6
CONTINUOUS
 70
0
 71
3
 72
8
 73
4
 74
0
 42
0.0000001
 43
0.0000001
 44
0.0000000001
 40
0.0
 40
0.0
 40
0.0
 40
0.0
 40
1.0
 40
1.0
 40
1.0
 40
1.0
 10
83.0949633964
 20
120.7520600538
 30
0.0
 10
83.19457411
 20
120.1424318216
 30
0.0
 10
83.3144209512
 20
119.5353124679
 30
0.0
 10
83.4651784971
 20
118.936279048
 30
0.0
  0
SPLINE
  5
39D
100
AcDbEntity
  8
0
100
AcDbSpline
 62
7
  6
CONTINUOUS
 70
0
 71
3
 72
13
 73
9
 74
0
 42
0.0000001
 43
0.0000001
 44
0.0000000001
 40
0.0
 40
0.0
 40
0.0
 40
0.0
 40
0.0164900532
 40
0.0617080294
 40
0.137314305
 40
0.2441952499
 40
0.5549178889
 40
1.0
 40
1.0
 40
1.0
 40
1.0
 10
78.5372127089
 20
210.5955374926
 30
0.0
 10
78.5380960683
 20
210.5953399921
 30
0.0
 10
78.5376366335
 20
210.5905123944
 30
0.0
 10
78.5375752195
 20
210.584311104
 30
0.0
 10
78.5355755328
 20
210.5711812834
 30
0.0
 10
78.5313899389
 20
210.5449235547
 30
0.0
 10
78.5223046599
 20
210.4980548717
 30
0.0
 10
78.5138805228
 20
210.4575738965
 30
0.0
 10
78.5087596253
 20
210.4336852449
 30
0.0
  0
SPLINE
  5
39E
100
AcDbEntity
  8
0
100
AcDbSpline
 62
7
  6
CONTINUOUS
 70
0
 71
3
 72
13
 73
9
 74
0
 42
0.0000001
 43
0.0000001
 44
0.0000000001
 40
0.0
 40
0.0
 40
0.0
 40
0.0
 40
0.0181710419
 40
0.0645350352
 40
0.1418081768
 40
0.2504117788
 40
0.5620786423
 40
1.0
 40
1.0
 40
1.0
 40
1.0
 10
78.2197102432
 20
210.6267033202
 30
0.0
 10
78.2215212193
 20
210.6267033202
 30
0.0
 10
78.2237412117
 20
210.6180746149
 30
0.0
 10
78.2233045976
 20
210.6059255248
 30
0.0
 10
78.2220910361
 20
210.5817032281
 30
0.0
 10
78.216454689
 20
210.5330918605
 30
0.0
 10
78.2040827235
 20
210.4479412874
 30
0.0
 10
78.1916871827
 20
210.3744510494
 30
0.0
 10
78.1842415696
 20
210.3314463906
 30
0.0
  0
SPLINE
  5
39F
100
AcDbEntity
  8
0
100
AcDbSpline
 62
7
  6
CONTINUOUS
 70
0
 71
3
 72
15
 73
11
 74
0
 42
0.0000001
 43
0.0000001
 44
0.0000000001
 40
0.0
 40
0.0
 40
0.0
 40
0.0
 40
0.38098184
 40
0.5506322356
 40
0.6999745119
 40
0.8242072849
 40
0.9185509597
 40
0.9783069898
 40
0.9938951844
 40
1.0
 40
1.0
 40
1.0
 40
1.0
 10
77.5830667695
 20
207.9231214545
 30
0.0
 10
77.5713772593
 20
207.8613493612
 30
0.0
 10
77.5546990599
 20
207.7720539312
 30
0.0
 10
77.5343607423
 20
207.6582888179
 30
0.0
 10
77.5219870148
 20
207.5863491021
 30
0.0
 10
77.5124019259
 20
207.5259808013
 30
0.0
 10
77.5059146344
 20
207.4815272959
 30
0.0
 10
77.503139313
 20
207.4517955298
 30
0.0
 10
77.5028382369
 20
207.4402298443
 30
0.0
 10
77.5038299528
 20
207.4352867843
 30
0.0
 10
77.5048373499
 20
207.4352867843
 30
0.0
  0
SPLINE
  5
3A0
100
AcDbEntity
  8
0
100
AcDbSpline
 62
7
  6
CONTINUOUS
 70
0
 71
3
 72
9
 73
5
 74
0
 42
0.0000001
 43
0.0000001
 44
0.0000000001
 40
0.0
 40
0.0
 40
0.0
 40
0.0
 40
0.2917014125
 40
1.0
 40
1.0
 40
1.0
 40
1.0
 10
77.4865102508
 20
207.216394254
 30
0.0
 10
77.4801811397
 20
207.190229133
 30
0.0
 10
77.4583382133
 20
207.1005669081
 30
0.0
 10
77.4359554011
 20
207.0110309335
 30
0.0
 10
77.4193076331
 20
206.9478210003
 30
0.0
  0
SPLINE
  5
3A1
100
AcDbEntity
  8
0
100
AcDbSpline
 62
7
  6
CONTINUOUS
 70
0
 71
3
 72
9
 73
5
 74
0
 42
0.0000001
 43
0.0000001
 44
0.0000000001
 40
0.0
 40
0.0
 40
0.0
 40
0.0
 40
0.356023966
 40
1.0
 40
1.0
 40
1.0
 40
1.0
 10
77.4193076331
 20
206.9478210003
 30
0.0
 10
77.4135778446
 20
206.9260655586
 30
0.0
 10
77.3969856928
 20
206.8651267944
 30
0.0
 10
77.3802732353
 20
206.8040225905
 30
0.0
 10
77.3658516922
 20
206.7659706236
 30
0.0
  0
SPLINE
  5
3A2
100
AcDbEntity
  8
0
100
AcDbSpline
 62
7
  6
CONTINUOUS
 70
0
 71
3
 72
9
 73
5
 74
0
 42
0.0000001
 43
0.0000001
 44
0.0000000001
 40
0.0
 40
0.0
 40
0.0
 40
0.0
 40
0.3599707672
 40
1.0
 40
1.0
 40
1.0
 40
1.0
 10
77.3658516922
 20
206.7659706236
 30
0.0
 10
77.3646839941
 20
206.7628895934
 30
0.0
 10
77.3612256146
 20
206.7544833457
 30
0.0
 10
77.3577921796
 20
206.7456810069
 30
0.0
 10
77.3539265415
 20
206.7412791083
 30
0.0
  0
SPLINE
  5
3A3
100
AcDbEntity
  8
0
100
AcDbSpline
 62
7
  6
CONTINUOUS
 70
0
 71
3
 72
9
 73
5
 74
0
 42
0.0000001
 43
0.0000001
 44
0.0000000001
 40
0.0
 40
0.0
 40
0.0
 40
0.0
 40
0.5979393073
 40
1.0
 40
1.0
 40
1.0
 40
1.0
 10
77.3539265415
 20
206.7412791083
 30
0.0
 10
77.3534730402
 20
206.740762695
 30
0.0
 10
77.3526669036
 20
206.7399381826
 30
0.0
 10
77.3515462724
 20
206.7394501662
 30
0.0
 10
77.3510841419
 20
206.7394501662
 30
0.0
  0
SPLINE
  5
3A4
100
AcDbEntity
  8
0
100
AcDbSpline
 62
7
  6
CONTINUOUS
 70
0
 71
3
 72
9
 73
5
 74
0
 42
0.0000001
 43
0.0000001
 44
0.0000000001
 40
0.0
 40
0.0
 40
0.0
 40
0.0
 40
0.2823599631
 40
1.0
 40
1.0
 40
1.0
 40
1.0
 10
77.9834798379
 20
209.6201855651
 30
0.0
 10
77.97976998
 20
209.6035833046
 30
0.0
 10
77.9667154637
 20
209.5447664344
 30
0.0
 10
77.9540052606
 20
209.4858722128
 30
0.0
 10
77.9451978791
 20
209.4435421729
 30
0.0
  0
SPLINE
  5
3A5
100
AcDbEntity
  8
0
100
AcDbSpline
 62
7
  6
CONTINUOUS
 70
0
 71
3
 72
9
 73
5
 74
0
 42
0.0000001
 43
0.0000001
 44
0.0000000001
 40
0.0
 40
0.0
 40
0.0
 40
0.0
 40
0.3399216462
 40
1.0
 40
1.0
 40
1.0
 40
1.0
 10
77.9451978791
 20
209.4435421729
 30
0.0
 10
77.9378377741
 20
209.408168034
 30
0.0
 10
77.9166214806
 20
209.3040027327
 30
0.0
 10
77.8999749753
 20
209.1989684725
 30
0.0
 10
77.8900000145
 20
209.1295186276
 30
0.0
  0
SPLINE
  5
3A6
100
AcDbEntity
  8
0
100
AcDbSpline
 62
7
  6
CONTINUOUS
 70
0
 71
3
 72
9
 73
5
 74
0
 42
0.0000001
 43
0.0000001
 44
0.0000000001
 40
0.0
 40
0.0
 40
0.0
 40
0.0
 40
0.2088293908
 40
1.0
 40
1.0
 40
1.0
 40
1.0
 10
77.8900000145
 20
209.1295186276
 30
0.0
 10
77.8880484767
 20
209.1159312058
 30
0.0
 10
77.8786727648
 20
209.0508705229
 30
0.0
 10
77.8677906041
 20
208.9860315633
 30
0.0
 10
77.8586670479
 20
208.9348325772
 30
0.0
  0
SPLINE
  5
3A7
100
AcDbEntity
  8
0
100
AcDbSpline
 62
7
  6
CONTINUOUS
 70
0
 71
3
 72
12
 73
8
 74
0
 42
0.0000001
 43
0.0000001
 44
0.0000000001
 40
0.0
 40
0.0
 40
0.0
 40
0.0
 40
0.0333965823
 40
0.0935455621
 40
0.1977260087
 40
0.5287123014
 40
1.0
 40
1.0
 40
1.0
 40
1.0
 10
78.0664049979
 20
209.931748933
 30
0.0
 10
78.0628083589
 20
209.931748933
 30
0.0
 10
78.0595190975
 20
209.9181624374
 30
0.0
 10
78.0526441549
 20
209.9009482921
 30
0.0
 10
78.0384180613
 20
209.8471968172
 30
0.0
 10
78.0140771404
 20
209.7546167326
 30
0.0
 10
77.9945483789
 20
209.6697192144
 30
0.0
 10
77.9834798379
 20
209.6201855651
 30
0.0
  0
SPLINE
  5
3A8
100
AcDbEntity
  8
0
100
AcDbSpline
 62
7
  6
CONTINUOUS
 70
0
 71
3
 72
9
 73
5
 74
0
 42
0.0000001
 43
0.0000001
 44
0.0000000001
 40
0.0
 40
0.0
 40
0.0
 40
0.0
 40
0.2748139061
 40
1.0
 40
1.0
 40
1.0
 40
1.0
 10
77.7079088663
 20
208.0703088038
 30
0.0
 10
77.6963164331
 20
208.0184306455
 30
0.0
 10
77.6546159297
 20
207.8295510145
 30
0.0
 10
77.6137104134
 20
207.6404712031
 30
0.0
 10
77.5866006224
 20
207.502842207
 30
0.0
  0
SPLINE
  5
3A9
100
AcDbEntity
  8
0
100
AcDbSpline
 62
7
  6
CONTINUOUS
 70
0
 71
3
 72
9
 73
5
 74
0
 42
0.0000001
 43
0.0000001
 44
0.0000000001
 40
0.0
 40
0.0
 40
0.0
 40
0.0
 40
0.1901749539
 40
1.0
 40
1.0
 40
1.0
 40
1.0
 10
77.8703848544
 20
208.7497467733
 30
0.0
 10
77.8677141962
 20
208.7404326949
 30
0.0
 10
77.8540820863
 20
208.6913386909
 30
0.0
 10
77.841589564
 20
208.6419364047
 30
0.0
 10
77.8316727076
 20
208.6018853495
 30
0.0
  0
SPLINE
  5
3AA
100
AcDbEntity
  8
0
100
AcDbSpline
 62
7
  6
CONTINUOUS
 70
0
 71
3
 72
9
 73
5
 74
0
 42
0.0000001
 43
0.0000001
 44
0.0000000001
 40
0.0
 40
0.0
 40
0.0
 40
0.0
 40
0.2206764468
 40
1.0
 40
1.0
 40
1.0
 40
1.0
 10
77.8316727076
 20
208.6018853495
 30
0.0
 10
77.8274591029
 20
208.584867929
 30
0.0
 10
77.8085849282
 20
208.5076987133
 30
0.0
 10
77.790336385
 20
208.4303778219
 30
0.0
 10
77.7762853506
 20
208.3700811303
 30
0.0
  0
LINE
  5
3AB
100
AcDbEntity
  8
0
100
AcDbLine
 62
7
  6
CONTINUOUS
 10
77.7196096653
 20
208.1224821948
 11
77.7079088663
 21
208.0703088038
  0
SPLINE
  5
3AC
100
AcDbEntity
  8
0
100
AcDbSpline
 62
7
  6
CONTINUOUS
 70
0
 71
3
 72
11
 73
7
 74
0
 42
0.0000001
 43
0.0000001
 44
0.0000000001
 40
0.0
 40
0.0
 40
0.0
 40
0.0
 40
0.0698942595
 40
0.2551988339
 40
0.5647884685
 40
1.0
 40
1.0
 40
1.0
 40
1.0
 10
78.0194872018
 20
209.4020481109
 30
0.0
 10
78.0212091282
 20
209.4020481109
 30
0.0
 10
78.0227221192
 20
209.3932272915
 30
0.0
 10
78.0222288042
 20
209.3816158767
 30
0.0
 10
78.0204860435
 20
209.3574350843
 30
0.0
 10
78.0182027678
 20
209.3396611179
 30
0.0
 10
78.0168079339
 20
209.329030291
 30
0.0
  0
SPLINE
  5
3AD
100
AcDbEntity
  8
0
100
AcDbSpline
 62
7
  6
CONTINUOUS
 70
0
 71
3
 72
9
 73
5
 74
0
 42
0.0000001
 43
0.0000001
 44
0.0000000001
 40
0.0
 40
0.0
 40
0.0
 40
0.0
 40
0.7048633541
 40
1.0
 40
1.0
 40
1.0
 40
1.0
 10
77.4366452194
 20
206.7594526338
 30
0.0
 10
77.4347056097
 20
206.754675539
 30
0.0
 10
77.4319071803
 20
206.7490853563
 30
0.0
 10
77.4277647448
 20
206.7407711704
 30
0.0
 10
77.4256059175
 20
206.7407711704
 30
0.0
  0
SPLINE
  5
3AE
100
AcDbEntity
  8
0
100
AcDbSpline
 62
7
  6
CONTINUOUS
 70
0
 71
3
 72
11
 73
7
 74
0
 42
0.0000001
 43
0.0000001
 44
0.0000000001
 40
0.0
 40
0.0
 40
0.0
 40
0.0
 40
0.0649391522
 40
0.2490815919
 40
0.5598510361
 40
1.0
 40
1.0
 40
1.0
 40
1.0
 10
78.0873697609
 20
209.4020481109
 30
0.0
 10
78.0885977526
 20
209.4020481109
 30
0.0
 10
78.0887099536
 20
209.3949801159
 30
0.0
 10
78.0884269181
 20
209.3866139992
 30
0.0
 10
78.0862257071
 20
209.367743317
 30
0.0
 10
78.0842407962
 20
209.3541230923
 30
0.0
 10
78.0829771321
 20
209.3458964147
 30
0.0
  0
SPLINE
  5
3AF
100
AcDbEntity
  8
0
100
AcDbSpline
 62
7
  6
CONTINUOUS
 70
0
 71
3
 72
9
 73
5
 74
0
 42
0.0000001
 43
0.0000001
 44
0.0000000001
 40
0.0
 40
0.0
 40
0.0
 40
0.0
 40
0.3653360577
 40
1.0
 40
1.0
 40
1.0
 40
1.0
 10
77.707687519
 20
207.6031854808
 30
0.0
 10
77.69513347
 20
207.5731611362
 30
0.0
 10
77.6704740748
 20
207.4872781426
 30
0.0
 10
77.6460910524
 20
207.4017307973
 30
0.0
 10
77.6313592295
 20
207.3471495717
 30
0.0
  0
SPLINE
  5
3B0
100
AcDbEntity
  8
0
100
AcDbSpline
 62
7
  6
CONTINUOUS
 70
0
 71
3
 72
9
 73
5
 74
0
 42
0.0000001
 43
0.0000001
 44
0.0000000001
 40
0.0
 40
0.0
 40
0.0
 40
0.0
 40
0.2205931321
 40
1.0
 40
1.0
 40
1.0
 40
1.0
 10
77.5695182868
 20
206.8760616746
 30
0.0
 10
77.5650500317
 20
206.8536953488
 30
0.0
 10
77.5445111057
 20
206.7523602
 30
0.0
 10
77.5231533343
 20
206.6511928145
 30
0.0
 10
77.5063020003
 20
206.572387401
 30
0.0
  0
LINE
  5
3B1
100
AcDbEntity
  8
0
100
AcDbLine
 62
7
  6
CONTINUOUS
 10
76.9366006752
 20
204.1270882494
 11
76.9297909485
 21
204.1001688024
  0
SPLINE
  5
3B2
100
AcDbEntity
  8
0
100
AcDbSpline
 62
7
  6
CONTINUOUS
 70
0
 71
3
 72
16
 73
12
 74
0
 42
0.0000001
 43
0.0000001
 44
0.0000000001
 40
0.0
 40
0.0
 40
0.0
 40
0.0
 40
0.3893295751
 40
0.556824183
 40
0.7036073249
 40
0.8255173676
 40
0.9182107607
 40
0.9522653395
 40
0.9774399902
 40
0.9933048995
 40
1.0
 40
1.0
 40
1.0
 40
1.0
 10
76.9297909485
 20
204.1001688024
 30
0.0
 10
76.9113700368
 20
204.0274750122
 30
0.0
 10
76.8847059534
 20
203.9235785127
 30
0.0
 10
76.8495994719
 20
203.7926930247
 30
0.0
 10
76.8270401908
 20
203.7117202707
 30
0.0
 10
76.8075003975
 20
203.6450178654
 30
0.0
 10
76.7930237508
 20
203.5991070392
 30
0.0
 10
76.783379281
 20
203.5718276419
 30
0.0
 10
76.777772935
 20
203.557854782
 30
0.0
 10
76.7741869827
 20
203.5506000281
 30
0.0
 10
76.7709908802
 20
203.5458651322
 30
0.0
 10
76.7697323612
 20
203.5461465048
 30
0.0
  0
LINE
  5
3B3
100
AcDbEntity
  8
0
100
AcDbLine
 62
7
  6
CONTINUOUS
 10
77.0118611957
 20
204.4294218313
 11
77.0069406816
 21
204.4093976076
  0
LINE
  5
3B4
100
AcDbEntity
  8
0
100
AcDbLine
 62
7
  6
CONTINUOUS
 10
77.2435483113
 20
205.4002173613
 11
77.2202753228
 21
205.300397239
  0
LINE
  5
3B5
100
AcDbEntity
  8
0
100
AcDbLine
 62
7
  6
CONTINUOUS
 10
77.2202753228
 20
205.300397239
 11
77.196869007
 21
205.2006105411
  0
LINE
  5
3B6
100
AcDbEntity
  8
0
100
AcDbLine
 62
7
  6
CONTINUOUS
 10
77.196869007
 20
205.2006105411
 11
77.1732948058
 21
205.1005539614
  0
SPLINE
  5
3B7
100
AcDbEntity
  8
0
100
AcDbSpline
 62
7
  6
CONTINUOUS
 70
0
 71
3
 72
13
 73
9
 74
0
 42
0.0000001
 43
0.0000001
 44
0.0000000001
 40
0.0
 40
0.0
 40
0.0
 40
0.0
 40
0.0178258407
 40
0.0689457481
 40
0.1525588702
 40
0.2670655306
 40
0.5819828689
 40
1.0
 40
1.0
 40
1.0
 40
1.0
 10
77.4031322318
 20
205.617474146
 30
0.0
 10
77.4041794799
 20
205.617474146
 30
0.0
 10
77.4034128749
 20
205.611128202
 30
0.0
 10
77.4033802798
 20
205.6043339587
 30
0.0
 10
77.4009669192
 20
205.5886452208
 30
0.0
 10
77.3964860543
 20
205.5595656998
 30
0.0
 10
77.387459849
 20
205.5100667393
 30
0.0
 10
77.3793840034
 20
205.4679565333
 30
0.0
 10
77.374647655
 20
205.4438595582
 30
0.0
  0
SPLINE
  5
3B8
100
AcDbEntity
  8
0
100
AcDbSpline
 62
7
  6
CONTINUOUS
 70
0
 71
3
 72
9
 73
5
 74
0
 42
0.0000001
 43
0.0000001
 44
0.0000000001
 40
0.0
 40
0.0
 40
0.0
 40
0.0
 40
0.3439373495
 40
1.0
 40
1.0
 40
1.0
 40
1.0
 10
77.1180584745
 20
204.2773606716
 30
0.0
 10
77.1134290459
 20
204.2596878303
 30
0.0
 10
77.099649952
 20
204.208406675
 30
0.0
 10
77.086108172
 20
204.1569549535
 30
0.0
 10
77.0746257557
 20
204.1240525218
 30
0.0
  0
SPLINE
  5
3B9
100
AcDbEntity
  8
0
100
AcDbSpline
 62
7
  6
CONTINUOUS
 70
0
 71
3
 72
9
 73
5
 74
0
 42
0.0000001
 43
0.0000001
 44
0.0000000001
 40
0.0
 40
0.0
 40
0.0
 40
0.0
 40
0.7218599124
 40
1.0
 40
1.0
 40
1.0
 40
1.0
 10
77.0746257557
 20
204.1240525218
 30
0.0
 10
77.0730228971
 20
204.119459591
 30
0.0
 10
77.0704751447
 20
204.1146096506
 30
0.0
 10
77.0678416571
 20
204.1059361743
 30
0.0
 10
77.0659672829
 20
204.1059361743
 30
0.0
  0
SPLINE
  5
3BA
100
AcDbEntity
  8
0
100
AcDbSpline
 62
7
  6
CONTINUOUS
 70
0
 71
3
 72
10
 73
6
 74
0
 42
0.0000001
 43
0.0000001
 44
0.0000000001
 40
0.0
 40
0.0
 40
0.0
 40
0.0
 40
0.6909780733
 40
0.8932016752
 40
1.0
 40
1.0
 40
1.0
 40
1.0
 10
77.215439854
 20
204.8189583388
 30
0.0
 10
77.1942071344
 20
204.7201062734
 30
0.0
 10
77.1665610316
 20
204.5923112456
 30
0.0
 10
77.1387808804
 20
204.4487216564
 30
0.0
 10
77.1304132828
 20
204.4042143707
 30
0.0
 10
77.1288172569
 20
204.388668929
 30
0.0
  0
SPLINE
  5
3BB
100
AcDbEntity
  8
0
100
AcDbSpline
 62
7
  6
CONTINUOUS
 70
0
 71
3
 72
11
 73
7
 74
0
 42
0.0000001
 43
0.0000001
 44
0.0000000001
 40
0.0
 40
0.0
 40
0.0
 40
0.0
 40
0.4275674164
 40
0.7392518601
 40
0.9307754183
 40
1.0
 40
1.0
 40
1.0
 40
1.0
 10
78.36301802
 20
209.8136455366
 30
0.0
 10
78.360736073
 20
209.8049915134
 30
0.0
 10
78.3566330714
 20
209.7905422086
 30
0.0
 10
78.3512753088
 20
209.7703504996
 30
0.0
 10
78.3470867553
 20
209.7616834129
 30
0.0
 10
78.3451384533
 20
209.7537968859
 30
0.0
 10
78.3437243594
 20
209.7541130483
 30
0.0
  0
SPLINE
  5
3BC
100
AcDbEntity
  8
0
100
AcDbSpline
 62
7
  6
CONTINUOUS
 70
0
 71
3
 72
9
 73
5
 74
0
 42
0.0000001
 43
0.0000001
 44
0.0000000001
 40
0.0
 40
0.0
 40
0.0
 40
0.0
 40
0.5581711807
 40
1.0
 40
1.0
 40
1.0
 40
1.0
 10
78.5087596253
 20
210.4336852449
 30
0.0
 10
78.4839142204
 20
210.317807308
 30
0.0
 10
78.4362209729
 20
210.1109061893
 30
0.0
 10
78.3869286747
 20
209.9043567514
 30
0.0
 10
78.3630180201
 20
209.8136455366
 30
0.0
  0
SPLINE
  5
3BD
100
AcDbEntity
  8
0
100
AcDbSpline
 62
7
  6
CONTINUOUS
 70
0
 71
3
 72
9
 73
5
 74
0
 42
0.0000001
 43
0.0000001
 44
0.0000000001
 40
0.0
 40
0.0
 40
0.0
 40
0.0
 40
0.722579155
 40
1.0
 40
1.0
 40
1.0
 40
1.0
 10
77.6440843561
 20
206.7714575973
 30
0.0
 10
77.6411720857
 20
206.7635484687
 30
0.0
 10
77.6368993771
 20
206.7548387644
 30
0.0
 10
77.6311934297
 20
206.7407711704
 30
0.0
 10
77.6279575543
 20
206.7407711704
 30
0.0
  0
SPLINE
  5
3BE
100
AcDbEntity
  8
0
100
AcDbSpline
 62
7
  6
CONTINUOUS
 70
0
 71
3
 72
9
 73
5
 74
0
 42
0.0000001
 43
0.0000001
 44
0.0000000001
 40
0.0
 40
0.0
 40
0.0
 40
0.0
 40
0.3103693167
 40
1.0
 40
1.0
 40
1.0
 40
1.0
 10
77.8788473787
 20
207.9328166259
 30
0.0
 10
77.8671275218
 20
207.880578765
 30
0.0
 10
77.8297964096
 20
207.712176909
 30
0.0
 10
77.7937741013
 20
207.543465467
 30
0.0
 10
77.7710055767
 20
207.4267085449
 30
0.0
  0
SPLINE
  5
3BF
100
AcDbEntity
  8
0
100
AcDbSpline
 62
7
  6
CONTINUOUS
 70
0
 71
3
 72
14
 73
10
 74
0
 42
0.0000001
 43
0.0000001
 44
0.0000000001
 40
0.0
 40
0.0
 40
0.0
 40
0.0
 40
0.0175961492
 40
0.0676031231
 40
0.1498040794
 40
0.2630204569
 40
0.4059670628
 40
0.5773300947
 40
1.0
 40
1.0
 40
1.0
 40
1.0
 10
78.2194558829
 20
209.4020481109
 30
0.0
 10
78.2213676041
 20
209.4020481109
 30
0.0
 10
78.2205871645
 20
209.3907011835
 30
0.0
 10
78.2203906923
 20
209.3781760604
 30
0.0
 10
78.2164538205
 20
209.3496463691
 30
0.0
 10
78.2111915935
 20
209.3141958235
 30
0.0
 10
78.2034329556
 20
209.2680435789
 30
0.0
 10
78.1894591912
 20
209.1893696833
 30
0.0
 10
78.1773938748
 20
209.1258923819
 30
0.0
 10
78.1686467345
 20
209.0808124991
 30
0.0
  0
SPLINE
  5
3C0
100
AcDbEntity
  8
0
100
AcDbSpline
 62
7
  6
CONTINUOUS
 70
0
 71
3
 72
14
 73
10
 74
0
 42
0.0000001
 43
0.0000001
 44
0.0000000001
 40
0.0
 40
0.0
 40
0.0
 40
0.0
 40
0.0153590972
 40
0.0593622009
 40
0.1340676744
 40
0.2404752369
 40
0.379464956
 40
0.5518848805
 40
1.0
 40
1.0
 40
1.0
 40
1.0
 10
78.1576143151
 20
209.4020481109
 30
0.0
 10
78.1589291514
 20
209.4020481109
 30
0.0
 10
78.1589382512
 20
209.3943834789
 30
0.0
 10
78.1586286963
 20
209.3853559288
 30
0.0
 10
78.1561125601
 20
209.3648053628
 30
0.0
 10
78.1521668633
 20
209.3383392622
 30
0.0
 10
78.1461999646
 20
209.3028114265
 30
0.0
 10
78.1346497777
 20
209.238954581
 30
0.0
 10
78.1244193679
 20
209.1867640791
 30
0.0
 10
78.1168813948
 20
209.1491504678
 30
0.0
  0
SPLINE
  5
3C1
100
AcDbEntity
  8
0
100
AcDbSpline
 62
7
  6
CONTINUOUS
 70
0
 71
3
 72
9
 73
5
 74
0
 42
0.0000001
 43
0.0000001
 44
0.0000000001
 40
0.0
 40
0.0
 40
0.0
 40
0.0
 40
0.316899739
 40
1.0
 40
1.0
 40
1.0
 40
1.0
 10
77.6168510058
 20
207.1769492242
 30
0.0
 10
77.6175803458
 20
207.1767861628
 30
0.0
 10
77.6186562837
 20
207.1740813207
 30
0.0
 10
77.6187145062
 20
207.171946066
 30
0.0
 10
77.6187840124
 20
207.1703366081
 30
0.0
  0
SPLINE
  5
3C2
100
AcDbEntity
  8
0
100
AcDbSpline
 62
7
  6
CONTINUOUS
 70
0
 71
3
 72
9
 73
5
 74
0
 42
0.0000001
 43
0.0000001
 44
0.0000000001
 40
0.0
 40
0.0
 40
0.0
 40
0.0
 40
0.3491945551
 40
1.0
 40
1.0
 40
1.0
 40
1.0
 10
77.6187840124
 20
207.1703366081
 30
0.0
 10
77.619191951
 20
207.1608905529
 30
0.0
 10
77.6159750903
 20
207.1338379161
 30
0.0
 10
77.612147071
 20
207.1071079031
 30
0.0
 10
77.6093293392
 20
207.0897133111
 30
0.0
  0
SPLINE
  5
3C3
100
AcDbEntity
  8
0
100
AcDbSpline
 62
7
  6
CONTINUOUS
 70
0
 71
3
 72
9
 73
5
 74
0
 42
0.0000001
 43
0.0000001
 44
0.0000000001
 40
0.0
 40
0.0
 40
0.0
 40
0.0
 40
0.1886301783
 40
1.0
 40
1.0
 40
1.0
 40
1.0
 10
77.6093293392
 20
207.0897133111
 30
0.0
 10
77.6071441858
 20
207.0762237898
 30
0.0
 10
77.5949229065
 20
207.0048143236
 30
0.0
 10
77.5810294051
 20
206.93370341
 30
0.0
 10
77.5695182868
 20
206.8760616746
 30
0.0
  0
SPLINE
  5
3C4
100
AcDbEntity
  8
0
100
AcDbSpline
 62
7
  6
CONTINUOUS
 70
0
 71
3
 72
15
 73
11
 74
0
 42
0.0000001
 43
0.0000001
 44
0.0000000001
 40
0.0
 40
0.0
 40
0.0
 40
0.0
 40
0.1656678129
 40
0.3197752687
 40
0.4060389483
 40
0.5198483144
 40
0.5990003638
 40
0.7035127249
 40
0.8375482219
 40
1.0
 40
1.0
 40
1.0
 40
1.0
 10
79.4976834017
 20
218.3127332427
 30
0.0
 10
79.5858154829
 20
218.5504551581
 30
0.0
 10
79.7626437503
 20
219.0068417686
 30
0.0
 10
80.0196317738
 20
219.5734867836
 30
0.0
 10
80.2861890791
 20
220.0460049119
 30
0.0
 10
80.5354468524
 20
220.3947407516
 30
0.0
 10
80.842506539
 20
220.7319563597
 30
0.0
 10
81.2171952276
 20
221.0447487099
 30
0.0
 10
81.7493990348
 20
221.3572266936
 30
0.0
 10
82.1872127294
 20
221.4961496607
 30
0.0
 10
82.431510509
 20
221.5422598914
 30
0.0
  0
LINE
  5
3C5
100
AcDbEntity
  8
0
100
AcDbLine
 62
7
  6
CONTINUOUS
 10
73.0935093083
 20
190.1285081249
 11
75.4950012312
 21
200.9324726657
  0
LINE
  5
3C6
100
AcDbEntity
  8
0
100
AcDbLine
 62
7
  6
CONTINUOUS
 10
75.4950012312
 20
200.9324726657
 11
77.070225176
 21
208.0173071998
  0
SPLINE
  5
3C7
100
AcDbEntity
  8
0
100
AcDbSpline
 62
7
  6
CONTINUOUS
 70
0
 71
3
 72
13
 73
9
 74
0
 42
0.0000001
 43
0.0000001
 44
0.0000000001
 40
0.0
 40
0.0
 40
0.0
 40
0.0
 40
0.0265706615
 40
0.0871798976
 40
0.1799923505
 40
0.3021885485
 40
0.6191517999
 40
1.0
 40
1.0
 40
1.0
 40
1.0
 10
95.329745427
 20
223.5217870623
 30
0.0
 10
95.420526937
 20
223.5226663344
 30
0.0
 10
95.7183453713
 20
223.5287400206
 30
0.0
 10
96.3332211316
 20
223.5404332376
 30
0.0
 10
97.2746978793
 20
223.5621736469
 30
0.0
 10
99.0916995884
 20
223.6097924229
 30
0.0
 10
101.8919595319
 20
223.7034722255
 30
0.0
 10
104.273916662
 20
223.8098180701
 30
0.0
 10
105.5735097852
 20
223.8758522582
 30
0.0
  0
SPLINE
  5
3C8
100
AcDbEntity
  8
0
100
AcDbSpline
 62
7
  6
CONTINUOUS
 70
0
 71
3
 72
8
 73
4
 74
0
 42
0.0000001
 43
0.0000001
 44
0.0000000001
 40
0.0
 40
0.0
 40
0.0
 40
0.0
 40
1.0
 40
1.0
 40
1.0
 40
1.0
 10
105.5735097852
 20
223.8758522582
 30
0.0
 10
105.7587099598
 20
223.8852625443
 30
0.0
 10
105.9439019513
 20
223.89483534
 30
0.0
 10
106.1290851599
 20
223.9045737904
 30
0.0
  0
SPLINE
  5
3C9
100
AcDbEntity
  8
0
100
AcDbSpline
 62
7
  6
CONTINUOUS
 70
0
 71
3
 72
9
 73
5
 74
0
 42
0.0000001
 43
0.0000001
 44
0.0000000001
 40
0.0
 40
0.0
 40
0.0
 40
0.0
 40
0.2505259138
 40
1.0
 40
1.0
 40
1.0
 40
1.0
 10
83.9613009148
 20
120.818044478
 30
0.0
 10
83.9861670899
 20
120.6539501458
 30
0.0
 10
84.090839417
 20
119.9998178025
 30
0.0
 10
84.2208826865
 20
119.3494677649
 30
0.0
 10
84.3382036723
 20
118.8670183498
 30
0.0
  0
SPLINE
  5
3CA
100
AcDbEntity
  8
0
100
AcDbSpline
 62
7
  6
CONTINUOUS
 70
0
 71
3
 72
9
 73
5
 74
0
 42
0.0000001
 43
0.0000001
 44
0.0000000001
 40
0.0
 40
0.0
 40
0.0
 40
0.0
 40
0.3121345319
 40
1.0
 40
1.0
 40
1.0
 40
1.0
 10
77.0726307198
 20
204.8837390729
 30
0.0
 10
77.0705317828
 20
204.8748186154
 30
0.0
 10
77.0637677342
 20
204.846249397
 30
0.0
 10
77.0569147327
 20
204.8176990635
 30
0.0
 10
77.0519236967
 20
204.7981302388
 30
0.0
  0
SPLINE
  5
3CB
100
AcDbEntity
  8
0
100
AcDbSpline
 62
7
  6
CONTINUOUS
 70
0
 71
3
 72
11
 73
7
 74
0
 42
0.0000001
 43
0.0000001
 44
0.0000000001
 40
0.0
 40
0.0
 40
0.0
 40
0.0
 40
0.4329693379
 40
0.7436406044
 40
0.9322160721
 40
1.0
 40
1.0
 40
1.0
 40
1.0
 10
77.0519236967
 20
204.7981302388
 30
0.0
 10
77.0508611373
 20
204.7939641619
 30
0.0
 10
77.0489292836
 20
204.787026097
 30
0.0
 10
77.0467233181
 20
204.7774558474
 30
0.0
 10
77.0446494074
 20
204.7731936203
 30
0.0
 10
77.0441935384
 20
204.769601812
 30
0.0
 10
77.0435204347
 20
204.769601812
 30
0.0
  0
SPLINE
  5
3CC
100
AcDbEntity
  8
0
100
AcDbSpline
 62
7
  6
CONTINUOUS
 70
0
 71
3
 72
13
 73
9
 74
0
 42
0.0000001
 43
0.0000001
 44
0.0000000001
 40
0.0
 40
0.0
 40
0.0
 40
0.0
 40
0.0195766979
 40
0.0682734533
 40
0.147191976
 40
0.2565531982
 40
0.5669610551
 40
1.0
 40
1.0
 40
1.0
 40
1.0
 10
77.4517817453
 20
206.4560916432
 30
0.0
 10
77.4503918054
 20
206.4560916432
 30
0.0
 10
77.4480148474
 20
206.4502851151
 30
0.0
 10
77.4440657971
 20
206.4419440023
 30
0.0
 10
77.4386765866
 20
206.4252731218
 30
0.0
 10
77.4282691557
 20
206.3918635732
 30
0.0
 10
77.4121208632
 20
206.3331690725
 30
0.0
 10
77.398822035
 20
206.28220557
 30
0.0
 10
77.3912230904
 20
206.2524137854
 30
0.0
  0
LINE
  5
3CD
100
AcDbEntity
  8
0
100
AcDbLine
 62
7
  6
CONTINUOUS
 10
77.9830101207
 20
208.3959391849
 11
77.9742807982
 21
208.3580737971
  0
SPLINE
  5
3CE
100
AcDbEntity
  8
0
100
AcDbSpline
 62
7
  6
CONTINUOUS
 70
0
 71
3
 72
9
 73
5
 74
0
 42
0.0000001
 43
0.0000001
 44
0.0000000001
 40
0.0
 40
0.0
 40
0.0
 40
0.0
 40
0.3506527347
 40
1.0
 40
1.0
 40
1.0
 40
1.0
 10
77.5962307597
 20
207.7847470457
 30
0.0
 10
77.606988674
 20
207.8328905864
 30
0.0
 10
77.6371232834
 20
207.9702960806
 30
0.0
 10
77.664629543
 20
208.1083496328
 30
0.0
 10
77.6790023079
 20
208.1985639644
 30
0.0
  0
SPLINE
  5
3CF
100
AcDbEntity
  8
0
100
AcDbSpline
 62
7
  6
CONTINUOUS
 70
0
 71
3
 72
9
 73
5
 74
0
 42
0.0000001
 43
0.0000001
 44
0.0000000001
 40
0.0
 40
0.0
 40
0.0
 40
0.0
 40
0.3868120811
 40
1.0
 40
1.0
 40
1.0
 40
1.0
 10
77.6790023079
 20
208.1985639644
 30
0.0
 10
77.6908884407
 20
208.2731703141
 30
0.0
 10
77.7181192018
 20
208.4666128008
 30
0.0
 10
77.7564873812
 20
208.658210998
 30
0.0
 10
77.7799104451
 20
208.7756582106
 30
0.0
  0
SPLINE
  5
3D0
100
AcDbEntity
  8
0
100
AcDbSpline
 62
7
  6
CONTINUOUS
 70
0
 71
3
 72
9
 73
5
 74
0
 42
0.0000001
 43
0.0000001
 44
0.0000000001
 40
0.0
 40
0.0
 40
0.0
 40
0.0
 40
0.1687234424
 40
1.0
 40
1.0
 40
1.0
 40
1.0
 10
77.5048373499
 20
207.4352867843
 30
0.0
 10
77.5063728076
 20
207.4352867843
 30
0.0
 10
77.5127770417
 20
207.4440404562
 30
0.0
 10
77.5138651775
 20
207.4523450618
 30
0.0
 10
77.5160627591
 20
207.4595838191
 30
0.0
  0
SPLINE
  5
3D1
100
AcDbEntity
  8
0
100
AcDbSpline
 62
7
  6
CONTINUOUS
 70
0
 71
3
 72
9
 73
5
 74
0
 42
0.0000001
 43
0.0000001
 44
0.0000000001
 40
0.0
 40
0.0
 40
0.0
 40
0.0
 40
0.3796056034
 40
1.0
 40
1.0
 40
1.0
 40
1.0
 10
77.5160627591
 20
207.4595838191
 30
0.0
 10
77.5283740576
 20
207.5001368077
 30
0.0
 10
77.5552664274
 20
207.6085672481
 30
0.0
 10
77.5811260803
 20
207.7171509735
 30
0.0
 10
77.5962307597
 20
207.7847470457
 30
0.0
  0
SPLINE
  5
3D2
100
AcDbEntity
  8
0
100
AcDbSpline
 62
7
  6
CONTINUOUS
 70
0
 71
3
 72
17
 73
13
 74
0
 42
0.0000001
 43
0.0000001
 44
0.0000000001
 40
0.0
 40
0.0
 40
0.0
 40
0.0
 40
0.0182426897
 40
0.0367034111
 40
0.0586477401
 40
0.0861264647
 40
0.1613421469
 40
0.2663568047
 40
0.4023694214
 40
0.5698609065
 40
0.7690419292
 40
1.0
 40
1.0
 40
1.0
 40
1.0
 10
82.4315224186
 20
221.5423317765
 30
0.0
 10
82.4400422911
 20
221.5439397197
 30
0.0
 10
82.4582037318
 20
221.5439018484
 30
0.0
 10
82.4835500996
 20
221.530275975
 30
0.0
 10
82.5046490691
 20
221.5052388237
 30
0.0
 10
82.5314893945
 20
221.4521005479
 30
0.0
 10
82.555021094
 20
221.3553196978
 30
0.0
 10
82.572433356
 20
221.2060491175
 30
0.0
 10
82.5802319174
 20
221.0118433534
 30
0.0
 10
82.5784275439
 20
220.772912296
 30
0.0
 10
82.5667517029
 20
220.4890643413
 30
0.0
 10
82.5533421192
 20
220.2850562622
 30
0.0
 10
82.545182969
 20
220.1755915379
 30
0.0
  0
SPLINE
  5
3D3
100
AcDbEntity
  8
0
100
AcDbSpline
 62
7
  6
CONTINUOUS
 70
0
 71
3
 72
11
 73
7
 74
0
 42
0.0000001
 43
0.0000001
 44
0.0000000001
 40
0.0
 40
0.0
 40
0.0
 40
0.0
 40
0.0591434112
 40
0.2323365967
 40
0.5406490372
 40
1.0
 40
1.0
 40
1.0
 40
1.0
 10
77.3510841419
 20
206.7394501662
 30
0.0
 10
77.3477864835
 20
206.7394501662
 30
0.0
 10
77.3464394814
 20
206.7584380893
 30
0.0
 10
77.3480007534
 20
206.7826878536
 30
0.0
 10
77.3543575131
 20
206.8384557622
 30
0.0
 10
77.3608236897
 20
206.879489026
 30
0.0
 10
77.3649061352
 20
206.9047735964
 30
0.0
  0
SPLINE
  5
3D4
100
AcDbEntity
  8
0
100
AcDbSpline
 62
7
  6
CONTINUOUS
 70
0
 71
3
 72
9
 73
5
 74
0
 42
0.0000001
 43
0.0000001
 44
0.0000000001
 40
0.0
 40
0.0
 40
0.0
 40
0.0
 40
0.2077463276
 40
1.0
 40
1.0
 40
1.0
 40
1.0
 10
77.3649061352
 20
206.9047735964
 30
0.0
 10
77.3671678097
 20
206.9187812461
 30
0.0
 10
77.3783823207
 20
206.9861550208
 30
0.0
 10
77.3906365162
 20
207.0533516568
 30
0.0
 10
77.4005970956
 20
207.1065378701
 30
0.0
  0
SPLINE
  5
3D5
100
AcDbEntity
  8
0
100
AcDbSpline
 62
7
  6
CONTINUOUS
 70
0
 71
3
 72
11
 73
7
 74
0
 42
0.0000001
 43
0.0000001
 44
0.0000000001
 40
0.0
 40
0.0
 40
0.0
 40
0.0
 40
0.240576298
 40
0.4931146792
 40
0.7475832238
 40
1.0
 40
1.0
 40
1.0
 40
1.0
 10
106.3552903784
 20
95.1086952853
 30
0.0
 10
105.8494978185
 20
94.9924437604
 30
0.0
 10
104.8257997487
 20
94.700512789
 30
0.0
 10
103.2325380117
 20
94.4250720803
 30
0.0
 10
101.59565839
 20
94.326862784
 30
0.0
 10
100.5026833099
 20
94.2984811553
 30
0.0
 10
99.958254624
 20
94.2883465326
 30
0.0
  0
SPLINE
  5
3D6
100
AcDbEntity
  8
0
100
AcDbSpline
 62
7
  6
CONTINUOUS
 70
0
 71
3
 72
14
 73
10
 74
0
 42
0.0000001
 43
0.0000001
 44
0.0000000001
 40
0.0
 40
0.0
 40
0.0
 40
0.0
 40
0.3608277295
 40
0.5296831811
 40
0.6821460346
 40
0.8117147654
 40
0.9119209373
 40
0.9764200363
 40
1.0
 40
1.0
 40
1.0
 40
1.0
 10
78.019201766
 20
209.5928645126
 30
0.0
 10
78.0260741667
 20
209.6335292104
 30
0.0
 10
78.0361771227
 20
209.6932823388
 30
0.0
 10
78.0486492288
 20
209.7700941955
 30
0.0
 10
78.0566975932
 20
209.8213756412
 30
0.0
 10
78.0625488734
 20
209.8635749849
 30
0.0
 10
78.0675489086
 20
209.8995978269
 30
0.0
 10
78.0674948502
 20
209.9160175667
 30
0.0
 10
78.0691001044
 20
209.931748933
 30
0.0
 10
78.0664049979
 20
209.931748933
 30
0.0
  0
LINE
  5
3D7
100
AcDbEntity
  8
0
100
AcDbLine
 62
7
  6
CONTINUOUS
 10
77.8618947986
 20
208.8256830323
 11
77.8692343473
 21
208.8562483135
  0
SPLINE
  5
3D8
100
AcDbEntity
  8
0
100
AcDbSpline
 62
7
  6
CONTINUOUS
 70
0
 71
3
 72
13
 73
9
 74
0
 42
0.0000001
 43
0.0000001
 44
0.0000000001
 40
0.0
 40
0.0
 40
0.0
 40
0.0
 40
0.4394351848
 40
0.7487082538
 40
0.8561811285
 40
0.9331420893
 40
0.9804508296
 40
1.0
 40
1.0
 40
1.0
 40
1.0
 10
77.9421714758
 20
209.1502582694
 30
0.0
 10
77.9518730976
 20
209.1877189605
 30
0.0
 10
77.968753099
 20
209.251320435
 30
0.0
 10
77.9894127473
 20
209.3242085598
 30
0.0
 10
78.002622424
 20
209.3651583757
 30
0.0
 10
78.0095563996
 20
209.3851433508
 30
0.0
 10
78.0144694055
 20
209.3953741294
 30
0.0
 10
78.0177657058
 20
209.4020481109
 30
0.0
 10
78.0194872018
 20
209.4020481109
 30
0.0
  0
SPLINE
  5
3D9
100
AcDbEntity
  8
0
100
AcDbSpline
 62
7
  6
CONTINUOUS
 70
0
 71
3
 72
13
 73
9
 74
0
 42
0.0000001
 43
0.0000001
 44
0.0000000001
 40
0.0
 40
0.0
 40
0.0
 40
0.0
 40
0.0258918191
 40
0.0762780922
 40
0.1532854576
 40
0.2588313008
 40
0.5630029764
 40
1.0
 40
1.0
 40
1.0
 40
1.0
 10
77.4237221648
 20
206.7432204
 30
0.0
 10
77.4225126388
 20
206.7476720474
 30
0.0
 10
77.4231781245
 20
206.7615466858
 30
0.0
 10
77.4253945026
 20
206.7885595031
 30
0.0
 10
77.4312266043
 20
206.8297743568
 30
0.0
 10
77.4449432724
 20
206.9153329174
 30
0.0
 10
77.4727313355
 20
207.063681954
 30
0.0
 10
77.498879661
 20
207.1930967725
 30
0.0
 10
77.5146025535
 20
207.2693506255
 30
0.0
  0
LINE
  5
3DA
100
AcDbEntity
  8
0
100
AcDbLine
 62
7
  6
CONTINUOUS
 10
77.5146025535
 20
207.2693506255
 11
77.523251792
 21
207.311148702
  0
SPLINE
  5
3DB
100
AcDbEntity
  8
0
100
AcDbSpline
 62
7
  6
CONTINUOUS
 70
0
 71
3
 72
20
 73
16
 74
0
 42
0.0000001
 43
0.0000001
 44
0.0000000001
 40
0.0
 40
0.0
 40
0.0
 40
0.0
 40
0.1940769876
 40
0.3790259456
 40
0.5497975097
 40
0.6280663301
 40
0.7002989046
 40
0.7656415651
 40
0.8234052396
 40
0.8729656823
 40
0.9139109507
 40
0.9461381928
 40
0.9700342045
 40
0.9868828241
 40
1.0
 40
1.0
 40
1.0
 40
1.0
 10
99.8364981874
 20
94.2473479257
 30
0.0
 10
99.4364845399
 20
93.9998402195
 30
0.0
 10
98.6551198539
 20
93.5167761239
 30
0.0
 10
97.5207903005
 20
92.8171777995
 30
0.0
 10
96.6037156751
 20
92.3013514954
 30
0.0
 10
95.9146847476
 20
91.938448088
 30
0.0
 10
95.4426940504
 20
91.7123727922
 30
0.0
 10
95.0062548638
 20
91.5284366612
 30
0.0
 10
94.6136196345
 20
91.3831087681
 30
0.0
 10
94.2693099067
 20
91.2790416874
 30
0.0
 10
93.9784306002
 20
91.2154275031
 30
0.0
 10
93.7433168772
 20
91.1913069973
 30
0.0
 10
93.5664247276
 20
91.2039626834
 30
0.0
 10
93.4395028171
 20
91.2514821342
 30
0.0
 10
93.3971022275
 20
91.318753505
 30
0.0
 10
93.3915509599
 20
91.3500578883
 30
0.0
  0
LINE
  5
3DC
100
AcDbEntity
  8
0
100
AcDbLine
 62
7
  6
CONTINUOUS
 10
77.9718567543
 20
208.9723844695
 11
77.9801282939
 21
209.0063168528
  0
SPLINE
  5
3DD
100
AcDbEntity
  8
0
100
AcDbSpline
 62
7
  6
CONTINUOUS
 70
0
 71
3
 72
9
 73
5
 74
0
 42
0.0000001
 43
0.0000001
 44
0.0000000001
 40
0.0
 40
0.0
 40
0.0
 40
0.0
 40
0.3421580502
 40
1.0
 40
1.0
 40
1.0
 40
1.0
 10
77.9801282939
 20
209.0063168528
 30
0.0
 10
77.9899361803
 20
209.0464614402
 30
0.0
 10
78.0190484174
 20
209.1636636367
 30
0.0
 10
78.0478850461
 20
209.2810244401
 30
0.0
 10
78.070497815
 20
209.3571917869
 30
0.0
  0
SPLINE
  5
3DE
100
AcDbEntity
  8
0
100
AcDbSpline
 62
7
  6
CONTINUOUS
 70
0
 71
3
 72
8
 73
4
 74
0
 42
0.0000001
 43
0.0000001
 44
0.0000000001
 40
0.0
 40
0.0
 40
0.0
 40
0.0
 40
1.0
 40
1.0
 40
1.0
 40
1.0
 10
99.958250302
 20
94.2885910703
 30
0.0
 10
99.9154791523
 20
94.286004068
 30
0.0
 10
99.8726900891
 20
94.2702871948
 30
0.0
 10
99.8364981874
 20
94.2473479257
 30
0.0
  0
SPLINE
  5
3DF
100
AcDbEntity
  8
0
100
AcDbSpline
 62
7
  6
CONTINUOUS
 70
0
 71
3
 72
14
 73
10
 74
0
 42
0.0000001
 43
0.0000001
 44
0.0000000001
 40
0.0
 40
0.0
 40
0.0
 40
0.0
 40
0.3994077466
 40
0.5698988753
 40
0.7165478726
 40
0.8360845216
 40
0.9252500727
 40
0.9808285102
 40
1.0
 40
1.0
 40
1.0
 40
1.0
 10
77.9169081197
 20
208.6363359991
 30
0.0
 10
77.9216595784
 20
208.6595203545
 30
0.0
 10
77.9283716403
 20
208.6926597198
 30
0.0
 10
77.9364233754
 20
208.7342445834
 30
0.0
 10
77.9413363139
 20
208.7598813146
 30
0.0
 10
77.944684427
 20
208.7800369982
 30
0.0
 10
77.9480679555
 20
208.7968624299
 30
0.0
 10
77.9477867834
 20
208.8039745679
 30
0.0
 10
77.9497337511
 20
208.811093917
 30
0.0
 10
77.9485977767
 20
208.811093917
 30
0.0
  0
SPLINE
  5
3E0
100
AcDbEntity
  8
0
100
AcDbSpline
 62
7
  6
CONTINUOUS
 70
0
 71
3
 72
8
 73
4
 74
0
 42
0.0000001
 43
0.0000001
 44
0.0000000001
 40
0.0
 40
0.0
 40
0.0
 40
0.0
 40
1.0
 40
1.0
 40
1.0
 40
1.0
 10
87.9404862917
 20
115.6027132069
 30
0.0
 10
87.3409788201
 20
116.0447984912
 30
0.0
 10
86.7662314685
 20
116.520615341
 30
0.0
 10
86.2041560343
 20
117.0094095854
 30
0.0
  0
SPLINE
  5
3E1
100
AcDbEntity
  8
0
100
AcDbSpline
 62
7
  6
CONTINUOUS
 70
0
 71
3
 72
14
 73
10
 74
0
 42
0.0000001
 43
0.0000001
 44
0.0000000001
 40
0.0
 40
0.0
 40
0.0
 40
0.0
 40
0.3597744521
 40
0.5261538536
 40
0.6734899403
 40
0.7954073451
 40
0.8891286491
 40
0.9548908728
 40
1.0
 40
1.0
 40
1.0
 40
1.0
 10
85.1281686318
 20
123.8536811533
 30
0.0
 10
84.9264307429
 20
123.8343444547
 30
0.0
 10
84.63019564
 20
123.8155912176
 30
0.0
 10
84.2506847899
 20
123.8187692112
 30
0.0
 10
84.0056486616
 20
123.8352497071
 30
0.0
 10
83.8031561875
 20
123.8658662222
 30
0.0
 10
83.6499597498
 20
123.9088892486
 30
0.0
 10
83.5461111704
 20
123.9613124184
 30
0.0
 10
83.5048168409
 20
124.0137782563
 30
0.0
 10
83.4984300781
 20
124.0383726806
 30
0.0
  0
SPLINE
  5
3E2
100
AcDbEntity
  8
0
100
AcDbSpline
 62
7
  6
CONTINUOUS
 70
0
 71
3
 72
11
 73
7
 74
0
 42
0.0000001
 43
0.0000001
 44
0.0000000001
 40
0.0
 40
0.0
 40
0.0
 40
0.0
 40
0.2398619881
 40
0.4889414324
 40
0.7430498193
 40
1.0
 40
1.0
 40
1.0
 40
1.0
 10
86.204079035
 20
117.0093211385
 30
0.0
 10
86.1464169989
 20
117.5603438665
 30
0.0
 10
85.9736440966
 20
118.677296209
 30
0.0
 10
85.6719496485
 20
120.3665992441
 30
0.0
 10
85.3605693229
 20
122.0946083283
 30
0.0
 10
85.193560223
 20
123.2637928149
 30
0.0
 10
85.1281686318
 20
123.8536811533
 30
0.0
  0
SPLINE
  5
3E3
100
AcDbEntity
  8
0
100
AcDbSpline
 62
7
  6
CONTINUOUS
 70
0
 71
3
 72
9
 73
5
 74
0
 42
0.0000001
 43
0.0000001
 44
0.0000000001
 40
0.0
 40
0.0
 40
0.0
 40
0.0
 40
0.4828686315
 40
1.0
 40
1.0
 40
1.0
 40
1.0
 10
84.8630556234
 20
118.0972025691
 30
0.0
 10
85.0546934354
 20
117.8957234967
 30
0.0
 10
85.5033089456
 20
117.5298749774
 30
0.0
 10
85.9793749252
 20
117.2047406711
 30
0.0
 10
86.204079035
 20
117.0093211385
 30
0.0
  0
LINE
  5
3E4
100
AcDbEntity
  8
0
100
AcDbLine
 62
7
  6
CONTINUOUS
 10
77.4029316896
 20
206.4080576821
 11
77.4251638162
 21
206.497328089
  0
SPLINE
  5
3E5
100
AcDbEntity
  8
0
100
AcDbSpline
 62
7
  6
CONTINUOUS
 70
0
 71
3
 72
9
 73
5
 74
0
 42
0.0000001
 43
0.0000001
 44
0.0000000001
 40
0.0
 40
0.0
 40
0.0
 40
0.0
 40
0.2719228103
 40
1.0
 40
1.0
 40
1.0
 40
1.0
 10
77.4251638162
 20
206.497328089
 30
0.0
 10
77.4326791927
 20
206.5273999735
 30
0.0
 10
77.460422912
 20
206.6379629516
 30
0.0
 10
77.4886287546
 20
206.7484124138
 30
0.0
 10
77.5097824532
 20
206.8286655698
 30
0.0
  0
LINE
  5
3E6
100
AcDbEntity
  8
0
100
AcDbLine
 62
7
  6
CONTINUOUS
 10
77.5097824532
 20
206.8286655698
 11
77.5150601736
 21
206.8486308386
  0
SPLINE
  5
3E7
100
AcDbEntity
  8
0
100
AcDbSpline
 62
7
  6
CONTINUOUS
 70
0
 71
3
 72
9
 73
5
 74
0
 42
0.0000001
 43
0.0000001
 44
0.0000000001
 40
0.0
 40
0.0
 40
0.0
 40
0.0
 40
0.2772060797
 40
1.0
 40
1.0
 40
1.0
 40
1.0
 10
77.5150601736
 20
206.8486308386
 30
0.0
 10
77.5195520029
 20
206.8655730726
 30
0.0
 10
77.5358776258
 20
206.9266580791
 30
0.0
 10
77.552697631
 20
206.9876145334
 30
0.0
 10
77.5654206098
 20
207.0315096642
 30
0.0
  0
SPLINE
  5
3E8
100
AcDbEntity
  8
0
100
AcDbSpline
 62
7
  6
CONTINUOUS
 70
0
 71
3
 72
9
 73
5
 74
0
 42
0.0000001
 43
0.0000001
 44
0.0000000001
 40
0.0
 40
0.0
 40
0.0
 40
0.0
 40
0.2722537404
 40
1.0
 40
1.0
 40
1.0
 40
1.0
 10
77.5654206098
 20
207.0315096642
 30
0.0
 10
77.5671052994
 20
207.0373219562
 30
0.0
 10
77.5733342389
 20
207.0586587538
 30
0.0
 10
77.5797294852
 20
207.0799477504
 30
0.0
 10
77.5845448444
 20
207.09539038
 30
0.0
  0
SPLINE
  5
3E9
100
AcDbEntity
  8
0
100
AcDbSpline
 62
7
  6
CONTINUOUS
 70
0
 71
3
 72
11
 73
7
 74
0
 42
0.0000001
 43
0.0000001
 44
0.0000000001
 40
0.0
 40
0.0
 40
0.0
 40
0.0
 40
0.4168217633
 40
0.7275324473
 40
0.9234052343
 40
1.0
 40
1.0
 40
1.0
 40
1.0
 10
77.5845448444
 20
207.09539038
 30
0.0
 10
77.5881967276
 20
207.107101797
 30
0.0
 10
77.5946698649
 20
207.1269964742
 30
0.0
 10
77.6038912815
 20
207.1542110744
 30
0.0
 10
77.6101448382
 20
207.1671698241
 30
0.0
 10
77.6146510394
 20
207.1774410791
 30
0.0
 10
77.6168510058
 20
207.1769492242
 30
0.0
  0
LINE
  5
3EA
100
AcDbEntity
  8
0
100
AcDbLine
 62
7
  6
CONTINUOUS
 10
77.301792915
 20
205.9933763518
 11
77.3378575381
 21
206.1426244554
  0
LINE
  5
3EB
100
AcDbEntity
  8
0
100
AcDbLine
 62
7
  6
CONTINUOUS
 10
77.1561670304
 20
205.3786253447
 11
77.1794007887
 21
205.478125486
  0
LINE
  5
3EC
100
AcDbEntity
  8
0
100
AcDbLine
 62
7
  6
CONTINUOUS
 10
77.1794007887
 20
205.478125486
 11
77.2027326529
 21
205.5773673313
  0
LINE
  5
3ED
100
AcDbEntity
  8
0
100
AcDbLine
 62
7
  6
CONTINUOUS
 10
77.2027326529
 20
205.5773673313
 11
77.2262504325
 21
205.6769661789
  0
SPLINE
  5
3EE
100
AcDbEntity
  8
0
100
AcDbSpline
 62
7
  6
CONTINUOUS
 70
0
 71
3
 72
9
 73
5
 74
0
 42
0.0000001
 43
0.0000001
 44
0.0000000001
 40
0.0
 40
0.0
 40
0.0
 40
0.0
 40
0.2500175123
 40
1.0
 40
1.0
 40
1.0
 40
1.0
 10
82.0425410195
 20
133.9514862327
 30
0.0
 10
81.3671894076
 20
138.3880170665
 30
0.0
 10
78.6656298793
 20
156.1328452784
 30
0.0
 10
75.9626939694
 20
173.8774639433
 30
0.0
 10
73.9347654077
 20
187.1854992341
 30
0.0
  0
SPLINE
  5
3EF
100
AcDbEntity
  8
0
100
AcDbSpline
 62
7
  6
CONTINUOUS
 70
0
 71
3
 72
9
 73
5
 74
0
 42
0.0000001
 43
0.0000001
 44
0.0000000001
 40
0.0
 40
0.0
 40
0.0
 40
0.0
 40
0.2465767912
 40
1.0
 40
1.0
 40
1.0
 40
1.0
 10
87.9404919522
 20
115.6027165672
 30
0.0
 10
88.0825854155
 20
115.5849544935
 30
0.0
 10
88.6595323143
 20
115.5183708823
 30
0.0
 10
89.2384424232
 20
115.4697953878
 30
0.0
 10
89.6749374943
 20
115.4394293369
 30
0.0
  0
SPLINE
  5
3F0
100
AcDbEntity
  8
0
100
AcDbSpline
 62
7
  6
CONTINUOUS
 70
0
 71
3
 72
8
 73
4
 74
0
 42
0.0000001
 43
0.0000001
 44
0.0000000001
 40
0.0
 40
0.0
 40
0.0
 40
0.0
 40
1.0
 40
1.0
 40
1.0
 40
1.0
 10
87.9404908178
 20
115.6027150844
 30
0.0
 10
88.4006519737
 20
115.1947771901
 30
0.0
 10
88.8817202607
 20
114.8072145393
 30
0.0
 10
89.3920620259
 20
114.4641214066
 30
0.0
  0
SPLINE
  5
3F1
100
AcDbEntity
  8
0
100
AcDbSpline
 62
7
  6
CONTINUOUS
 70
0
 71
3
 72
9
 73
5
 74
0
 42
0.0000001
 43
0.0000001
 44
0.0000000001
 40
0.0
 40
0.0
 40
0.0
 40
0.0
 40
0.2198970079
 40
1.0
 40
1.0
 40
1.0
 40
1.0
 10
76.8162945581
 20
203.8419679942
 30
0.0
 10
76.8209799899
 20
203.8654215595
 30
0.0
 10
76.8426010885
 20
203.972015913
 30
0.0
 10
76.8651181883
 20
204.0784264396
 30
0.0
 10
76.8829016593
 20
204.1613894247
 30
0.0
  0
SPLINE
  5
3F2
100
AcDbEntity
  8
0
100
AcDbSpline
 62
7
  6
CONTINUOUS
 70
0
 71
3
 72
19
 73
15
 74
0
 42
0.0000001
 43
0.0000001
 44
0.0000000001
 40
0.0
 40
0.0
 40
0.0
 40
0.0
 40
0.0327773307
 40
0.0654672565
 40
0.0979013934
 40
0.130145303
 40
0.1942228606
 40
0.2579074567
 40
0.3846072797
 40
0.5106676237
 40
0.6358696427
 40
0.7599511567
 40
0.8820694469
 40
1.0
 40
1.0
 40
1.0
 40
1.0
 10
89.3920620259
 20
114.4641214066
 30
0.0
 10
89.5435137821
 20
114.3671740703
 30
0.0
 10
89.8280455011
 20
114.1450891904
 30
0.0
 10
90.2069979842
 20
113.7632601814
 30
0.0
 10
90.5442785874
 20
113.3478781848
 30
0.0
 10
90.9361441487
 20
112.7591347698
 30
0.0
 10
91.3348708065
 20
111.9738557197
 30
0.0
 10
91.8292967026
 20
110.6664816907
 30
0.0
 10
92.2524204896
 20
108.9781930968
 30
0.0
 10
92.6097891303
 20
106.9355275752
 30
0.0
 10
92.9065949769
 20
104.8975796072
 30
0.0
 10
93.1779463313
 20
102.8782685014
 30
0.0
 10
93.4239243657
 20
100.8952773886
 30
0.0
 10
93.5203630283
 20
99.5815089015
 30
0.0
 10
93.5677096593
 20
98.9362519108
 30
0.0
  0
LINE
  5
3F3
100
AcDbEntity
  8
0
100
AcDbLine
 62
7
  6
CONTINUOUS
 10
93.5677096593
 20
98.9362519108
 11
93.5781682977
 21
98.7937912994
  0
SPLINE
  5
3F4
100
AcDbEntity
  8
0
100
AcDbSpline
 62
7
  6
CONTINUOUS
 70
0
 71
3
 72
15
 73
11
 74
0
 42
0.0000001
 43
0.0000001
 44
0.0000000001
 40
0.0
 40
0.0
 40
0.0
 40
0.0
 40
0.1017372044
 40
0.2157839093
 40
0.3371444384
 40
0.4639318061
 40
0.5947076849
 40
0.7282125582
 40
0.8634428987
 40
1.0
 40
1.0
 40
1.0
 40
1.0
 10
93.5781682977
 20
98.7937912994
 30
0.0
 10
93.7926652945
 20
98.7364179533
 30
0.0
 10
94.2367256908
 20
98.576353782
 30
0.0
 10
94.9171296735
 20
98.2970188961
 30
0.0
 10
95.6431127198
 20
97.9838134435
 30
0.0
 10
96.3913029938
 20
97.6312261107
 30
0.0
 10
97.154118076
 20
97.2483383661
 30
0.0
 10
97.9330429535
 20
96.8565312385
 30
0.0
 10
98.725098044
 20
96.4627902376
 30
0.0
 10
99.2480113756
 20
96.1822266116
 30
0.0
 10
99.5063294295
 20
96.0335860195
 30
0.0
  0
SPLINE
  5
3F5
100
AcDbEntity
  8
0
100
AcDbSpline
 62
7
  6
CONTINUOUS
 70
0
 71
3
 72
8
 73
4
 74
0
 42
0.0000001
 43
0.0000001
 44
0.0000000001
 40
0.0
 40
0.0
 40
0.0
 40
0.0
 40
1.0
 40
1.0
 40
1.0
 40
1.0
 10
93.5848833057
 20
98.4548710853
 30
0.0
 10
93.5850379527
 20
98.3212245679
 30
0.0
 10
93.582361134
 20
98.1875776632
 30
0.0
 10
93.5788972035
 20
98.0539759539
 30
0.0
  0
SPLINE
  5
3F6
100
AcDbEntity
  8
0
100
AcDbSpline
 62
7
  6
CONTINUOUS
 70
0
 71
3
 72
11
 73
7
 74
0
 42
0.0000001
 43
0.0000001
 44
0.0000000001
 40
0.0
 40
0.0
 40
0.0
 40
0.0
 40
0.2513386628
 40
0.5020834536
 40
0.7514654141
 40
1.0
 40
1.0
 40
1.0
 40
1.0
 10
93.5695678515
 20
97.7664708772
 30
0.0
 10
93.5458460074
 20
97.2292083415
 30
0.0
 10
93.5068161932
 20
96.1555910912
 30
0.0
 10
93.4577560321
 20
94.5484402696
 30
0.0
 10
93.4177049053
 20
92.9470222735
 30
0.0
 10
93.4001981601
 20
91.881773711
 30
0.0
 10
93.3915509599
 20
91.3500578883
 30
0.0
  0
SPLINE
  5
3F7
100
AcDbEntity
  8
0
100
AcDbSpline
 62
7
  6
CONTINUOUS
 70
0
 71
3
 72
9
 73
5
 74
0
 42
0.0000001
 43
0.0000001
 44
0.0000000001
 40
0.0
 40
0.0
 40
0.0
 40
0.0
 40
0.4971716725
 40
1.0
 40
1.0
 40
1.0
 40
1.0
 10
89.6746586779
 20
115.4394479776
 30
0.0
 10
91.3754308759
 20
112.2604182378
 30
0.0
 10
94.701432877
 20
105.8153532644
 30
0.0
 10
97.9083784956
 20
99.3110182695
 30
0.0
 10
99.5063613713
 20
96.0333997764
 30
0.0
  0
SPLINE
  5
3F8
100
AcDbEntity
  8
0
100
AcDbSpline
 62
7
  6
CONTINUOUS
 70
0
 71
3
 72
9
 73
5
 74
0
 42
0.0000001
 43
0.0000001
 44
0.0000000001
 40
0.0
 40
0.0
 40
0.0
 40
0.0
 40
0.2493652328
 40
1.0
 40
1.0
 40
1.0
 40
1.0
 10
83.4984298233
 20
124.0383736618
 30
0.0
 10
83.3777124668
 20
124.8624127107
 30
0.0
 10
82.8931505897
 20
128.1668915196
 30
0.0
 10
82.4072334575
 20
131.4711713624
 30
0.0
 10
82.0425409388
 20
133.9514865288
 30
0.0
  0
SPLINE
  5
3F9
100
AcDbEntity
  8
0
100
AcDbSpline
 62
7
  6
CONTINUOUS
 70
0
 71
3
 72
14
 73
10
 74
0
 42
0.0000001
 43
0.0000001
 44
0.0000000001
 40
0.0
 40
0.0
 40
0.0
 40
0.0
 40
0.24952689
 40
0.3744359798
 40
0.4994831534
 40
0.6246460786
 40
0.7498532978
 40
0.8749925007
 40
1.0
 40
1.0
 40
1.0
 40
1.0
 10
99.9086484237
 20
96.0709554959
 30
0.0
 10
100.452626252
 20
96.0560313375
 30
0.0
 10
101.2687395569
 20
96.0207182643
 30
0.0
 10
102.3547001189
 20
95.9333518631
 30
0.0
 10
103.1672551696
 20
95.8364874814
 30
0.0
 10
103.9761550288
 20
95.7090312335
 30
0.0
 10
104.7804563616
 20
95.5535989427
 30
0.0
 10
105.5764128685
 20
95.3616008094
 30
0.0
 10
106.0991922018
 20
95.2028888384
 30
0.0
 10
106.3551264789
 20
95.1089674831
 30
0.0
  0
SPLINE
  5
3FA
100
AcDbEntity
  8
0
100
AcDbSpline
 62
7
  6
CONTINUOUS
 70
0
 71
3
 72
9
 73
5
 74
0
 42
0.0000001
 43
0.0000001
 44
0.0000000001
 40
0.0
 40
0.0
 40
0.0
 40
0.0
 40
0.2543132195
 40
1.0
 40
1.0
 40
1.0
 40
1.0
 10
106.3551264913
 20
95.1089339171
 30
0.0
 10
106.3545180832
 20
96.7602157303
 30
0.0
 10
106.3584219092
 20
103.2533180305
 30
0.0
 10
106.3864833747
 20
109.7464139844
 30
0.0
 10
106.423153698
 20
114.5880961804
 30
0.0
  0
SPLINE
  5
3FB
100
AcDbEntity
  8
0
100
AcDbSpline
 62
7
  6
CONTINUOUS
 70
0
 71
3
 72
9
 73
5
 74
0
 42
0.0000001
 43
0.0000001
 44
0.0000000001
 40
0.0
 40
0.0
 40
0.0
 40
0.0
 40
0.287803253
 40
1.0
 40
1.0
 40
1.0
 40
1.0
 10
106.2725053659
 20
223.1351650217
 30
0.0
 10
106.2610903771
 20
223.209385875
 30
0.0
 10
106.2197060313
 20
223.466976062
 30
0.0
 10
106.1718011444
 20
223.7237238751
 30
0.0
 10
106.1290851599
 20
223.9045737904
 30
0.0
  0
SPLINE
  5
3FC
100
AcDbEntity
  8
0
100
AcDbSpline
 62
7
  6
CONTINUOUS
 70
0
 71
3
 72
9
 73
5
 74
0
 42
0.0000001
 43
0.0000001
 44
0.0000000001
 40
0.0
 40
0.0
 40
0.0
 40
0.0
 40
0.3114287909
 40
1.0
 40
1.0
 40
1.0
 40
1.0
 10
77.3360393601
 20
205.927273052
 30
0.0
 10
77.3372883499
 20
205.9325038278
 30
0.0
 10
77.3413245731
 20
205.9492934959
 30
0.0
 10
77.3454201446
 20
205.9660704382
 30
0.0
 10
77.3484188896
 20
205.9775764925
 30
0.0
  0
SPLINE
  5
3FD
100
AcDbEntity
  8
0
100
AcDbSpline
 62
7
  6
CONTINUOUS
 70
0
 71
3
 72
9
 73
5
 74
0
 42
0.0000001
 43
0.0000001
 44
0.0000000001
 40
0.0
 40
0.0
 40
0.0
 40
0.0
 40
0.4185347867
 40
1.0
 40
1.0
 40
1.0
 40
1.0
 10
76.9348034847
 20
204.2681073963
 30
0.0
 10
76.9349809982
 20
204.2681073963
 30
0.0
 10
76.9353987881
 20
204.2682641618
 30
0.0
 10
76.9357182723
 20
204.2685466929
 30
0.0
 10
76.9358924951
 20
204.2687212396
 30
0.0
  0
SPLINE
  5
3FE
100
AcDbEntity
  8
0
100
AcDbSpline
 62
7
  6
CONTINUOUS
 70
0
 71
3
 72
11
 73
7
 74
0
 42
0.0000001
 43
0.0000001
 44
0.0000000001
 40
0.0
 40
0.0
 40
0.0
 40
0.0
 40
0.0851695398
 40
0.2775389382
 40
0.5813064337
 40
1.0
 40
1.0
 40
1.0
 40
1.0
 10
76.9358924951
 20
204.2687212396
 30
0.0
 10
76.9398947137
 20
204.2727308969
 30
0.0
 10
76.9451293564
 20
204.2914690387
 30
0.0
 10
76.957940908
 20
204.3271336854
 30
0.0
 10
76.9737861427
 20
204.3863730312
 30
0.0
 10
76.9862392146
 20
204.4326320728
 30
0.0
 10
76.993206499
 20
204.4595968937
 30
0.0
  0
LINE
  5
3FF
100
AcDbEntity
  8
0
100
AcDbLine
 62
7
  6
CONTINUOUS
 10
77.0863688602
 20
204.841907354
 11
77.0981941664
 21
204.8925005732
  0
LINE
  5
400
100
AcDbEntity
  8
0
100
AcDbLine
 62
7
  6
CONTINUOUS
 10
77.0981941664
 20
204.8925005732
 11
77.1120158877
 21
204.9520440464
  0
SPLINE
  5
401
100
AcDbEntity
  8
0
100
AcDbSpline
 62
7
  6
CONTINUOUS
 70
0
 71
3
 72
17
 73
13
 74
0
 42
0.0000001
 43
0.0000001
 44
0.0000000001
 40
0.0
 40
0.0
 40
0.0
 40
0.0
 40
0.0045225051
 40
0.0168075428
 40
0.0364638525
 40
0.0632705668
 40
0.1392178923
 40
0.2488146056
 40
0.3926937987
 40
0.5689859813
 40
0.7736677361
 40
1.0
 40
1.0
 40
1.0
 40
1.0
 10
88.1917006395
 20
114.0307862646
 30
0.0
 10
88.192446976
 20
114.0303233008
 30
0.0
 10
88.1951157155
 20
114.0343601039
 30
0.0
 10
88.1995903892
 20
114.0380095687
 30
0.0
 10
88.2070963789
 20
114.0475939102
 30
0.0
 10
88.2220596242
 20
114.0654889519
 30
0.0
 10
88.2477392585
 20
114.0981871829
 30
0.0
 10
88.2870213204
 20
114.1484676988
 30
0.0
 10
88.3379413683
 20
114.2146807888
 30
0.0
 10
88.3997904328
 20
114.2956662632
 30
0.0
 10
88.4710758223
 20
114.3896337774
 30
0.0
 10
88.5215043813
 20
114.4564375683
 30
0.0
 10
88.5479509406
 20
114.4915444897
 30
0.0
  0
LINE
  5
402
100
AcDbEntity
  8
0
100
AcDbLine
 62
7
  6
CONTINUOUS
 10
82.5723180749
 20
124.0259968592
 11
82.6677839428
 21
123.4187022183
  0
SPLINE
  5
403
100
AcDbEntity
  8
0
100
AcDbSpline
 62
7
  6
CONTINUOUS
 70
0
 71
3
 72
9
 73
5
 74
0
 42
0.0000001
 43
0.0000001
 44
0.0000000001
 40
0.0
 40
0.0
 40
0.0
 40
0.0
 40
0.2521314558
 40
1.0
 40
1.0
 40
1.0
 40
1.0
 10
82.6677839428
 20
123.4187022183
 30
0.0
 10
82.6800079911
 20
123.3412179799
 30
0.0
 10
82.7285562786
 20
123.0339114853
 30
0.0
 10
82.7773678392
 20
122.7266465752
 30
0.0
 10
82.8140288689
 20
122.496877808
 30
0.0
  0
SPLINE
  5
404
100
AcDbEntity
  8
0
100
AcDbSpline
 62
7
  6
CONTINUOUS
 70
0
 71
3
 72
9
 73
5
 74
0
 42
0.0000001
 43
0.0000001
 44
0.0000000001
 40
0.0
 40
0.0
 40
0.0
 40
0.0
 40
0.2504098782
 40
1.0
 40
1.0
 40
1.0
 40
1.0
 10
81.0212111536
 20
133.9512960042
 30
0.0
 10
81.1505527162
 20
133.1228115922
 30
0.0
 10
81.6670389403
 20
129.814293141
 30
0.0
 10
82.1838734104
 20
126.5058288339
 30
0.0
 10
82.5723180232
 20
124.0259980442
 30
0.0
  0
SPLINE
  5
405
100
AcDbEntity
  8
0
100
AcDbSpline
 62
7
  6
CONTINUOUS
 70
0
 71
3
 72
9
 73
5
 74
0
 42
0.0000001
 43
0.0000001
 44
0.0000000001
 40
0.0
 40
0.0
 40
0.0
 40
0.0
 40
0.2499773427
 40
1.0
 40
1.0
 40
1.0
 40
1.0
 10
72.9922854952
 20
187.1854992341
 30
0.0
 10
73.6609567193
 20
182.7496655892
 30
0.0
 10
76.3362337828
 20
165.0047755189
 30
0.0
 10
79.01289305
 20
147.2600938354
 30
0.0
 10
81.0212111636
 20
133.9512956853
 30
0.0
  0
SPLINE
  5
406
100
AcDbEntity
  8
0
100
AcDbSpline
 62
7
  6
CONTINUOUS
 70
0
 71
3
 72
9
 73
5
 74
0
 42
0.0000001
 43
0.0000001
 44
0.0000000001
 40
0.0
 40
0.0
 40
0.0
 40
0.0
 40
0.1919310169
 40
1.0
 40
1.0
 40
1.0
 40
1.0
 10
77.0732833412
 20
204.1628442634
 30
0.0
 10
77.0756692948
 20
204.176465788
 30
0.0
 10
77.0886625188
 20
204.2473376801
 30
0.0
 10
77.1028222921
 20
204.3179887917
 30
0.0
 10
77.1144220093
 20
204.3750441256
 30
0.0
  0
SPLINE
  5
407
100
AcDbEntity
  8
0
100
AcDbSpline
 62
7
  6
CONTINUOUS
 70
0
 71
3
 72
16
 73
12
 74
0
 42
0.0000001
 43
0.0000001
 44
0.0000000001
 40
0.0
 40
0.0
 40
0.0
 40
0.0
 40
0.3797764599
 40
0.554869632
 40
0.7084458546
 40
0.8326910765
 40
0.9234049502
 40
0.9552999917
 40
0.9783822359
 40
0.9930727451
 40
1.0
 40
1.0
 40
1.0
 40
1.0
 10
74.7176037865
 20
187.3353084693
 30
0.0
 10
74.6178351346
 20
187.3194360191
 30
0.0
 10
74.4721720483
 20
187.2955531912
 30
0.0
 10
74.2865480417
 20
187.2630719083
 30
0.0
 10
74.1680314653
 20
187.2412870316
 30
0.0
 10
74.0719170142
 20
187.2222593398
 30
0.0
 10
74.0076037565
 20
187.2083931612
 30
0.0
 10
73.9701855531
 20
187.1988839064
 30
0.0
 10
73.95209402
 20
187.1938101716
 30
0.0
 10
73.9414365518
 20
187.1896513519
 30
0.0
 10
73.9356122919
 20
187.187136889
 30
0.0
 10
73.9347660785
 20
187.1854999801
 30
0.0
  0
SPLINE
  5
408
100
AcDbEntity
  8
0
100
AcDbSpline
 62
7
  6
CONTINUOUS
 70
0
 71
3
 72
11
 73
7
 74
0
 42
0.0000001
 43
0.0000001
 44
0.0000000001
 40
0.0
 40
0.0
 40
0.0
 40
0.0
 40
0.0708151944
 40
0.2598732754
 40
0.569477271
 40
1.0
 40
1.0
 40
1.0
 40
1.0
 10
77.1290400243
 20
204.3804801954
 30
0.0
 10
77.1309730661
 20
204.3804801954
 30
0.0
 10
77.13321727
 20
204.3899122087
 30
0.0
 10
77.1389237713
 20
204.4019398033
 30
0.0
 10
77.1458717036
 20
204.4277455952
 30
0.0
 10
77.1514315944
 20
204.4467080429
 30
0.0
 10
77.1545383226
 20
204.4580419375
 30
0.0
  0
SPLINE
  5
409
100
AcDbEntity
  8
0
100
AcDbSpline
 62
7
  6
CONTINUOUS
 70
0
 71
3
 72
9
 73
5
 74
0
 42
0.0000001
 43
0.0000001
 44
0.0000000001
 40
0.0
 40
0.0
 40
0.0
 40
0.0
 40
0.2125715263
 40
1.0
 40
1.0
 40
1.0
 40
1.0
 10
77.1545383226
 20
204.4580419375
 30
0.0
 10
77.1564417478
 20
204.4649859694
 30
0.0
 10
77.165284377
 20
204.4976833746
 30
0.0
 10
77.1737829025
 20
204.5304728477
 30
0.0
 10
77.1803917017
 20
204.5563127243
 30
0.0
  0
SPLINE
  5
40A
100
AcDbEntity
  8
0
100
AcDbSpline
 62
7
  6
CONTINUOUS
 70
0
 71
3
 72
16
 73
12
 74
0
 42
0.0000001
 43
0.0000001
 44
0.0000000001
 40
0.0
 40
0.0
 40
0.0
 40
0.0
 40
0.3880211043
 40
0.5588236481
 40
0.707081487
 40
0.8284099162
 40
0.9193303824
 40
0.9524076873
 40
0.976943392
 40
0.992810896
 40
1.0
 40
1.0
 40
1.0
 40
1.0
 10
82.8709492793
 20
134.0579484966
 30
0.0
 10
82.7640498814
 20
134.041954541
 30
0.0
 10
82.609722776
 20
134.0214488771
 30
0.0
 10
82.4148733716
 20
133.9926949121
 30
0.0
 10
82.2934099334
 20
133.9753222721
 30
0.0
 10
82.1937632416
 20
133.9631919583
 30
0.0
 10
82.1256948806
 20
133.9559788716
 30
0.0
 10
82.0846101908
 20
133.9525091344
 30
0.0
 10
82.0639569004
 20
133.9507721933
 30
0.0
 10
82.0511582936
 20
133.9509436145
 30
0.0
 10
82.0441524021
 20
133.95055324
 30
0.0
 10
82.0425105636
 20
133.9516999379
 30
0.0
  0
SPLINE
  5
40B
100
AcDbEntity
  8
0
100
AcDbSpline
 62
7
  6
CONTINUOUS
 70
0
 71
3
 72
9
 73
5
 74
0
 42
0.0000001
 43
0.0000001
 44
0.0000000001
 40
0.0
 40
0.0
 40
0.0
 40
0.0
 40
0.21743599
 40
1.0
 40
1.0
 40
1.0
 40
1.0
 10
77.1335645907
 20
204.2343702667
 30
0.0
 10
77.135330286
 20
204.2437583614
 30
0.0
 10
77.1435722816
 20
204.2869118897
 30
0.0
 10
77.1522347383
 20
204.3299841622
 30
0.0
 10
77.1591313212
 20
204.3636660261
 30
0.0
  0
SPLINE
  5
40C
100
AcDbEntity
  8
0
100
AcDbSpline
 62
7
  6
CONTINUOUS
 70
0
 71
3
 72
9
 73
5
 74
0
 42
0.0000001
 43
0.0000001
 44
0.0000000001
 40
0.0
 40
0.0
 40
0.0
 40
0.0
 40
0.2439771644
 40
1.0
 40
1.0
 40
1.0
 40
1.0
 10
106.423524886
 20
114.5880873932
 30
0.0
 10
106.4355422631
 20
116.172210216
 30
0.0
 10
106.4776816318
 20
122.6651771114
 30
0.0
 10
106.493533927
 20
129.1583101019
 30
0.0
 10
106.4917823942
 20
134.0672425269
 30
0.0
  0
SPLINE
  5
40D
100
AcDbEntity
  8
0
100
AcDbSpline
 62
7
  6
CONTINUOUS
 70
0
 71
3
 72
10
 73
6
 74
0
 42
0.0000001
 43
0.0000001
 44
0.0000000001
 40
0.0
 40
0.0
 40
0.0
 40
0.0
 40
0.4743014574
 40
0.7401481193
 40
1.0
 40
1.0
 40
1.0
 40
1.0
 10
89.6754620168
 20
115.4397173487
 30
0.0
 10
92.3198240642
 20
115.2456221578
 30
0.0
 10
96.4497531572
 20
114.9861367951
 30
0.0
 10
102.0345003971
 20
114.7351838591
 30
0.0
 10
104.9716218181
 20
114.634728881
 30
0.0
 10
106.4235275224
 20
114.5884348875
 30
0.0
  0
SPLINE
  5
40E
100
AcDbEntity
  8
0
100
AcDbSpline
 62
7
  6
CONTINUOUS
 70
0
 71
3
 72
9
 73
5
 74
0
 42
0.0000001
 43
0.0000001
 44
0.0000000001
 40
0.0
 40
0.0
 40
0.0
 40
0.0
 40
0.2518128398
 40
1.0
 40
1.0
 40
1.0
 40
1.0
 10
85.1287949078
 20
123.8527397547
 30
0.0
 10
85.5144912193
 20
123.1487500414
 30
0.0
 10
87.0410307368
 20
120.3502465439
 30
0.0
 10
88.5503531981
 20
117.5423892205
 30
0.0
 10
89.6754642041
 20
115.439392522
 30
0.0
  0
SPLINE
  5
40F
100
AcDbEntity
  8
0
100
AcDbSpline
 62
7
  6
CONTINUOUS
 70
0
 71
3
 72
12
 73
8
 74
0
 42
0.0000001
 43
0.0000001
 44
0.0000000001
 40
0.0
 40
0.0
 40
0.0
 40
0.0
 40
0.2518010057
 40
0.5030003148
 40
0.6280728088
 40
0.7526561559
 40
1.0
 40
1.0
 40
1.0
 40
1.0
 10
82.8709414062
 20
134.0579486793
 30
0.0
 10
83.140657973
 20
133.2220138417
 30
0.0
 10
83.6299648955
 20
131.5360413093
 30
0.0
 10
84.1481835552
 20
129.4066442172
 30
0.0
 10
84.5063549163
 20
127.6964347879
 30
0.0
 10
84.8178141815
 20
125.9907383448
 30
0.0
 10
85.0081412633
 20
124.7070842262
 30
0.0
 10
85.1287949078
 20
123.8527397547
 30
0.0
  0
SPLINE
  5
410
100
AcDbEntity
  8
0
100
AcDbSpline
 62
7
  6
CONTINUOUS
 70
0
 71
3
 72
9
 73
5
 74
0
 42
0.0000001
 43
0.0000001
 44
0.0000000001
 40
0.0
 40
0.0
 40
0.0
 40
0.0
 40
0.5399435227
 40
1.0
 40
1.0
 40
1.0
 40
1.0
 10
106.3709737465
 20
25.1031901901
 30
0.0
 10
106.2983720614
 20
24.5044703552
 30
0.0
 10
106.1835492601
 20
23.3932172816
 30
0.0
 10
106.1129086708
 20
22.2777864048
 30
0.0
 10
106.1000126848
 20
21.7640747456
 30
0.0
  0
SPLINE
  5
411
100
AcDbEntity
  8
0
100
AcDbSpline
 62
7
  6
CONTINUOUS
 70
0
 71
3
 72
12
 73
8
 74
0
 42
0.0000001
 43
0.0000001
 44
0.0000000001
 40
0.0
 40
0.0
 40
0.0
 40
0.0
 40
0.4020703326
 40
0.7060932243
 40
0.9034985974
 40
0.962585716
 40
1.0
 40
1.0
 40
1.0
 40
1.0
 10
106.1000126848
 20
21.7640747456
 30
0.0
 10
106.0948444235
 20
21.5581970295
 30
0.0
 10
106.0914380307
 20
21.1959454836
 30
0.0
 10
106.1131200829
 20
20.7348182748
 30
0.0
 10
106.1532454511
 20
20.4470912313
 30
0.0
 10
106.2061029379
 20
20.3068398225
 30
0.0
 10
106.2423890761
 20
20.2671741462
 30
0.0
 10
106.2606501293
 20
20.2613616567
 30
0.0
  0
SPLINE
  5
412
100
AcDbEntity
  8
0
100
AcDbSpline
 62
7
  6
CONTINUOUS
 70
0
 71
3
 72
9
 73
5
 74
0
 42
0.0000001
 43
0.0000001
 44
0.0000000001
 40
0.0
 40
0.0
 40
0.0
 40
0.0
 40
0.2499814178
 40
1.0
 40
1.0
 40
1.0
 40
1.0
 10
74.7174335725
 20
187.3352812312
 30
0.0
 10
75.3977534188
 20
182.8959728885
 30
0.0
 10
78.1185058666
 20
165.1373078193
 30
0.0
 10
80.8356494711
 20
147.378089711
 30
0.0
 10
82.8709544363
 20
134.0579484718
 30
0.0
  0
SPLINE
  5
413
100
AcDbEntity
  8
0
100
AcDbSpline
 62
7
  6
CONTINUOUS
 70
0
 71
3
 72
8
 73
4
 74
0
 42
0.0000001
 43
0.0000001
 44
0.0000000001
 40
0.0
 40
0.0
 40
0.0
 40
0.0
 40
1.0
 40
1.0
 40
1.0
 40
1.0
 10
80.1860496873
 20
213.7320027924
 30
0.0
 10
78.393967825
 20
205.7916936624
 30
0.0
 10
76.601299034
 20
197.8515169753
 30
0.0
 10
74.8080322313
 20
189.9114753725
 30
0.0
  0
SPLINE
  5
414
100
AcDbEntity
  8
0
100
AcDbSpline
 62
7
  6
CONTINUOUS
 70
0
 71
3
 72
17
 73
13
 74
0
 42
0.0000001
 43
0.0000001
 44
0.0000000001
 40
0.0
 40
0.0
 40
0.0
 40
0.0
 40
0.0196275953
 40
0.042765252
 40
0.0714609564
 40
0.1071502124
 40
0.2021306562
 40
0.3276003212
 40
0.4794099144
 40
0.6486450431
 40
0.8252524423
 40
1.0
 40
1.0
 40
1.0
 40
1.0
 10
99.8722473612
 20
21.8958057235
 30
0.0
 10
99.8407601118
 20
21.9047682777
 30
0.0
 10
99.7760587595
 20
21.939393131
 30
0.0
 10
99.6955278253
 20
22.0294191431
 30
0.0
 10
99.6264778095
 20
22.1591360275
 30
0.0
 10
99.5429949531
 20
22.4124177071
 30
0.0
 10
99.4859404193
 20
22.8385170175
 30
0.0
 10
99.475456776
 20
23.4597705952
 30
0.0
 10
99.5273982214
 20
24.2035641543
 30
0.0
 10
99.6331126465
 20
25.0271714039
 30
0.0
 10
99.7867603766
 20
25.8821141115
 30
0.0
 10
99.9138435594
 20
26.4543816935
 30
0.0
 10
99.9825709784
 20
26.737634257
 30
0.0
  0
SPLINE
  5
415
100
AcDbEntity
  8
0
100
AcDbSpline
 62
7
  6
CONTINUOUS
 70
0
 71
3
 72
11
 73
7
 74
0
 42
0.0000001
 43
0.0000001
 44
0.0000000001
 40
0.0
 40
0.0
 40
0.0
 40
0.0
 40
0.2583476878
 40
0.5108573166
 40
0.7573745484
 40
1.0
 40
1.0
 40
1.0
 40
1.0
 10
99.8722473612
 20
21.8958057236
 30
0.0
 10
98.9384682389
 20
22.1355054088
 30
0.0
 10
97.158686939
 20
22.9314741701
 30
0.0
 10
95.0647867499
 20
24.9027417862
 30
0.0
 10
93.7369626767
 20
27.3840101442
 30
0.0
 10
93.4225309998
 20
29.219276759
 30
0.0
 10
93.4135942323
 20
30.1246169721
 30
0.0
  0
SPLINE
  5
416
100
AcDbEntity
  8
0
100
AcDbSpline
 62
7
  6
CONTINUOUS
 70
0
 71
3
 72
15
 73
11
 74
0
 42
0.0000001
 43
0.0000001
 44
0.0000000001
 40
0.0
 40
0.0
 40
0.0
 40
0.0
 40
0.0719378042
 40
0.1532909519
 40
0.2494478977
 40
0.3634075043
 40
0.4965039224
 40
0.6482922934
 40
0.8173896414
 40
1.0
 40
1.0
 40
1.0
 40
1.0
 10
93.4135942198
 20
30.1246156147
 30
0.0
 10
93.4242088992
 20
29.9369794117
 30
0.0
 10
93.528782324
 20
29.5395326832
 30
0.0
 10
93.8972312786
 20
28.9918725836
 30
0.0
 10
94.4658801175
 20
28.4773356404
 30
0.0
 10
95.2299102569
 20
28.0014439089
 30
0.0
 10
96.1829032806
 20
27.5740464083
 30
0.0
 10
97.3127979969
 20
27.2072286575
 30
0.0
 10
98.5974083333
 20
26.9172857434
 30
0.0
 10
99.508119932
 20
26.7875179959
 30
0.0
 10
99.9825708223
 20
26.7376326909
 30
0.0
  0
SPLINE
  5
417
100
AcDbEntity
  8
0
100
AcDbSpline
 62
7
  6
CONTINUOUS
 70
0
 71
3
 72
9
 73
5
 74
0
 42
0.0000001
 43
0.0000001
 44
0.0000000001
 40
0.0
 40
0.0
 40
0.0
 40
0.0
 40
0.2466855742
 40
1.0
 40
1.0
 40
1.0
 40
1.0
 10
93.391550717
 20
91.3500652414
 30
0.0
 10
93.4001490519
 20
91.8882264919
 30
0.0
 10
93.4338509701
 20
94.0698125581
 30
0.0
 10
93.4646680419
 20
96.2514414197
 30
0.0
 10
93.4887894057
 20
97.8948804821
 30
0.0
  0
SPLINE
  5
418
100
AcDbEntity
  8
0
100
AcDbSpline
 62
7
  6
CONTINUOUS
 70
0
 71
3
 72
9
 73
5
 74
0
 42
0.0000001
 43
0.0000001
 44
0.0000000001
 40
0.0
 40
0.0
 40
0.0
 40
0.0
 40
0.2513668734
 40
1.0
 40
1.0
 40
1.0
 40
1.0
 10
92.843817606
 20
97.9227787049
 30
0.0
 10
92.8518789787
 20
97.4013395865
 30
0.0
 10
92.883539584
 20
95.3269188063
 30
0.0
 10
92.9151534509
 20
93.2524961171
 30
0.0
 10
92.9408995482
 20
91.6995484408
 30
0.0
  0
LINE
  5
419
100
AcDbEntity
  8
0
100
AcDbLine
 62
7
  6
CONTINUOUS
 10
92.9408995482
 20
91.6995484408
 11
92.9449237103
 21
91.4578435346
  0
SPLINE
  5
41A
100
AcDbEntity
  8
0
100
AcDbSpline
 62
7
  6
CONTINUOUS
 70
0
 71
3
 72
11
 73
7
 74
0
 42
0.0000001
 43
0.0000001
 44
0.0000000001
 40
0.0
 40
0.0
 40
0.0
 40
0.0
 40
0.2517624327
 40
0.5096423598
 40
0.7623313344
 40
1.0
 40
1.0
 40
1.0
 40
1.0
 10
82.5451829696
 20
220.1755915402
 30
0.0
 10
82.2595020201
 20
220.1234121157
 30
0.0
 10
81.6931426307
 20
219.9329466734
 30
0.0
 10
80.9667110713
 20
219.4149052911
 30
0.0
 10
80.4341679213
 20
218.719955724
 30
0.0
 10
80.2297120428
 20
218.1832265619
 30
0.0
 10
80.1689512497
 20
217.9158946446
 30
0.0
  0
SPLINE
  5
41B
100
AcDbEntity
  8
0
100
AcDbSpline
 62
7
  6
CONTINUOUS
 70
0
 71
3
 72
18
 73
14
 74
0
 42
0.0000001
 43
0.0000001
 44
0.0000000001
 40
0.0
 40
0.0
 40
0.0
 40
0.0
 40
0.1699495985
 40
0.2539784817
 40
0.336709489
 40
0.4963225634
 40
0.6440947525
 40
0.7742104402
 40
0.8803368979
 40
0.9226051245
 40
0.9568705939
 40
0.9827099797
 40
1.0
 40
1.0
 40
1.0
 40
1.0
 10
80.1860486492
 20
213.732003688
 30
0.0
 10
80.2724412392
 20
214.111945103
 30
0.0
 10
80.4147811681
 20
214.6773913298
 30
0.0
 10
80.6609639897
 20
215.4094545484
 30
0.0
 10
80.9354215439
 20
216.1057862746
 30
0.0
 10
81.2950626088
 20
216.9248435767
 30
0.0
 10
81.7050034149
 20
217.8402712431
 30
0.0
 10
82.0531963208
 20
218.6489633647
 30
0.0
 10
82.2859704978
 20
219.2438652009
 30
0.0
 10
82.4217438223
 20
219.6400400295
 30
0.0
 10
82.489451614
 20
219.8649679605
 30
0.0
 10
82.5302046467
 20
220.0375702396
 30
0.0
 10
82.5448242396
 20
220.1359527044
 30
0.0
 10
82.545182969
 20
220.1755915379
 30
0.0
  0
SPLINE
  5
41C
100
AcDbEntity
  8
0
100
AcDbSpline
 62
7
  6
CONTINUOUS
 70
0
 71
3
 72
14
 73
10
 74
0
 42
0.0000001
 43
0.0000001
 44
0.0000000001
 40
0.0
 40
0.0
 40
0.0
 40
0.0
 40
0.1262133426
 40
0.2534601057
 40
0.380824998
 40
0.5078372782
 40
0.7591437452
 40
0.8819065761
 40
1.0
 40
1.0
 40
1.0
 40
1.0
 10
89.9346752829
 20
113.1495539441
 30
0.0
 10
90.1994569159
 20
112.5985429336
 30
0.0
 10
90.6185213914
 20
111.4386352349
 30
0.0
 10
91.0750836187
 20
109.6511072006
 30
0.0
 10
91.4465325297
 20
107.8398208941
 30
0.0
 10
91.8843466419
 20
105.4299765644
 30
0.0
 10
92.2807867628
 20
103.0351349306
 30
0.0
 10
92.6171627375
 20
100.6751670148
 30
0.0
 10
92.7499717397
 20
99.5155858643
 30
0.0
 10
92.7955041453
 20
98.9454022915
 30
0.0
  0
SPLINE
  5
41D
100
AcDbEntity
  8
0
100
AcDbSpline
 62
7
  6
CONTINUOUS
 70
0
 71
3
 72
16
 73
12
 74
0
 42
0.0000001
 43
0.0000001
 44
0.0000000001
 40
0.0
 40
0.0
 40
0.0
 40
0.0
 40
0.3769849518
 40
0.5521835919
 40
0.7063740879
 40
0.8313334835
 40
0.9226246072
 40
0.9547108103
 40
0.9779388421
 40
0.9927795446
 40
1.0
 40
1.0
 40
1.0
 40
1.0
 10
80.1860498278
 20
213.7320034148
 30
0.0
 10
80.0845013208
 20
213.7555400754
 30
0.0
 10
79.9359584823
 20
213.7909133801
 30
0.0
 10
79.7465761177
 20
213.8386785521
 30
0.0
 10
79.6250673845
 20
213.8707055698
 30
0.0
 10
79.5265195289
 20
213.8984382451
 30
0.0
 10
79.4607051362
 20
213.91850748
 30
0.0
 10
79.4226132342
 20
213.9319221089
 30
0.0
 10
79.4043103345
 20
213.9391393337
 30
0.0
 10
79.39359919
 20
213.9446347762
 30
0.0
 10
79.3878993107
 20
213.9483011049
 30
0.0
 10
79.3873098741
 20
213.9502086468
 30
0.0
  0
SPLINE
  5
41E
100
AcDbEntity
  8
0
100
AcDbSpline
 62
7
  6
CONTINUOUS
 70
0
 71
3
 72
15
 73
11
 74
0
 42
0.0000001
 43
0.0000001
 44
0.0000000001
 40
0.0
 40
0.0
 40
0.0
 40
0.0
 40
0.3786929646
 40
0.5535069485
 40
0.706956973
 40
0.8312079174
 40
0.9220555224
 40
0.9773427692
 40
0.9923678029
 40
1.0
 40
1.0
 40
1.0
 40
1.0
 10
74.8080276773
 20
189.9114764421
 30
0.0
 10
74.7093632249
 20
189.9346183471
 30
0.0
 10
74.5653938803
 20
189.9694488378
 30
0.0
 10
74.3821864073
 20
190.0167733334
 30
0.0
 10
74.2654029104
 20
190.0485668322
 30
0.0
 10
74.1705297307
 20
190.0762210214
 30
0.0
 10
74.1021265881
 20
190.0985097977
 30
0.0
 10
74.0609846555
 20
190.1138213929
 30
0.0
 10
74.0432601624
 20
190.1235764752
 30
0.0
 10
74.0379727388
 20
190.1277041673
 30
0.0
 10
74.0374945901
 20
190.1296898641
 30
0.0
  0
SPLINE
  5
41F
100
AcDbEntity
  8
0
100
AcDbSpline
 62
7
  6
CONTINUOUS
 70
0
 71
3
 72
9
 73
5
 74
0
 42
0.0000001
 43
0.0000001
 44
0.0000000001
 40
0.0
 40
0.0
 40
0.0
 40
0.0
 40
0.2504825515
 40
1.0
 40
1.0
 40
1.0
 40
1.0
 10
73.9347657386
 20
187.1854993924
 30
0.0
 10
73.8976158219
 20
187.4294550186
 30
0.0
 10
73.795105519
 20
188.4098430745
 30
0.0
 10
73.8757386361
 20
189.409222762
 30
0.0
 10
74.0374946199
 20
190.1296901758
 30
0.0
  0
SPLINE
  5
420
100
AcDbEntity
  8
0
100
AcDbSpline
 62
7
  6
CONTINUOUS
 70
0
 71
3
 72
9
 73
5
 74
0
 42
0.0000001
 43
0.0000001
 44
0.0000000001
 40
0.0
 40
0.0
 40
0.0
 40
0.0
 40
0.4276504935
 40
1.0
 40
1.0
 40
1.0
 40
1.0
 10
83.4651784971
 20
118.936279048
 30
0.0
 10
83.526224476
 20
118.9995862295
 30
0.0
 10
83.6897401785
 20
119.1263777158
 30
0.0
 10
83.8597041495
 20
119.2415476658
 30
0.0
 10
83.9579987232
 20
119.3062938793
 30
0.0
  0
SPLINE
  5
421
100
AcDbEntity
  8
0
100
AcDbSpline
 62
7
  6
CONTINUOUS
 70
0
 71
3
 72
8
 73
4
 74
0
 42
0.0000001
 43
0.0000001
 44
0.0000000001
 40
0.0
 40
0.0
 40
0.0
 40
0.0
 40
1.0
 40
1.0
 40
1.0
 40
1.0
 10
77.0704747399
 20
208.0172516918
 30
0.0
 10
75.744661627
 20
202.0548051889
 30
0.0
 10
74.4191811812
 20
196.0922847041
 30
0.0
 10
73.0940342833
 20
190.1296901003
 30
0.0
  0
SPLINE
  5
422
100
AcDbEntity
  8
0
100
AcDbSpline
 62
7
  6
CONTINUOUS
 70
0
 71
3
 72
9
 73
5
 74
0
 42
0.0000001
 43
0.0000001
 44
0.0000000001
 40
0.0
 40
0.0
 40
0.0
 40
0.0
 40
0.1767059654
 40
1.0
 40
1.0
 40
1.0
 40
1.0
 10
79.3805094418
 20
217.9158947903
 30
0.0
 10
79.3714804203
 20
217.8915104332
 30
0.0
 10
79.3226295579
 20
217.752684512
 30
0.0
 10
79.2812758841
 20
217.6113498866
 30
0.0
 10
79.248139352
 20
217.4948219083
 30
0.0
  0
SPLINE
  5
423
100
AcDbEntity
  8
0
100
AcDbSpline
 62
7
  6
CONTINUOUS
 70
0
 71
3
 72
9
 73
5
 74
0
 42
0.0000001
 43
0.0000001
 44
0.0000000001
 40
0.0
 40
0.0
 40
0.0
 40
0.0
 40
0.2164784107
 40
1.0
 40
1.0
 40
1.0
 40
1.0
 10
79.248139352
 20
217.4948219083
 30
0.0
 10
79.24009599
 20
217.4665366096
 30
0.0
 10
79.2033493321
 20
217.3357592826
 30
0.0
 10
79.1680726807
 20
217.2045722226
 30
0.0
 10
79.1409235936
 20
217.1016584732
 30
0.0
  0
LINE
  5
424
100
AcDbEntity
  8
0
100
AcDbLine
 62
7
  6
CONTINUOUS
 10
78.9771169096
 20
216.4597904779
 11
78.9722295388
 21
216.4401077094
  0
LINE
  5
425
100
AcDbEntity
  8
0
100
AcDbLine
 62
7
  6
CONTINUOUS
 10
78.4825666512
 20
214.3636806858
 11
78.467047271
 21
214.2949363097
  0
SPLINE
  5
426
100
AcDbEntity
  8
0
100
AcDbSpline
 62
7
  6
CONTINUOUS
 70
0
 71
3
 72
9
 73
5
 74
0
 42
0.0000001
 43
0.0000001
 44
0.0000000001
 40
0.0
 40
0.0
 40
0.0
 40
0.0
 40
0.2611265784
 40
1.0
 40
1.0
 40
1.0
 40
1.0
 10
106.4629726914
 20
213.7414404062
 30
0.0
 10
106.4628229683
 20
214.1572982039
 30
0.0
 10
106.4597809153
 20
215.7498470147
 30
0.0
 10
106.4476893542
 20
217.3423930236
 30
0.0
 10
106.431423157
 20
218.5189754158
 30
0.0
  0
SPLINE
  5
427
100
AcDbEntity
  8
0
100
AcDbSpline
 62
7
  6
CONTINUOUS
 70
0
 71
3
 72
9
 73
5
 74
0
 42
0.0000001
 43
0.0000001
 44
0.0000000001
 40
0.0
 40
0.0
 40
0.0
 40
0.0
 40
0.5651513717
 40
1.0
 40
1.0
 40
1.0
 40
1.0
 10
106.431423157
 20
218.5189754158
 30
0.0
 10
106.4224616146
 20
219.167190419
 30
0.0
 10
106.4024693801
 20
220.3141051063
 30
0.0
 10
106.3705205668
 20
221.4608107158
 30
0.0
 10
106.35045144
 20
221.9592153789
 30
0.0
  0
SPLINE
  5
428
100
AcDbEntity
  8
0
100
AcDbSpline
 62
7
  6
CONTINUOUS
 70
0
 71
3
 72
10
 73
6
 74
0
 42
0.0000001
 43
0.0000001
 44
0.0000000001
 40
0.0
 40
0.0
 40
0.0
 40
0.0
 40
0.6334726524
 40
0.8510976928
 40
1.0
 40
1.0
 40
1.0
 40
1.0
 10
106.35045144
 20
221.9592153789
 30
0.0
 10
106.3404361947
 20
222.2079379586
 30
0.0
 10
106.3254879468
 20
222.5421346864
 30
0.0
 10
106.2962958156
 20
222.933971625
 30
0.0
 10
106.2813997031
 20
223.0773335773
 30
0.0
 10
106.2725053659
 20
223.1351650217
 30
0.0
  0
SPLINE
  5
429
100
AcDbEntity
  8
0
100
AcDbSpline
 62
7
  6
CONTINUOUS
 70
0
 71
3
 72
21
 73
17
 74
0
 42
0.0000001
 43
0.0000001
 44
0.0000000001
 40
0.0
 40
0.0
 40
0.0
 40
0.0
 40
0.2244628869
 40
0.3926047982
 40
0.4557803245
 40
0.5053150896
 40
0.5418022047
 40
0.5668448337
 40
0.5853260979
 40
0.6071086329
 40
0.639136687
 40
0.6838066697
 40
0.7419656359
 40
0.8139589298
 40
0.8999449008
 40
1.0
 40
1.0
 40
1.0
 40
1.0
 10
80.1689512498
 20
217.9158946456
 30
0.0
 10
80.1824226768
 20
218.0916569222
 30
0.0
 10
80.2015799161
 20
218.3993578828
 30
0.0
 10
80.2067349129
 20
218.7577970686
 30
0.0
 10
80.1921934879
 20
218.9778379781
 30
0.0
 10
80.1754823866
 20
219.0943269882
 30
0.0
 10
80.1513827263
 20
219.1778137696
 30
0.0
 10
80.1204499005
 20
219.2352572011
 30
0.0
 10
80.0682822379
 20
219.2570041956
 30
0.0
 10
80.0135427621
 20
219.2298174462
 30
0.0
 10
79.9594912607
 20
219.1751534831
 30
0.0
 10
79.8971004598
 20
219.0887754606
 30
0.0
 10
79.8277442389
 20
218.9703309842
 30
0.0
 10
79.7505977662
 20
218.8190014322
 30
0.0
 10
79.6660610894
 20
218.6348124129
 30
0.0
 10
79.6090692091
 20
218.500257149
 30
0.0
 10
79.5791875488
 20
218.4275843141
 30
0.0
  0
SPLINE
  5
42A
100
AcDbEntity
  8
0
100
AcDbSpline
 62
7
  6
CONTINUOUS
 70
0
 71
3
 72
9
 73
5
 74
0
 42
0.0000001
 43
0.0000001
 44
0.0000000001
 40
0.0
 40
0.0
 40
0.0
 40
0.0
 40
0.2299151632
 40
1.0
 40
1.0
 40
1.0
 40
1.0
 10
79.5707366604
 20
218.4069726371
 30
0.0
 10
79.5554623783
 20
218.3696129132
 30
0.0
 10
79.4898992431
 20
218.2067631856
 30
0.0
 10
79.4274502643
 20
218.0426715508
 30
0.0
 10
79.3805094104
 20
217.9158946473
 30
0.0
  0
SPLINE
  5
42B
100
AcDbEntity
  8
0
100
AcDbSpline
 62
7
  6
CONTINUOUS
 70
0
 71
3
 72
11
 73
7
 74
0
 42
0.0000001
 43
0.0000001
 44
0.0000000001
 40
0.0
 40
0.0
 40
0.0
 40
0.0
 40
0.4222966326
 40
0.7292687312
 40
0.9108483611
 40
1.0
 40
1.0
 40
1.0
 40
1.0
 10
79.387310065
 20
213.9502080294
 30
0.0
 10
79.5119872973
 20
214.5055365109
 30
0.0
 10
79.720823409
 20
215.4659528416
 30
0.0
 10
79.9661603828
 20
216.6689912182
 30
0.0
 10
80.1064234693
 20
217.4346560514
 30
0.0
 10
80.1597706711
 20
217.7960915221
 30
0.0
 10
80.1689512819
 20
217.9158947868
 30
0.0
  0
SPLINE
  5
42C
100
AcDbEntity
  8
0
100
AcDbSpline
 62
7
  6
CONTINUOUS
 70
0
 71
3
 72
8
 73
4
 74
0
 42
0.0000001
 43
0.0000001
 44
0.0000000001
 40
0.0
 40
0.0
 40
0.0
 40
0.0
 40
1.0
 40
1.0
 40
1.0
 40
1.0
 10
74.0374944498
 20
190.1296901003
 30
0.0
 10
75.8213578209
 20
198.0697299723
 30
0.0
 10
77.6046259331
 20
206.0099036017
 30
0.0
 10
79.3873099692
 20
213.9502083391
 30
0.0
  0
SPLINE
  5
42D
100
AcDbEntity
  8
0
100
AcDbSpline
 62
7
  6
CONTINUOUS
 70
0
 71
3
 72
11
 73
7
 74
0
 42
0.0000001
 43
0.0000001
 44
0.0000000001
 40
0.0
 40
0.0
 40
0.0
 40
0.0
 40
0.4281452306
 40
0.7397780837
 40
0.9309896798
 40
1.0
 40
1.0
 40
1.0
 40
1.0
 10
78.5179240321
 20
210.5359225378
 30
0.0
 10
78.5202096549
 20
210.5445993383
 30
0.0
 10
78.5243165465
 20
210.5590765051
 30
0.0
 10
78.529673564
 20
210.579301687
 30
0.0
 10
78.5338597105
 20
210.5879698523
 30
0.0
 10
78.5358012822
 20
210.5958530578
 30
0.0
 10
78.5372127089
 20
210.5955374926
 30
0.0
  0
SPLINE
  5
42E
100
AcDbEntity
  8
0
100
AcDbSpline
 62
7
  6
CONTINUOUS
 70
0
 71
3
 72
9
 73
5
 74
0
 42
0.0000001
 43
0.0000001
 44
0.0000000001
 40
0.0
 40
0.0
 40
0.0
 40
0.0
 40
0.5582663574
 40
1.0
 40
1.0
 40
1.0
 40
1.0
 10
78.3721049555
 20
209.9154424947
 30
0.0
 10
78.3969648175
 20
210.031422971
 30
0.0
 10
78.4446917419
 20
210.2384687147
 30
0.0
 10
78.4939850626
 20
210.4451717001
 30
0.0
 10
78.5179240321
 20
210.5359225378
 30
0.0
  0
SPLINE
  5
42F
100
AcDbEntity
  8
0
100
AcDbSpline
 62
7
  6
CONTINUOUS
 70
0
 71
3
 72
9
 73
5
 74
0
 42
0.0000001
 43
0.0000001
 44
0.0000000001
 40
0.0
 40
0.0
 40
0.0
 40
0.0
 40
0.5575114556
 40
1.0
 40
1.0
 40
1.0
 40
1.0
 10
93.5784249354
 20
98.7939240109
 30
0.0
 10
93.5473866534
 20
98.8092047496
 30
0.0
 10
93.493656728
 20
98.8432574922
 30
0.0
 10
93.4629385926
 20
98.9030101166
 30
0.0
 10
93.461105581
 20
98.9304071123
 30
0.0
  0
LINE
  5
430
100
AcDbEntity
  8
0
100
AcDbLine
 62
7
  6
CONTINUOUS
 10
77.9591669361
 20
208.3771154013
 11
77.9677334602
 21
208.4145034725
  0
SPLINE
  5
431
100
AcDbEntity
  8
0
100
AcDbSpline
 62
7
  6
CONTINUOUS
 70
0
 71
3
 72
9
 73
5
 74
0
 42
0.0000001
 43
0.0000001
 44
0.0000000001
 40
0.0
 40
0.0
 40
0.0
 40
0.0
 40
0.2831260222
 40
1.0
 40
1.0
 40
1.0
 40
1.0
 10
78.0735083422
 20
208.8662908356
 30
0.0
 10
78.0800749615
 20
208.8936494088
 30
0.0
 10
78.1034021305
 20
208.9902471623
 30
0.0
 10
78.1272935561
 20
209.0867117094
 30
0.0
 10
78.1450765964
 20
209.1556957031
 30
0.0
  0
SPLINE
  5
432
100
AcDbEntity
  8
0
100
AcDbSpline
 62
7
  6
CONTINUOUS
 70
0
 71
3
 72
9
 73
5
 74
0
 42
0.0000001
 43
0.0000001
 44
0.0000000001
 40
0.0
 40
0.0
 40
0.0
 40
0.0
 40
0.3085697571
 40
1.0
 40
1.0
 40
1.0
 40
1.0
 10
78.1450765964
 20
209.1556957031
 30
0.0
 10
78.1498918475
 20
209.1743750315
 30
0.0
 10
78.165693296
 20
209.2348565357
 30
0.0
 10
78.1820246973
 20
209.2952183088
 30
0.0
 10
78.1944910798
 20
209.3366057755
 30
0.0
  0
LINE
  5
433
100
AcDbEntity
  8
0
100
AcDbLine
 62
7
  6
CONTINUOUS
 10
77.6279575543
 20
206.7407711704
 11
77.627079174
 21
206.7411497702
  0
SPLINE
  5
434
100
AcDbEntity
  8
0
100
AcDbSpline
 62
7
  6
CONTINUOUS
 70
0
 71
3
 72
11
 73
7
 74
0
 42
0.0000001
 43
0.0000001
 44
0.0000000001
 40
0.0
 40
0.0
 40
0.0
 40
0.0
 40
0.0819898565
 40
0.2679609412
 40
0.570134987
 40
1.0
 40
1.0
 40
1.0
 40
1.0
 10
77.6262941961
 20
206.7424827148
 30
0.0
 10
77.6237554754
 20
206.7492885047
 30
0.0
 10
77.6271372731
 20
206.7739962003
 30
0.0
 10
77.6316838954
 20
206.8233389575
 30
0.0
 10
77.6457822662
 20
206.9040526649
 30
0.0
 10
77.6571505935
 20
206.9677018845
 30
0.0
 10
77.6642286058
 20
207.0051221725
 30
0.0
  0
SPLINE
  5
435
100
AcDbEntity
  8
0
100
AcDbSpline
 62
7
  6
CONTINUOUS
 70
0
 71
3
 72
9
 73
5
 74
0
 42
0.0000001
 43
0.0000001
 44
0.0000000001
 40
0.0
 40
0.0
 40
0.0
 40
0.0
 40
0.2149730631
 40
1.0
 40
1.0
 40
1.0
 40
1.0
 10
77.6642286058
 20
207.0051221725
 30
0.0
 10
77.6677772141
 20
207.0238830817
 30
0.0
 10
77.6845452979
 20
207.1111047587
 30
0.0
 10
77.7021978422
 20
207.1981540921
 30
0.0
 10
77.7162683027
 20
207.2664444812
 30
0.0
  0
LINE
  5
436
100
AcDbEntity
  8
0
100
AcDbLine
 62
7
  6
CONTINUOUS
 10
77.7162683027
 20
207.2664444812
 11
77.7225498145
 21
207.2968508042
  0
SPLINE
  5
437
100
AcDbEntity
  8
0
100
AcDbSpline
 62
7
  6
CONTINUOUS
 70
0
 71
3
 72
8
 73
4
 74
0
 42
0.0000001
 43
0.0000001
 44
0.0000000001
 40
0.0
 40
0.0
 40
0.0
 40
0.0
 40
1.0
 40
1.0
 40
1.0
 40
1.0
 10
93.4887904132
 20
97.8948523917
 30
0.0
 10
93.489347817
 20
97.8793627862
 30
0.0
 10
93.4933162041
 20
97.8638255247
 30
0.0
 10
93.4994529545
 20
97.8495925042
 30
0.0
  0
SPLINE
  5
438
100
AcDbEntity
  8
0
100
AcDbSpline
 62
7
  6
CONTINUOUS
 70
0
 71
3
 72
9
 73
5
 74
0
 42
0.0000001
 43
0.0000001
 44
0.0000000001
 40
0.0
 40
0.0
 40
0.0
 40
0.0
 40
0.2276225732
 40
1.0
 40
1.0
 40
1.0
 40
1.0
 10
93.4994529545
 20
97.8495925042
 30
0.0
 10
93.5027410973
 20
97.8419662848
 30
0.0
 10
93.5199863694
 20
97.8096666698
 30
0.0
 10
93.5467989351
 20
97.7831427065
 30
0.0
 10
93.5694983214
 20
97.7664431466
 30
0.0
  0
SPLINE
  5
439
100
AcDbEntity
  8
0
100
AcDbSpline
 62
7
  6
CONTINUOUS
 70
0
 71
3
 72
13
 73
9
 74
0
 42
0.0000001
 43
0.0000001
 44
0.0000000001
 40
0.0
 40
0.0
 40
0.0
 40
0.0
 40
0.0229206705
 40
0.0781182628
 40
0.1647617461
 40
0.2809586435
 40
0.5938092288
 40
1.0
 40
1.0
 40
1.0
 40
1.0
 10
77.7399228833
 20
207.2211154657
 30
0.0
 10
77.7412441161
 20
207.2211154657
 30
0.0
 10
77.7435123205
 20
207.2264614938
 30
0.0
 10
77.7471790091
 20
207.234033989
 30
0.0
 10
77.7521027453
 20
207.2486962772
 30
0.0
 10
77.7611595617
 20
207.2766613553
 30
0.0
 10
77.7745978866
 20
207.323148747
 30
0.0
 10
77.7856060875
 20
207.3630240439
 30
0.0
 10
77.7917244059
 20
207.3856248831
 30
0.0
  0
SPLINE
  5
43A
100
AcDbEntity
  8
0
100
AcDbSpline
 62
7
  6
CONTINUOUS
 70
0
 71
3
 72
14
 73
10
 74
0
 42
0.0000001
 43
0.0000001
 44
0.0000000001
 40
0.0
 40
0.0
 40
0.0
 40
0.0
 40
0.4174415298
 40
0.5936060041
 40
0.7411155835
 40
0.8562204135
 40
0.9367536767
 40
0.9839207064
 40
1.0
 40
1.0
 40
1.0
 40
1.0
 10
89.3920857921
 20
114.4641590278
 30
0.0
 10
89.3483298299
 20
114.4063816223
 30
0.0
 10
89.2857693482
 20
114.3243403756
 30
0.0
 10
89.2067389311
 20
114.2231098328
 30
0.0
 10
89.1591860931
 20
114.1629073183
 30
0.0
 10
89.1220176372
 20
114.1181171988
 30
0.0
 10
89.0936667033
 20
114.0829083438
 30
0.0
 10
89.0784764643
 20
114.0698823311
 30
0.0
 10
89.0684083568
 20
114.0570629313
 30
0.0
 10
89.0661741216
 20
114.0587367679
 30
0.0
  0
SPLINE
  5
43B
100
AcDbEntity
  8
0
100
AcDbSpline
 62
7
  6
CONTINUOUS
 70
0
 71
3
 72
9
 73
5
 74
0
 42
0.0000001
 43
0.0000001
 44
0.0000000001
 40
0.0
 40
0.0
 40
0.0
 40
0.0
 40
0.7460460505
 40
1.0
 40
1.0
 40
1.0
 40
1.0
 10
78.1131788029
 20
208.9088177283
 30
0.0
 10
78.1135354828
 20
208.911808167
 30
0.0
 10
78.1134516696
 20
208.9144375349
 30
0.0
 10
78.1142661636
 20
208.9208247076
 30
0.0
 10
78.1132410036
 20
208.9208247076
 30
0.0
  0
SPLINE
  5
43C
100
AcDbEntity
  8
0
100
AcDbSpline
 62
7
  6
CONTINUOUS
 70
0
 71
3
 72
13
 73
9
 74
0
 42
0.0000001
 43
0.0000001
 44
0.0000000001
 40
0.0
 40
0.0
 40
0.0
 40
0.0
 40
0.0164377347
 40
0.0615075605
 40
0.1369283767
 40
0.2436405092
 40
0.5542883998
 40
1.0
 40
1.0
 40
1.0
 40
1.0
 10
78.3437243594
 20
209.7541130483
 30
0.0
 10
78.3428466162
 20
209.7543092936
 30
0.0
 10
78.3432912916
 20
209.7591026787
 30
0.0
 10
78.3433566796
 20
209.7652702674
 30
0.0
 10
78.3453400316
 20
209.7783279103
 30
0.0
 10
78.3495117764
 20
209.8044797238
 30
0.0
 10
78.3585773514
 20
209.8512176673
 30
0.0
 10
78.3669888803
 20
209.8915974184
 30
0.0
 10
78.3721049555
 20
209.9154424947
 30
0.0
  0
SPLINE
  5
43D
100
AcDbEntity
  8
0
100
AcDbSpline
 62
7
  6
CONTINUOUS
 70
0
 71
3
 72
9
 73
5
 74
0
 42
0.0000001
 43
0.0000001
 44
0.0000000001
 40
0.0
 40
0.0
 40
0.0
 40
0.0
 40
0.6266634648
 40
1.0
 40
1.0
 40
1.0
 40
1.0
 10
78.0450372652
 20
208.986926446
 30
0.0
 10
78.0640919383
 20
209.0648471667
 30
0.0
 10
78.0950594689
 20
209.189033328
 30
0.0
 10
78.1272804644
 20
209.3129649254
 30
0.0
 10
78.1410292034
 20
209.3587338232
 30
0.0
  0
SPLINE
  5
43E
100
AcDbEntity
  8
0
100
AcDbSpline
 62
7
  6
CONTINUOUS
 70
0
 71
3
 72
9
 73
5
 74
0
 42
0.0000001
 43
0.0000001
 44
0.0000000001
 40
0.0
 40
0.0
 40
0.0
 40
0.0
 40
0.2844543683
 40
1.0
 40
1.0
 40
1.0
 40
1.0
 10
77.6551844451
 20
207.2422671475
 30
0.0
 10
77.6586168817
 20
207.2590653585
 30
0.0
 10
77.670578848
 20
207.3181406454
 30
0.0
 10
77.6821319896
 20
207.3773002821
 30
0.0
 10
77.6900011038
 20
207.4197053832
 30
0.0
  0
SPLINE
  5
43F
100
AcDbEntity
  8
0
100
AcDbSpline
 62
7
  6
CONTINUOUS
 70
0
 71
3
 72
9
 73
5
 74
0
 42
0.0000001
 43
0.0000001
 44
0.0000000001
 40
0.0
 40
0.0
 40
0.0
 40
0.0
 40
0.3020077783
 40
1.0
 40
1.0
 40
1.0
 40
1.0
 10
77.6900011038
 20
207.4197053832
 30
0.0
 10
77.692338067
 20
207.4322988158
 30
0.0
 10
77.6999421132
 20
207.4740214173
 30
0.0
 10
77.7070917203
 20
207.5158347534
 30
0.0
 10
77.7114092219
 20
207.5451207119
 30
0.0
  0
SPLINE
  5
440
100
AcDbEntity
  8
0
100
AcDbSpline
 62
7
  6
CONTINUOUS
 70
0
 71
3
 72
9
 73
5
 74
0
 42
0.0000001
 43
0.0000001
 44
0.0000000001
 40
0.0
 40
0.0
 40
0.0
 40
0.0
 40
0.351521185
 40
1.0
 40
1.0
 40
1.0
 40
1.0
 10
77.7114092219
 20
207.5451207119
 30
0.0
 10
77.7125209246
 20
207.5526614803
 30
0.0
 10
77.7153965757
 20
207.5741245711
 30
0.0
 10
77.7184142057
 20
207.5957370469
 30
0.0
 10
77.7181949411
 20
207.6097967476
 30
0.0
  0
LINE
  5
441
100
AcDbEntity
  8
0
100
AcDbLine
 62
7
  6
CONTINUOUS
 10
77.9262135495
 20
208.3527850959
 11
77.9375106751
 21
208.4033996897
  0
SPLINE
  5
442
100
AcDbEntity
  8
0
100
AcDbSpline
 62
7
  6
CONTINUOUS
 70
0
 71
3
 72
13
 73
9
 74
0
 42
0.0000001
 43
0.0000001
 44
0.0000000001
 40
0.0
 40
0.0
 40
0.0
 40
0.0
 40
0.4015550504
 40
0.7184439573
 40
0.8374050694
 40
0.9259346171
 40
0.9810005246
 40
1.0
 40
1.0
 40
1.0
 40
1.0
 10
78.001921716
 20
208.7021086473
 30
0.0
 10
78.0063544994
 20
208.7238129168
 30
0.0
 10
78.0140597022
 20
208.7625072136
 30
0.0
 10
78.0230469558
 20
208.8083732507
 30
0.0
 10
78.0276478911
 20
208.8361576995
 30
0.0
 10
78.0306883843
 20
208.8517128746
 30
0.0
 10
78.0304541063
 20
208.8583012727
 30
0.0
 10
78.0321448011
 20
208.8648584755
 30
0.0
 10
78.0310966701
 20
208.8648584755
 30
0.0
  0
SPLINE
  5
443
100
AcDbEntity
  8
0
100
AcDbSpline
 62
7
  6
CONTINUOUS
 70
0
 71
3
 72
14
 73
10
 74
0
 42
0.0000001
 43
0.0000001
 44
0.0000000001
 40
0.0
 40
0.0
 40
0.0
 40
0.0
 40
0.0164441227
 40
0.0595072285
 40
0.132186126
 40
0.2363021528
 40
0.373523639
 40
0.5454762088
 40
1.0
 40
1.0
 40
1.0
 40
1.0
 10
76.7697323612
 20
203.5461465048
 30
0.0
 10
76.7681254886
 20
203.5465057604
 30
0.0
 10
76.7677597038
 20
203.5546155853
 30
0.0
 10
76.7680087255
 20
203.565918778
 30
0.0
 10
76.7706224484
 20
203.588911838
 30
0.0
 10
76.7750446951
 20
203.6195291858
 30
0.0
 10
76.7818426199
 20
203.6605591073
 30
0.0
 10
76.7953434105
 20
203.7357218266
 30
0.0
 10
76.807381101
 20
203.7973381124
 30
0.0
 10
76.8162945581
 20
203.8419679942
 30
0.0
  0
SPLINE
  5
444
100
AcDbEntity
  8
0
100
AcDbSpline
 62
7
  6
CONTINUOUS
 70
0
 71
3
 72
14
 73
10
 74
0
 42
0.0000001
 43
0.0000001
 44
0.0000000001
 40
0.0
 40
0.0
 40
0.0
 40
0.0
 40
0.4802695871
 40
0.6599334269
 40
0.7949332469
 40
0.890735851
 40
0.9529320814
 40
0.9872187246
 40
1.0
 40
1.0
 40
1.0
 40
1.0
 10
78.0401552901
 20
209.9655872587
 30
0.0
 10
78.0653310375
 20
210.0725875541
 30
0.0
 10
78.1004614305
 20
210.2195943366
 30
0.0
 10
78.1450575435
 20
210.3957777057
 30
0.0
 10
78.1693676444
 20
210.4869099917
 30
0.0
 10
78.187874005
 20
210.5505019097
 30
0.0
 10
78.2017529265
 20
210.5940327969
 30
0.0
 10
78.2107243275
 20
210.6145576981
 30
0.0
 10
78.2167849166
 20
210.6267033202
 30
0.0
 10
78.2197102432
 20
210.6267033202
 30
0.0
  0
SPLINE
  5
445
100
AcDbEntity
  8
0
100
AcDbSpline
 62
7
  6
CONTINUOUS
 70
0
 71
3
 72
11
 73
7
 74
0
 42
0.0000001
 43
0.0000001
 44
0.0000000001
 40
0.0
 40
0.0
 40
0.0
 40
0.0
 40
0.3406972545
 40
0.4942453241
 40
0.6311583147
 40
1.0
 40
1.0
 40
1.0
 40
1.0
 10
142.3174773049
 20
197.5119360391
 30
0.0
 10
142.3174382488
 20
197.6204149785
 30
0.0
 10
142.3343143003
 20
197.7783090678
 30
0.0
 10
142.3939338822
 20
197.9722045042
 30
0.0
 10
142.4772722932
 20
198.1589722006
 30
0.0
 10
142.612433124
 20
198.3120469713
 30
0.0
 10
142.7298733266
 20
198.3120913175
 30
0.0
  0
SPLINE
  5
446
100
AcDbEntity
  8
0
100
AcDbSpline
 62
7
  6
CONTINUOUS
 70
0
 71
3
 72
13
 73
9
 74
0
 42
0.0000001
 43
0.0000001
 44
0.0000000001
 40
0.0
 40
0.0
 40
0.0
 40
0.0
 40
0.1163777762
 40
0.2698822067
 40
0.3968614784
 40
0.5745684307
 40
0.7821050331
 40
1.0
 40
1.0
 40
1.0
 40
1.0
 10
127.7637446855
 20
220.8970032687
 30
0.0
 10
127.4759890195
 20
221.1382967244
 30
0.0
 10
126.8015059714
 20
221.6893609861
 30
0.0
 10
125.761536369
 20
222.4398861721
 30
0.0
 10
124.4814554583
 20
223.1838686941
 30
0.0
 10
122.9606633892
 20
223.8451568381
 30
0.0
 10
121.0704964374
 20
224.3435013797
 30
0.0
 10
119.6945804847
 20
224.4637224257
 30
0.0
 10
118.991465275
 20
224.463496262
 30
0.0
  0
SPLINE
  5
447
100
AcDbEntity
  8
0
100
AcDbSpline
 62
7
  6
CONTINUOUS
 70
0
 71
3
 72
11
 73
7
 74
0
 42
0.0000001
 43
0.0000001
 44
0.0000000001
 40
0.0
 40
0.0
 40
0.0
 40
0.0
 40
0.3408702596
 40
0.4944152384
 40
0.6312919206
 40
1.0
 40
1.0
 40
1.0
 40
1.0
 10
142.326258803
 20
173.1119376201
 30
0.0
 10
142.326297879
 20
173.0034035066
 30
0.0
 10
142.3432878889
 20
172.8454666079
 30
0.0
 10
142.4030757053
 20
172.6515741332
 30
0.0
 10
142.4866321994
 20
172.4649629041
 30
0.0
 10
142.6218396271
 20
172.3120486744
 30
0.0
 10
142.7392373853
 20
172.3120930046
 30
0.0
  0
SPLINE
  5
448
100
AcDbEntity
  8
0
100
AcDbSpline
 62
7
  6
CONTINUOUS
 70
0
 71
3
 72
9
 73
5
 74
0
 42
0.0000001
 43
0.0000001
 44
0.0000000001
 40
0.0
 40
0.0
 40
0.0
 40
0.0
 40
0.5902847107
 40
1.0
 40
1.0
 40
1.0
 40
1.0
 10
106.8507317089
 20
20.2143803972
 30
0.0
 10
106.8513109029
 20
20.21346862
 30
0.0
 10
106.852383683
 20
20.2119594668
 30
0.0
 10
106.8541678797
 20
20.2110815276
 30
0.0
 10
106.8549176348
 20
20.2110815276
 30
0.0
  0
LINE
  5
449
100
AcDbEntity
  8
0
100
AcDbLine
 62
7
  6
CONTINUOUS
 10
126.1603481687
 20
211.3942852993
 11
126.1620325148
 21
210.9369577153
  0
SPLINE
  5
44A
100
AcDbEntity
  8
0
100
AcDbSpline
 62
7
  6
CONTINUOUS
 70
0
 71
3
 72
13
 73
9
 74
0
 42
0.0000001
 43
0.0000001
 44
0.0000000001
 40
0.0
 40
0.0
 40
0.0
 40
0.0
 40
0.419360578
 40
0.5864192819
 40
0.7234537168
 40
0.8312056507
 40
0.9111885755
 40
1.0
 40
1.0
 40
1.0
 40
1.0
 10
107.9604740959
 20
223.1157730731
 30
0.0
 10
108.1155935762
 20
223.1245702818
 30
0.0
 10
108.3322150667
 20
223.1435290566
 30
0.0
 10
108.5972400687
 20
223.1865064764
 30
0.0
 10
108.7456545317
 20
223.2190173359
 30
0.0
 10
108.8627674895
 20
223.2550519707
 30
0.0
 10
108.9521546744
 20
223.2928360483
 30
0.0
 10
109.0151315059
 20
223.3396498254
 30
0.0
 10
109.0146766761
 20
223.3725503914
 30
0.0
  0
SPLINE
  5
44B
100
AcDbEntity
  8
0
100
AcDbSpline
 62
7
  6
CONTINUOUS
 70
0
 71
3
 72
9
 73
5
 74
0
 42
0.0000001
 43
0.0000001
 44
0.0000000001
 40
0.0
 40
0.0
 40
0.0
 40
0.0
 40
0.4775447618
 40
1.0
 40
1.0
 40
1.0
 40
1.0
 10
133.9705926287
 20
138.3565004625
 30
0.0
 10
133.8118188292
 20
137.9880638061
 30
0.0
 10
133.4423640273
 20
137.2324018924
 30
0.0
 10
133.0234829308
 20
136.5035484521
 30
0.0
 10
132.7938672993
 20
136.1294779864
 30
0.0
  0
SPLINE
  5
44C
100
AcDbEntity
  8
0
100
AcDbSpline
 62
7
  6
CONTINUOUS
 70
0
 71
3
 72
8
 73
4
 74
0
 42
0.0000001
 43
0.0000001
 44
0.0000000001
 40
0.0
 40
0.0
 40
0.0
 40
0.0
 40
1.0
 40
1.0
 40
1.0
 40
1.0
 10
128.8482146125
 20
134.2167228698
 30
0.0
 10
128.8423438063
 20
134.1222236127
 30
0.0
 10
128.835962015
 20
134.026034212
 30
0.0
 10
128.8518910998
 20
133.9327023298
 30
0.0
  0
SPLINE
  5
44D
100
AcDbEntity
  8
0
100
AcDbSpline
 62
7
  6
CONTINUOUS
 70
0
 71
3
 72
9
 73
5
 74
0
 42
0.0000001
 43
0.0000001
 44
0.0000000001
 40
0.0
 40
0.0
 40
0.0
 40
0.0
 40
0.2596335065
 40
1.0
 40
1.0
 40
1.0
 40
1.0
 10
128.856586535
 20
133.933018681
 30
0.0
 10
128.9735721228
 20
132.3863937721
 30
0.0
 10
129.4143253685
 20
126.4286965483
 30
0.0
 10
129.8206878893
 20
120.4684846471
 30
0.0
 10
130.1072413139
 20
116.0548493339
 30
0.0
  0
SPLINE
  5
44E
100
AcDbEntity
  8
0
100
AcDbSpline
 62
7
  6
CONTINUOUS
 70
0
 71
3
 72
10
 73
6
 74
0
 42
0.0000001
 43
0.0000001
 44
0.0000000001
 40
0.0
 40
0.0
 40
0.0
 40
0.0
 40
0.2499762745
 40
0.6250172677
 40
1.0
 40
1.0
 40
1.0
 40
1.0
 10
132.790675983
 20
133.9217789147
 30
0.0
 10
132.4624888409
 20
133.9252144912
 30
0.0
 10
131.6418884551
 20
133.9329487496
 30
0.0
 10
130.3289481724
 20
133.9216934107
 30
0.0
 10
129.3441952107
 20
133.927486541
 30
0.0
 10
128.8518910998
 20
133.9327023298
 30
0.0
  0
SPLINE
  5
44F
100
AcDbEntity
  8
0
100
AcDbSpline
 62
7
  6
CONTINUOUS
 70
0
 71
3
 72
16
 73
12
 74
0
 42
0.0000001
 43
0.0000001
 44
0.0000000001
 40
0.0
 40
0.0
 40
0.0
 40
0.0
 40
0.1266445667
 40
0.2397361377
 40
0.3438251117
 40
0.445992358
 40
0.5538002846
 40
0.6757029237
 40
0.7445075032
 40
0.8201719597
 40
1.0
 40
1.0
 40
1.0
 40
1.0
 10
109.0077778383
 20
114.5907136696
 30
0.0
 10
109.9009695463
 20
114.5910356852
 30
0.0
 10
111.5916864958
 20
114.6209090622
 30
0.0
 10
114.0155136066
 20
114.696710325
 30
0.0
 10
116.2644492442
 20
114.8250241914
 30
0.0
 10
118.4717950468
 20
115.0115051922
 30
0.0
 10
120.800490754
 20
115.2478695063
 30
0.0
 10
122.8955081714
 20
115.4563865063
 30
0.0
 10
124.7666130047
 20
115.6248456542
 30
0.0
 10
127.0457404385
 20
115.8164518797
 30
0.0
 10
128.8445204762
 20
115.9307519298
 30
0.0
 10
130.1067247076
 20
116.0547588622
 30
0.0
  0
SPLINE
  5
450
100
AcDbEntity
  8
0
100
AcDbSpline
 62
7
  6
CONTINUOUS
 70
0
 71
3
 72
9
 73
5
 74
0
 42
0.0000001
 43
0.0000001
 44
0.0000000001
 40
0.0
 40
0.0
 40
0.0
 40
0.0
 40
0.2543153401
 40
1.0
 40
1.0
 40
1.0
 40
1.0
 10
109.0010065991
 20
134.0698127635
 30
0.0
 10
109.0078399004
 20
132.4185466387
 30
0.0
 10
109.02841922
 20
125.9255361028
 30
0.0
 10
109.0251456343
 20
119.4324445682
 30
0.0
 10
109.0077778383
 20
114.5907136696
 30
0.0
  0
SPLINE
  5
451
100
AcDbEntity
  8
0
100
AcDbSpline
 62
7
  6
CONTINUOUS
 70
0
 71
3
 72
22
 73
18
 74
0
 42
0.0000001
 43
0.0000001
 44
0.0000000001
 40
0.0
 40
0.0
 40
0.0
 40
0.0
 40
0.0315430586
 40
0.0630652518
 40
0.1260512354
 40
0.1889709518
 40
0.2518323923
 40
0.3773866677
 40
0.5027087835
 40
0.5652763687
 40
0.6277739331
 40
0.6901914387
 40
0.7525139321
 40
0.8147193646
 40
0.8767867479
 40
0.9386114884
 40
1.0
 40
1.0
 40
1.0
 40
1.0
 10
113.1203592558
 20
134.0738755848
 30
0.0
 10
113.2853949951
 20
134.0624569102
 30
0.0
 10
113.6159700488
 20
134.0495924951
 30
0.0
 10
114.2765519015
 20
134.0246661353
 30
0.0
 10
115.1018505393
 20
133.9998642348
 30
0.0
 10
116.0915731287
 20
133.9759944658
 30
0.0
 10
117.4095974343
 20
133.9568338349
 30
0.0
 10
119.0549436926
 20
133.9404721187
 30
0.0
 10
120.6988034051
 20
133.9307218439
 30
0.0
 10
122.0119759403
 20
133.9266127892
 30
0.0
 10
122.9952443936
 20
133.9261014902
 30
0.0
 10
123.9772290908
 20
133.923806453
 30
0.0
 10
124.9576575517
 20
133.9185634099
 30
0.0
 10
125.9363246285
 20
133.9204687925
 30
0.0
 10
126.9121064993
 20
133.9394194482
 30
0.0
 10
127.8838819437
 20
133.9574323775
 30
0.0
 10
128.5299550485
 20
133.9289159938
 30
0.0
 10
128.8518901248
 20
133.932702576
 30
0.0
  0
SPLINE
  5
452
100
AcDbEntity
  8
0
100
AcDbSpline
 62
7
  6
CONTINUOUS
 70
0
 71
3
 72
9
 73
5
 74
0
 42
0.0000001
 43
0.0000001
 44
0.0000000001
 40
0.0
 40
0.0
 40
0.0
 40
0.0
 40
0.5011543898
 40
1.0
 40
1.0
 40
1.0
 40
1.0
 10
130.7950636781
 20
95.1194442752
 30
0.0
 10
130.8874784848
 20
95.1417276247
 30
0.0
 10
131.0712298935
 20
95.1890766959
 30
0.0
 10
131.2580999612
 20
95.2227679044
 30
0.0
 10
131.3516432236
 20
95.2370377351
 30
0.0
  0
SPLINE
  5
453
100
AcDbEntity
  8
0
100
AcDbSpline
 62
7
  6
CONTINUOUS
 70
0
 71
3
 72
9
 73
5
 74
0
 42
0.0000001
 43
0.0000001
 44
0.0000000001
 40
0.0
 40
0.0
 40
0.0
 40
0.0
 40
0.5020498341
 40
1.0
 40
1.0
 40
1.0
 40
1.0
 10
131.3277740197
 20
95.0143362305
 30
0.0
 10
131.2380104792
 20
95.028630394
 30
0.0
 10
131.0594339895
 20
95.0591026043
 30
0.0
 10
130.8836541452
 20
95.1032006334
 30
0.0
 10
130.7949746374
 20
95.1194296957
 30
0.0
  0
SPLINE
  5
454
100
AcDbEntity
  8
0
100
AcDbSpline
 62
7
  6
CONTINUOUS
 70
0
 71
3
 72
8
 73
4
 74
0
 42
0.0000001
 43
0.0000001
 44
0.0000000001
 40
0.0
 40
0.0
 40
0.0
 40
0.0
 40
1.0
 40
1.0
 40
1.0
 40
1.0
 10
131.7377746536
 20
94.9375350463
 30
0.0
 10
131.6111919515
 20
94.9602944633
 30
0.0
 10
131.4852348978
 20
94.9864741483
 30
0.0
 10
131.3585647716
 20
95.0087418528
 30
0.0
  0
SPLINE
  5
455
100
AcDbEntity
  8
0
100
AcDbSpline
 62
7
  6
CONTINUOUS
 70
0
 71
3
 72
14
 73
10
 74
0
 42
0.0000001
 43
0.0000001
 44
0.0000000001
 40
0.0
 40
0.0
 40
0.0
 40
0.0
 40
0.3388240747
 40
0.4959213592
 40
0.638955724
 40
0.7641422327
 40
0.8680444868
 40
0.9474758551
 40
1.0
 40
1.0
 40
1.0
 40
1.0
 10
138.172273467
 20
88.3105179357
 30
0.0
 10
138.1720898431
 20
88.8205349655
 30
0.0
 10
138.2076283402
 20
89.5675639
 30
0.0
 10
138.3143460449
 20
90.5235353042
 30
0.0
 10
138.4072863281
 20
91.1570914019
 30
0.0
 10
138.5015836175
 20
91.7092211909
 30
0.0
 10
138.585559071
 20
92.1660860656
 30
0.0
 10
138.6452801285
 20
92.5157800434
 30
0.0
 10
138.6717537926
 20
92.7132212157
 30
0.0
 10
138.6740013102
 20
92.7922515623
 30
0.0
  0
SPLINE
  5
456
100
AcDbEntity
  8
0
100
AcDbSpline
 62
7
  6
CONTINUOUS
 70
0
 71
3
 72
10
 73
6
 74
0
 42
0.0000001
 43
0.0000001
 44
0.0000000001
 40
0.0
 40
0.0
 40
0.0
 40
0.0
 40
0.4733438972
 40
0.7159624235
 40
1.0
 40
1.0
 40
1.0
 40
1.0
 10
119.9444984783
 20
213.8845011758
 30
0.0
 10
118.2134509798
 20
213.8488389554
 30
0.0
 10
115.5950491055
 20
213.7983204777
 30
0.0
 10
111.937662498
 20
213.7417717812
 30
0.0
 10
110.0112704169
 20
213.7227190339
 30
0.0
 10
108.9723073357
 20
213.7223447707
 30
0.0
  0
SPLINE
  5
457
100
AcDbEntity
  8
0
100
AcDbSpline
 62
7
  6
CONTINUOUS
 70
0
 71
3
 72
14
 73
10
 74
0
 42
0.0000001
 43
0.0000001
 44
0.0000000001
 40
0.0
 40
0.0
 40
0.0
 40
0.0
 40
0.3388240747
 40
0.4959213592
 40
0.638955724
 40
0.7641422327
 40
0.8680444868
 40
0.9474758552
 40
1.0
 40
1.0
 40
1.0
 40
1.0
 10
138.1895551229
 20
40.3105210484
 30
0.0
 10
138.1893714991
 20
40.8205380781
 30
0.0
 10
138.2249099962
 20
41.5675670127
 30
0.0
 10
138.3316277009
 20
42.5235384169
 30
0.0
 10
138.4245679841
 20
43.1570945146
 30
0.0
 10
138.5188652734
 20
43.7092243036
 30
0.0
 10
138.6028407269
 20
44.1660891783
 30
0.0
 10
138.6625617844
 20
44.5157831561
 30
0.0
 10
138.6890354486
 20
44.7132243284
 30
0.0
 10
138.6912829662
 20
44.792254675
 30
0.0
  0
SPLINE
  5
458
100
AcDbEntity
  8
0
100
AcDbSpline
 62
7
  6
CONTINUOUS
 70
0
 71
3
 72
30
 73
26
 74
0
 42
0.0000001
 43
0.0000001
 44
0.0000000001
 40
0.0
 40
0.0
 40
0.0
 40
0.0
 40
0.0043622314
 40
0.0079513678
 40
0.0109142874
 40
0.0135213248
 40
0.0191567995
 40
0.0228863286
 40
0.0273994456
 40
0.038972063
 40
0.0540183106
 40
0.0723597001
 40
0.0937262491
 40
0.1178247381
 40
0.1443517281
 40
0.2036055241
 40
0.2695076913
 40
0.3405466692
 40
0.4155303169
 40
0.4936378191
 40
0.5742272473
 40
0.6567796349
 40
0.7409019989
 40
0.8263177038
 40
1.0
 40
1.0
 40
1.0
 40
1.0
 10
144.2833292415
 20
171.5864925695
 30
0.0
 10
144.283288974
 20
171.6128478991
 30
0.0
 10
144.2808530534
 20
171.6609801967
 30
0.0
 10
144.2669794326
 20
171.7258577437
 30
0.0
 10
144.2424086091
 20
171.7763111886
 30
0.0
 10
144.1912416005
 20
171.8239725053
 30
0.0
 10
144.112193235
 20
171.8290791839
 30
0.0
 10
144.0318495133
 20
171.8068859942
 30
0.0
 10
143.9214780326
 20
171.7589493941
 30
0.0
 10
143.7628931958
 20
171.6564930488
 30
0.0
 10
143.5505114808
 20
171.4868624208
 30
0.0
 10
143.3055803461
 20
171.2642444804
 30
0.0
 10
143.0312178237
 20
170.9933527215
 30
0.0
 10
142.7307458615
 20
170.6787972967
 30
0.0
 10
142.2825650568
 20
170.189012065
 30
0.0
 10
141.6807764308
 20
169.4977049855
 30
0.0
 10
140.9199148901
 20
168.5887302136
 30
0.0
 10
140.1108665601
 20
167.5963063167
 30
0.0
 10
139.2641811885
 20
166.5395080498
 30
0.0
 10
138.3889397726
 20
165.4316968048
 30
0.0
 10
137.4910550363
 20
164.2835273942
 30
0.0
 10
136.5741400618
 20
163.104117938
 30
0.0
 10
135.6418897384
 20
161.8996998324
 30
0.0
 10
134.3774033702
 20
160.2562084059
 30
0.0
 10
133.4259415443
 20
159.0131504231
 30
0.0
 10
132.7859256826
 20
158.1815904236
 30
0.0
  0
SPLINE
  5
459
100
AcDbEntity
  8
0
100
AcDbSpline
 62
7
  6
CONTINUOUS
 70
0
 71
3
 72
21
 73
17
 74
0
 42
0.0000001
 43
0.0000001
 44
0.0000000001
 40
0.0
 40
0.0
 40
0.0
 40
0.0
 40
0.0024086467
 40
0.0066268714
 40
0.0127356518
 40
0.0207572632
 40
0.0425653011
 40
0.0720701987
 40
0.1092380856
 40
0.154005704
 40
0.2063062398
 40
0.2660711352
 40
0.4076383081
 40
0.5778889435
 40
0.7758258993
 40
1.0
 40
1.0
 40
1.0
 40
1.0
 10
140.301698004
 20
153.8231346086
 30
0.0
 10
140.3005128128
 20
153.8185584206
 30
0.0
 10
140.2921499353
 20
153.8078922654
 30
0.0
 10
140.2747086701
 20
153.7904019108
 30
0.0
 10
140.2471175044
 20
153.7669892926
 30
0.0
 10
140.1916559085
 20
153.7235374006
 30
0.0
 10
140.0969866766
 20
153.6555608599
 30
0.0
 10
139.9536297683
 20
153.5576125696
 30
0.0
 10
139.7711185421
 20
153.4370596485
 30
0.0
 10
139.5498324644
 20
153.2941012209
 30
0.0
 10
139.2900539062
 20
153.1290036318
 30
0.0
 10
138.868442902
 20
152.864379589
 30
0.0
 10
138.2481343154
 20
152.4809051694
 30
0.0
 10
137.394233269
 20
151.9596251724
 30
0.0
 10
136.3994511221
 20
151.3579931158
 30
0.0
 10
135.6892342718
 20
150.9315094577
 30
0.0
 10
135.3117822666
 20
150.7054664577
 30
0.0
  0
SPLINE
  5
45A
100
AcDbEntity
  8
0
100
AcDbSpline
 62
7
  6
CONTINUOUS
 70
0
 71
3
 72
9
 73
5
 74
0
 42
0.0000001
 43
0.0000001
 44
0.0000000001
 40
0.0
 40
0.0
 40
0.0
 40
0.0
 40
0.2491964424
 40
1.0
 40
1.0
 40
1.0
 40
1.0
 10
130.8284596374
 20
153.2482162574
 30
0.0
 10
131.0070284201
 20
153.6513536346
 30
0.0
 10
131.6966170572
 20
155.2811470133
 30
0.0
 10
132.3106942821
 20
156.9410700401
 30
0.0
 10
132.785942273
 20
158.1815843942
 30
0.0
  0
SPLINE
  5
45B
100
AcDbEntity
  8
0
100
AcDbSpline
 62
7
  6
CONTINUOUS
 70
0
 71
3
 72
10
 73
6
 74
0
 42
0.0000001
 43
0.0000001
 44
0.0000000001
 40
0.0
 40
0.0
 40
0.0
 40
0.0
 40
0.1851896875
 40
0.5269843001
 40
1.0
 40
1.0
 40
1.0
 40
1.0
 10
137.9065087017
 20
210.7696170523
 30
0.0
 10
137.9535632895
 20
210.7220842714
 30
0.0
 10
138.0580315262
 20
210.5561539083
 30
0.0
 10
138.0961678474
 20
210.1856286159
 30
0.0
 10
138.0392207962
 20
209.8951206944
 30
0.0
 10
137.9947508889
 20
209.7301728923
 30
0.0
  0
SPLINE
  5
45C
100
AcDbEntity
  8
0
100
AcDbSpline
 62
7
  6
CONTINUOUS
 70
0
 71
3
 72
10
 73
6
 74
0
 42
0.0000001
 43
0.0000001
 44
0.0000000001
 40
0.0
 40
0.0
 40
0.0
 40
0.0
 40
0.2504082829
 40
0.4995700335
 40
1.0
 40
1.0
 40
1.0
 40
1.0
 10
128.8408475585
 20
145.5132543339
 30
0.0
 10
128.9033968017
 20
146.1791862569
 30
0.0
 10
129.0876868418
 20
147.5027993351
 30
0.0
 10
129.6504297686
 20
150.1146292399
 30
0.0
 10
130.2870605524
 20
152.0260738257
 30
0.0
 10
130.8284152207
 20
153.2482376207
 30
0.0
  0
SPLINE
  5
45D
100
AcDbEntity
  8
0
100
AcDbSpline
 62
7
  6
CONTINUOUS
 70
0
 71
3
 72
9
 73
5
 74
0
 42
0.0000001
 43
0.0000001
 44
0.0000000001
 40
0.0
 40
0.0
 40
0.0
 40
0.0
 40
0.2507117348
 40
1.0
 40
1.0
 40
1.0
 40
1.0
 10
137.6369177214
 20
155.7745784733
 30
0.0
 10
137.4573424432
 20
155.3444428337
 30
0.0
 10
136.7240509889
 20
153.6358875693
 30
0.0
 10
135.9294999985
 20
151.9540759277
 30
0.0
 10
135.3117822666
 20
150.7054664577
 30
0.0
  0
SPLINE
  5
45E
100
AcDbEntity
  8
0
100
AcDbSpline
 62
7
  6
CONTINUOUS
 70
0
 71
3
 72
31
 73
27
 74
0
 42
0.0000001
 43
0.0000001
 44
0.0000000001
 40
0.0
 40
0.0
 40
0.0
 40
0.0
 40
0.0129095251
 40
0.0171325186
 40
0.0201361212
 40
0.0227199832
 40
0.0261367191
 40
0.0309712231
 40
0.037278533
 40
0.0449721993
 40
0.0539630843
 40
0.0641297135
 40
0.0753290902
 40
0.1002590074
 40
0.127823553
 40
0.1574548689
 40
0.188649227
 40
0.2544623726
 40
0.3234978288
 40
0.3947419327
 40
0.4675879823
 40
0.5416263109
 40
0.6165817972
 40
0.6922644337
 40
0.845332574
 40
1.0
 40
1.0
 40
1.0
 40
1.0
 10
143.9674542637
 20
169.4530976945
 30
0.0
 10
143.9682014149
 20
169.5206649674
 30
0.0
 10
143.9662138341
 20
169.6120326895
 30
0.0
 10
143.9370062431
 20
169.7129623246
 30
0.0
 10
143.9058875603
 20
169.7581003031
 30
0.0
 10
143.8549161708
 20
169.7663157822
 30
0.0
 10
143.8036145164
 20
169.7373431734
 30
0.0
 10
143.7472064251
 20
169.6865101901
 30
0.0
 10
143.6831359909
 20
169.611052332
 30
0.0
 10
143.6122899581
 20
169.5137980264
 30
0.0
 10
143.535605749
 20
169.3959239852
 30
0.0
 10
143.4538726688
 20
169.2596454684
 30
0.0
 10
143.3348926311
 20
169.048513753
 30
0.0
 10
143.17991803
 20
168.7532701501
 30
0.0
 10
142.9887265047
 20
168.3682412544
 30
0.0
 10
142.7901508133
 20
167.9503499682
 30
0.0
 10
142.5123731754
 20
167.3484948491
 30
0.0
 10
142.1583816979
 20
166.5547123638
 30
0.0
 10
141.7286945243
 20
165.5652396838
 30
0.0
 10
141.2908644641
 20
164.5391960626
 30
0.0
 10
140.8472603769
 20
163.4871613996
 30
0.0
 10
140.3989893352
 20
162.4160176616
 30
0.0
 10
139.9467562975
 20
161.3304393596
 30
0.0
 10
139.3364455234
 20
159.8625955849
 30
0.0
 10
138.5686538913
 20
158.0083725511
 30
0.0
 10
137.9483152224
 20
156.5218578758
 30
0.0
 10
137.6369177214
 20
155.7745784733
 30
0.0
  0
SPLINE
  5
45F
100
AcDbEntity
  8
0
100
AcDbSpline
 62
7
  6
CONTINUOUS
 70
0
 71
3
 72
13
 73
9
 74
0
 42
0.0000001
 43
0.0000001
 44
0.0000000001
 40
0.0
 40
0.0
 40
0.0
 40
0.0
 40
0.3328216345
 40
0.4756222922
 40
0.6023269867
 40
0.818782087
 40
0.913547271
 40
1.0
 40
1.0
 40
1.0
 40
1.0
 10
137.4545127373
 20
116.1377487616
 30
0.0
 10
137.4406525792
 20
115.7909225582
 30
0.0
 10
137.4765668062
 20
115.2859690571
 30
0.0
 10
137.6866002531
 20
114.6905293022
 30
0.0
 10
137.9397947982
 20
114.2489137317
 30
0.0
 10
138.2595747412
 20
113.9117750276
 30
0.0
 10
138.6012241325
 20
113.6757408663
 30
0.0
 10
138.7700948294
 20
113.5885598991
 30
0.0
 10
138.854099012
 20
113.5558099405
 30
0.0
  0
SPLINE
  5
460
100
AcDbEntity
  8
0
100
AcDbSpline
 62
7
  6
CONTINUOUS
 70
0
 71
3
 72
9
 73
5
 74
0
 42
0.0000001
 43
0.0000001
 44
0.0000000001
 40
0.0
 40
0.0
 40
0.0
 40
0.0
 40
0.4938307378
 40
1.0
 40
1.0
 40
1.0
 40
1.0
 10
138.8541029711
 20
113.5559093495
 30
0.0
 10
139.0285419963
 20
113.4849697088
 30
0.0
 10
139.3486327865
 20
113.2633599354
 30
0.0
 10
139.6124415389
 20
112.9880024089
 30
0.0
 10
139.7401278839
 20
112.8432551438
 30
0.0
  0
SPLINE
  5
461
100
AcDbEntity
  8
0
100
AcDbSpline
 62
7
  6
CONTINUOUS
 70
0
 71
3
 72
18
 73
14
 74
0
 42
0.0000001
 43
0.0000001
 44
0.0000000001
 40
0.0
 40
0.0
 40
0.0
 40
0.0
 40
0.2498295274
 40
0.4553322929
 40
0.6237312333
 40
0.758843293
 40
0.8629445914
 40
0.9038102529
 40
0.9373576519
 40
0.963671723
 40
0.9828137541
 40
0.9948564727
 40
1.0
 40
1.0
 40
1.0
 40
1.0
 10
139.7401269574
 20
112.8432152359
 30
0.0
 10
139.8368058749
 20
112.7331270127
 30
0.0
 10
140.0281014294
 20
112.5452005679
 30
0.0
 10
140.3197992089
 20
112.3234293756
 30
0.0
 10
140.573576948
 20
112.1656006233
 30
0.0
 10
140.7850224256
 20
112.0538318935
 30
0.0
 10
140.9339256813
 20
111.9843193199
 30
0.0
 10
141.0296328664
 20
111.942032991
 30
0.0
 10
141.0840342879
 20
111.9186936526
 30
0.0
 10
141.1261482071
 20
111.9001693083
 30
0.0
 10
141.1578693433
 20
111.8866657164
 30
0.0
 10
141.1752540682
 20
111.8768198171
 30
0.0
 10
141.1859727721
 20
111.8720738405
 30
0.0
 10
141.186775917
 20
111.8691662833
 30
0.0
  0
SPLINE
  5
462
100
AcDbEntity
  8
0
100
AcDbSpline
 62
7
  6
CONTINUOUS
 70
0
 71
3
 72
17
 73
13
 74
0
 42
0.0000001
 43
0.0000001
 44
0.0000000001
 40
0.0
 40
0.0
 40
0.0
 40
0.0
 40
0.1722859426
 40
0.3379107136
 40
0.4910886205
 40
0.6290528921
 40
0.7506843707
 40
0.8545892435
 40
0.8989388259
 40
0.9379198579
 40
0.9715327419
 40
1.0
 40
1.0
 40
1.0
 40
1.0
 10
138.3312582091
 20
110.227468074
 30
0.0
 10
138.1642971082
 20
109.4674971921
 30
0.0
 10
137.8934250702
 20
107.9627414853
 30
0.0
 10
137.7602033758
 20
105.7425518368
 30
0.0
 10
137.8987911313
 20
103.6800882734
 30
0.0
 10
138.1816625911
 20
101.8363584231
 30
0.0
 10
138.4979652605
 20
100.225482974
 30
0.0
 10
138.7257606554
 20
99.0278276156
 30
0.0
 10
138.8499904612
 20
98.1912410961
 30
0.0
 10
138.9033565
 20
97.6654432468
 30
0.0
 10
138.9157809167
 20
97.2087464287
 30
0.0
 10
138.89019051
 20
96.9281567615
 30
0.0
 10
138.8655024342
 20
96.8019827255
 30
0.0
  0
SPLINE
  5
463
100
AcDbEntity
  8
0
100
AcDbSpline
 62
7
  6
CONTINUOUS
 70
0
 71
3
 72
9
 73
5
 74
0
 42
0.0000001
 43
0.0000001
 44
0.0000000001
 40
0.0
 40
0.0
 40
0.0
 40
0.0
 40
0.5213426227
 40
1.0
 40
1.0
 40
1.0
 40
1.0
 10
138.3313137022
 20
110.2274607287
 30
0.0
 10
138.3072099493
 20
110.4534714459
 30
0.0
 10
138.2578214485
 20
110.8861849399
 30
0.0
 10
138.1829083744
 20
111.3176793835
 30
0.0
 10
138.1233149001
 20
111.5176720971
 30
0.0
  0
SPLINE
  5
464
100
AcDbEntity
  8
0
100
AcDbSpline
 62
7
  6
CONTINUOUS
 70
0
 71
3
 72
14
 73
10
 74
0
 42
0.0000001
 43
0.0000001
 44
0.0000000001
 40
0.0
 40
0.0
 40
0.0
 40
0.0
 40
0.0525039518
 40
0.1319218593
 40
0.2358175071
 40
0.361003522
 40
0.5040427266
 40
0.6611491261
 40
1.0
 40
1.0
 40
1.0
 40
1.0
 10
138.6945142349
 20
35.8290655843
 30
0.0
 10
138.6922249075
 20
35.9080658025
 30
0.0
 10
138.6656207698
 20
36.1054434784
 30
0.0
 10
138.6056629271
 20
36.455041367
 30
0.0
 10
138.5213586891
 20
36.9118234328
 30
0.0
 10
138.426656685
 20
37.4638909887
 30
0.0
 10
138.3332476307
 20
38.0974107906
 30
0.0
 10
138.225821981
 20
39.0533827593
 30
0.0
 10
138.1897389303
 20
39.8004541301
 30
0.0
 10
138.1895552887
 20
40.3105210484
 30
0.0
  0
SPLINE
  5
465
100
AcDbEntity
  8
0
100
AcDbSpline
 62
7
  6
CONTINUOUS
 70
0
 71
3
 72
14
 73
10
 74
0
 42
0.0000001
 43
0.0000001
 44
0.0000000001
 40
0.0
 40
0.0
 40
0.0
 40
0.0
 40
0.3028559747
 40
0.4541390852
 40
0.5956258493
 40
0.7213405786
 40
0.8292484921
 40
0.9203088936
 40
1.0
 40
1.0
 40
1.0
 40
1.0
 10
131.8147172583
 20
25.9892823922
 30
0.0
 10
131.8316970019
 20
25.3812533834
 30
0.0
 10
131.7727512818
 20
24.4624582248
 30
0.0
 10
131.4951247856
 20
23.2965987263
 30
0.0
 10
131.1955920747
 20
22.5076790152
 30
0.0
 10
130.8092204423
 20
21.8560709074
 30
0.0
 10
130.3649249026
 20
21.3699044222
 30
0.0
 10
129.8802492295
 20
21.0731956758
 30
0.0
 10
129.5377031261
 20
20.9977932601
 30
0.0
 10
129.377755181
 20
20.9919600011
 30
0.0
  0
SPLINE
  5
466
100
AcDbEntity
  8
0
100
AcDbSpline
 62
7
  6
CONTINUOUS
 70
0
 71
3
 72
12
 73
8
 74
0
 42
0.0000001
 43
0.0000001
 44
0.0000000001
 40
0.0
 40
0.0
 40
0.0
 40
0.0
 40
0.0707378751
 40
0.1603643671
 40
0.3927567998
 40
0.6811965902
 40
1.0
 40
1.0
 40
1.0
 40
1.0
 10
137.6369177214
 20
155.7745784733
 30
0.0
 10
137.5341286223
 20
155.8506639973
 30
0.0
 10
137.2928266105
 20
156.0118954991
 30
0.0
 10
136.6824119274
 20
156.3749151819
 30
0.0
 10
135.7018770449
 20
156.8831428117
 30
0.0
 10
134.3266725829
 20
157.5261506177
 30
0.0
 10
133.3180891549
 20
157.9602109654
 30
0.0
 10
132.785942273
 20
158.1815843942
 30
0.0
  0
SPLINE
  5
467
100
AcDbEntity
  8
0
100
AcDbSpline
 62
7
  6
CONTINUOUS
 70
0
 71
3
 72
9
 73
5
 74
0
 42
0.0000001
 43
0.0000001
 44
0.0000000001
 40
0.0
 40
0.0
 40
0.0
 40
0.0
 40
0.2436108693
 40
1.0
 40
1.0
 40
1.0
 40
1.0
 10
128.946458049
 20
20.9753834346
 30
0.0
 10
128.9756545923
 20
20.9764482155
 30
0.0
 10
129.0953397437
 20
20.9847127379
 30
0.0
 10
129.2138511923
 20
21.0088144032
 30
0.0
 10
129.3007218304
 20
21.0349354312
 30
0.0
  0
SPLINE
  5
468
100
AcDbEntity
  8
0
100
AcDbSpline
 62
7
  6
CONTINUOUS
 70
0
 71
3
 72
14
 73
10
 74
0
 42
0.0000001
 43
0.0000001
 44
0.0000000001
 40
0.0
 40
0.0
 40
0.0
 40
0.0
 40
0.0841442754
 40
0.1816552738
 40
0.2948160828
 40
0.4228937928
 40
0.5630282044
 40
0.7096806031
 40
1.0
 40
1.0
 40
1.0
 40
1.0
 10
129.3007218304
 20
21.0349354312
 30
0.0
 10
129.4529861361
 20
21.0807196026
 30
0.0
 10
129.7670282298
 20
21.233202724
 30
0.0
 10
130.1860295305
 20
21.6082840506
 30
0.0
 10
130.5652599609
 20
22.1286553125
 30
0.0
 10
130.8848081678
 20
22.7778326053
 30
0.0
 10
131.1300903636
 20
23.5246084006
 30
0.0
 10
131.3525889547
 20
24.5937889281
 30
0.0
 10
131.3987343707
 20
25.4243329592
 30
0.0
 10
131.3834201261
 20
25.9727058256
 30
0.0
  0
SPLINE
  5
469
100
AcDbEntity
  8
0
100
AcDbSpline
 62
7
  6
CONTINUOUS
 70
0
 71
3
 72
22
 73
18
 74
0
 42
0.0000001
 43
0.0000001
 44
0.0000000001
 40
0.0
 40
0.0
 40
0.0
 40
0.0
 40
0.0015246785
 40
0.005249143
 40
0.0113233702
 40
0.0197605744
 40
0.0305461885
 40
0.0436598356
 40
0.0767445625
 40
0.1187076724
 40
0.1691508789
 40
0.2275951263
 40
0.2934833658
 40
0.4449483161
 40
0.6177083293
 40
0.8051464021
 40
1.0
 40
1.0
 40
1.0
 40
1.0
 10
108.9257637475
 20
20.2115857109
 30
0.0
 10
108.9283098333
 20
20.2115855263
 30
0.0
 10
108.9323267568
 20
20.2224708946
 30
0.0
 10
108.9358499148
 20
20.2386493613
 30
0.0
 10
108.9403016734
 20
20.2700982852
 30
0.0
 10
108.9444088265
 20
20.3115804108
 30
0.0
 10
108.948536225
 20
20.3656423767
 30
0.0
 10
108.9540735539
 20
20.4605409142
 30
0.0
 10
108.9596561287
 20
20.6077367354
 30
0.0
 10
108.9640224124
 20
20.8172285322
 30
0.0
 10
108.9662147265
 20
21.0691391576
 30
0.0
 10
108.96793648
 20
21.3609936884
 30
0.0
 10
108.9731682014
 20
21.8215113733
 30
0.0
 10
108.9747181269
 20
22.4731171259
 30
0.0
 10
108.9382058742
 20
23.3268779711
 30
0.0
 10
108.9330114735
 20
24.254158522
 30
0.0
 10
108.9887642443
 20
24.8919773064
 30
0.0
 10
109.0396907266
 20
25.2133566147
 30
0.0
  0
SPLINE
  5
46A
100
AcDbEntity
  8
0
100
AcDbSpline
 62
7
  6
CONTINUOUS
 70
0
 71
3
 72
9
 73
5
 74
0
 42
0.0000001
 43
0.0000001
 44
0.0000000001
 40
0.0
 40
0.0
 40
0.0
 40
0.0
 40
0.2532891466
 40
1.0
 40
1.0
 40
1.0
 40
1.0
 10
132.5000637276
 20
139.0889970253
 30
0.0
 10
132.6141381443
 20
139.0096513246
 30
0.0
 10
133.0786493376
 20
138.7166180004
 30
0.0
 10
133.5850595989
 20
138.4949818136
 30
0.0
 10
133.9705926287
 20
138.3565004625
 30
0.0
  0
SPLINE
  5
46B
100
AcDbEntity
  8
0
100
AcDbSpline
 62
7
  6
CONTINUOUS
 70
0
 71
3
 72
14
 73
10
 74
0
 42
0.0000001
 43
0.0000001
 44
0.0000000001
 40
0.0
 40
0.0
 40
0.0
 40
0.0
 40
0.0525039518
 40
0.1319218593
 40
0.2358175071
 40
0.361003522
 40
0.5040427266
 40
0.6611491261
 40
1.0
 40
1.0
 40
1.0
 40
1.0
 10
138.677232579
 20
83.8290624717
 30
0.0
 10
138.6749432516
 20
83.9080626899
 30
0.0
 10
138.6483391138
 20
84.1054403657
 30
0.0
 10
138.5883812711
 20
84.4550382544
 30
0.0
 10
138.5040770332
 20
84.9118203202
 30
0.0
 10
138.4093750291
 20
85.463887876
 30
0.0
 10
138.3159659747
 20
86.0974076779
 30
0.0
 10
138.2085403251
 20
87.0533796466
 30
0.0
 10
138.1724572743
 20
87.8004510175
 30
0.0
 10
138.1722736327
 20
88.3105179358
 30
0.0
  0
SPLINE
  5
46C
100
AcDbEntity
  8
0
100
AcDbSpline
 62
7
  6
CONTINUOUS
 70
0
 71
3
 72
18
 73
14
 74
0
 42
0.0000001
 43
0.0000001
 44
0.0000000001
 40
0.0
 40
0.0
 40
0.0
 40
0.0
 40
0.1200510105
 40
0.2403482136
 40
0.3618362494
 40
0.4852443141
 40
0.6111459845
 40
0.675262834
 40
0.7402319928
 40
0.8059520424
 40
0.8717826398
 40
0.9366287767
 40
1.0
 40
1.0
 40
1.0
 40
1.0
 10
135.3117822666
 20
150.7054664577
 30
0.0
 10
135.028234671
 20
150.2647659909
 30
0.0
 10
134.465802123
 20
149.3790516186
 30
0.0
 10
133.6434343001
 20
148.0304584981
 30
0.0
 10
132.8509531675
 20
146.6468127328
 30
0.0
 10
132.1120578545
 20
145.2061190993
 30
0.0
 10
131.5832428418
 20
143.9406775986
 30
0.0
 10
131.2719945032
 20
142.8704502965
 30
0.0
 10
131.1277596155
 20
142.0297980195
 30
0.0
 10
131.1299210655
 20
141.1654961621
 30
0.0
 10
131.3591524666
 20
140.3250095677
 30
0.0
 10
131.8408149162
 20
139.611252199
 30
0.0
 10
132.2729722189
 20
139.246952993
 30
0.0
 10
132.5000637276
 20
139.0889970253
 30
0.0
  0
SPLINE
  5
46D
100
AcDbEntity
  8
0
100
AcDbSpline
 62
7
  6
CONTINUOUS
 70
0
 71
3
 72
16
 73
12
 74
0
 42
0.0000001
 43
0.0000001
 44
0.0000000001
 40
0.0
 40
0.0
 40
0.0
 40
0.0
 40
0.0264659841
 40
0.0488465316
 40
0.0784718025
 40
0.1155881982
 40
0.1602192363
 40
0.2718469275
 40
0.4127909114
 40
0.5820989167
 40
1.0
 40
1.0
 40
1.0
 40
1.0
 10
128.4941026303
 20
220.227202033
 30
0.0
 10
128.472087482
 20
220.2492285914
 30
0.0
 10
128.4021477993
 20
220.2448062732
 30
0.0
 10
128.3187581635
 20
220.214795692
 30
0.0
 10
128.2223203181
 20
220.1700134176
 30
0.0
 10
128.1081771623
 20
220.1064918803
 30
0.0
 10
127.9141621201
 20
219.9870787496
 30
0.0
 10
127.6266054953
 20
219.7879340348
 30
0.0
 10
127.2301803899
 20
219.4889302721
 30
0.0
 10
126.5616362876
 20
218.9529263623
 30
0.0
 10
126.0370747291
 20
218.5029609006
 30
0.0
 10
125.6652751329
 20
218.1811344703
 30
0.0
  0
SPLINE
  5
46E
100
AcDbEntity
  8
0
100
AcDbSpline
 62
7
  6
CONTINUOUS
 70
0
 71
3
 72
12
 73
8
 74
0
 42
0.0000001
 43
0.0000001
 44
0.0000000001
 40
0.0
 40
0.0
 40
0.0
 40
0.0
 40
0.2531486798
 40
0.5075040907
 40
0.7588981998
 40
0.881497804
 40
1.0
 40
1.0
 40
1.0
 40
1.0
 10
140.8083548869
 20
135.4583410723
 30
0.0
 10
140.417710646
 20
133.9845261579
 30
0.0
 10
139.6539233322
 20
131.0245274355
 30
0.0
 10
138.6391332607
 20
126.5669847538
 30
0.0
 10
137.9771086688
 20
122.8378140753
 30
0.0
 10
137.627822292
 20
119.8915039078
 30
0.0
 10
137.5300372874
 20
118.441333812
 30
0.0
 10
137.5121277799
 20
117.7278230393
 30
0.0
  0
SPLINE
  5
46F
100
AcDbEntity
  8
0
100
AcDbSpline
 62
7
  6
CONTINUOUS
 70
0
 71
3
 72
14
 73
10
 74
0
 42
0.0000001
 43
0.0000001
 44
0.0000000001
 40
0.0
 40
0.0
 40
0.0
 40
0.0
 40
0.0620931649
 40
0.1350445132
 40
0.2255729034
 40
0.3368402097
 40
0.4700877766
 40
0.6254828646
 40
1.0
 40
1.0
 40
1.0
 40
1.0
 10
133.9550853179
 20
214.743949158
 30
0.0
 10
134.0067292653
 20
214.6919044496
 30
0.0
 10
134.0911044113
 20
214.5496034277
 30
0.0
 10
134.1298924976
 20
214.2819667269
 30
0.0
 10
134.0976186164
 20
213.9572406246
 30
0.0
 10
133.9967034269
 20
213.5735861045
 30
0.0
 10
133.8278651504
 20
213.1319043275
 30
0.0
 10
133.4916154694
 20
212.4241206321
 30
0.0
 10
133.1715688619
 20
211.8848426678
 30
0.0
 10
132.933777108
 20
211.5119865012
 30
0.0
  0
SPLINE
  5
470
100
AcDbEntity
  8
0
100
AcDbSpline
 62
7
  6
CONTINUOUS
 70
0
 71
3
 72
9
 73
5
 74
0
 42
0.0000001
 43
0.0000001
 44
0.0000000001
 40
0.0
 40
0.0
 40
0.0
 40
0.0
 40
0.4438760262
 40
1.0
 40
1.0
 40
1.0
 40
1.0
 10
140.8083548876
 20
135.4583410722
 30
0.0
 10
140.700258186
 20
135.470406607
 30
0.0
 10
140.4556237828
 20
135.4870171319
 30
0.0
 10
140.2108130713
 20
135.4969645299
 30
0.0
 10
140.0746357256
 20
135.5020794408
 30
0.0
  0
SPLINE
  5
471
100
AcDbEntity
  8
0
100
AcDbSpline
 62
7
  6
CONTINUOUS
 70
0
 71
3
 72
9
 73
5
 74
0
 42
0.0000001
 43
0.0000001
 44
0.0000000001
 40
0.0
 40
0.0
 40
0.0
 40
0.0
 40
0.4577668125
 40
1.0
 40
1.0
 40
1.0
 40
1.0
 10
137.5121276306
 20
117.7278158698
 30
0.0
 10
137.2054155723
 20
117.511540252
 30
0.0
 10
136.4721618812
 20
117.1299379822
 30
0.0
 10
135.6928868679
 20
116.8683932601
 30
0.0
 10
135.263780594
 20
116.7522530864
 30
0.0
  0
SPLINE
  5
472
100
AcDbEntity
  8
0
100
AcDbSpline
 62
7
  6
CONTINUOUS
 70
0
 71
3
 72
9
 73
5
 74
0
 42
0.0000001
 43
0.0000001
 44
0.0000000001
 40
0.0
 40
0.0
 40
0.0
 40
0.0
 40
0.4590405571
 40
1.0
 40
1.0
 40
1.0
 40
1.0
 10
137.4545127373
 20
116.1377487616
 30
0.0
 10
137.1899596524
 20
115.9668321328
 30
0.0
 10
136.570231765
 20
115.6622430309
 30
0.0
 10
135.9167130744
 20
115.4483543216
 30
0.0
 10
135.5583660564
 20
115.3516403702
 30
0.0
  0
SPLINE
  5
473
100
AcDbEntity
  8
0
100
AcDbSpline
 62
7
  6
CONTINUOUS
 70
0
 71
3
 72
9
 73
5
 74
0
 42
0.0000001
 43
0.0000001
 44
0.0000000001
 40
0.0
 40
0.0
 40
0.0
 40
0.0
 40
0.2426255
 40
1.0
 40
1.0
 40
1.0
 40
1.0
 10
138.8541255017
 20
113.5557833563
 30
0.0
 10
138.8194830506
 20
113.3838004858
 30
0.0
 10
138.6494252259
 20
112.6806148549
 30
0.0
 10
138.3765276942
 20
112.0032418767
 30
0.0
 10
138.1233096291
 20
111.5176585231
 30
0.0
  0
SPLINE
  5
474
100
AcDbEntity
  8
0
100
AcDbSpline
 62
7
  6
CONTINUOUS
 70
0
 71
3
 72
9
 73
5
 74
0
 42
0.0000001
 43
0.0000001
 44
0.0000000001
 40
0.0
 40
0.0
 40
0.0
 40
0.0
 40
0.2292154001
 40
1.0
 40
1.0
 40
1.0
 40
1.0
 10
139.7400290844
 20
112.843448245
 30
0.0
 10
139.6894183669
 20
112.6208067757
 30
0.0
 10
139.3927146444
 20
111.6666335812
 30
0.0
 10
138.8319727553
 20
110.8095648695
 30
0.0
 10
138.3313362917
 20
110.2274593933
 30
0.0
  0
SPLINE
  5
475
100
AcDbEntity
  8
0
100
AcDbSpline
 62
7
  6
CONTINUOUS
 70
0
 71
3
 72
9
 73
5
 74
0
 42
0.0000001
 43
0.0000001
 44
0.0000000001
 40
0.0
 40
0.0
 40
0.0
 40
0.0
 40
0.5536268252
 40
1.0
 40
1.0
 40
1.0
 40
1.0
 10
107.7226422635
 20
213.7218941725
 30
0.0
 10
107.7221525964
 20
215.0819501633
 30
0.0
 10
107.7091101705
 20
217.5385592447
 30
0.0
 10
107.6704513203
 20
219.995035431
 30
0.0
 10
107.6388689416
 20
221.0911541153
 30
0.0
  0
SPLINE
  5
476
100
AcDbEntity
  8
0
100
AcDbSpline
 62
7
  6
CONTINUOUS
 70
0
 71
3
 72
9
 73
5
 74
0
 42
0.0000001
 43
0.0000001
 44
0.0000000001
 40
0.0
 40
0.0
 40
0.0
 40
0.0
 40
0.6202549988
 40
1.0
 40
1.0
 40
1.0
 40
1.0
 10
107.5999501055
 20
222.1773915885
 30
0.0
 10
107.5912132612
 20
222.3691965963
 30
0.0
 10
107.5743443524
 20
222.6781600787
 30
0.0
 10
107.5509209389
 20
222.9872132815
 30
0.0
 10
107.5339820507
 20
223.1035389496
 30
0.0
  0
SPLINE
  5
477
100
AcDbEntity
  8
0
100
AcDbSpline
 62
7
  6
CONTINUOUS
 70
0
 71
3
 72
9
 73
5
 74
0
 42
0.0000001
 43
0.0000001
 44
0.0000000001
 40
0.0
 40
0.0
 40
0.0
 40
0.0
 40
0.2439779384
 40
1.0
 40
1.0
 40
1.0
 40
1.0
 10
107.6831097422
 20
114.590234925
 30
0.0
 10
107.6951221677
 20
116.1743624012
 30
0.0
 10
107.7372423913
 20
122.6673277402
 30
0.0
 10
107.7530801071
 20
129.1604590699
 30
0.0
 10
107.7513196319
 20
134.0693851966
 30
0.0
  0
SPLINE
  5
478
100
AcDbEntity
  8
0
100
AcDbSpline
 62
7
  6
CONTINUOUS
 70
0
 71
3
 72
9
 73
5
 74
0
 42
0.0000001
 43
0.0000001
 44
0.0000000001
 40
0.0
 40
0.0
 40
0.0
 40
0.0
 40
0.2543125673
 40
1.0
 40
1.0
 40
1.0
 40
1.0
 10
107.6149003937
 20
95.1110766698
 30
0.0
 10
107.6143082007
 20
96.7623532911
 30
0.0
 10
107.6182747277
 20
103.255451766
 30
0.0
 10
107.6463958393
 20
109.7485436681
 30
0.0
 10
107.6831102835
 20
114.5902269414
 30
0.0
  0
SPLINE
  5
479
100
AcDbEntity
  8
0
100
AcDbSpline
 62
7
  6
CONTINUOUS
 70
0
 71
3
 72
9
 73
5
 74
0
 42
0.0000001
 43
0.0000001
 44
0.0000000001
 40
0.0
 40
0.0
 40
0.0
 40
0.0
 40
0.409989822
 40
1.0
 40
1.0
 40
1.0
 40
1.0
 10
107.5261388904
 20
20.2110815276
 30
0.0
 10
107.5268865133
 20
20.2110815276
 30
0.0
 10
107.5286650682
 20
20.2119542479
 30
0.0
 10
107.52973549
 20
20.2134574544
 30
0.0
 10
107.5303128574
 20
20.2143653047
 30
0.0
  0
SPLINE
  5
47A
100
AcDbEntity
  8
0
100
AcDbSpline
 62
7
  6
CONTINUOUS
 70
0
 71
3
 72
17
 73
13
 74
0
 42
0.0000001
 43
0.0000001
 44
0.0000000001
 40
0.0
 40
0.0
 40
0.0
 40
0.0
 40
0.0092902149
 40
0.0261297403
 40
0.0506100712
 40
0.0827137389
 40
0.1694187559
 40
0.2850177853
 40
0.4280312261
 40
0.5964412616
 40
0.7879878493
 40
1.0
 40
1.0
 40
1.0
 40
1.0
 10
107.5303128574
 20
20.2143653047
 30
0.0
 10
107.533965784
 20
20.2201091528
 30
0.0
 10
107.5385640268
 20
20.2391980096
 30
0.0
 10
107.5451106961
 20
20.2753907053
 30
0.0
 10
107.5513147219
 20
20.3290044281
 30
0.0
 10
107.5608999938
 20
20.4334724362
 30
0.0
 10
107.5715984451
 20
20.6049804835
 30
0.0
 10
107.5833675608
 20
20.8576956037
 30
0.0
 10
107.5943819694
 20
21.1704028275
 30
0.0
 10
107.6045861572
 20
21.5387904999
 30
0.0
 10
107.613731591
 20
21.9577811595
 30
0.0
 10
107.618810729
 20
22.2534295575
 30
0.0
 10
107.6211886554
 20
22.4087547144
 30
0.0
  0
SPLINE
  5
47B
100
AcDbEntity
  8
0
100
AcDbSpline
 62
7
  6
CONTINUOUS
 70
0
 71
3
 72
9
 73
5
 74
0
 42
0.0000001
 43
0.0000001
 44
0.0000000001
 40
0.0
 40
0.0
 40
0.0
 40
0.0
 40
0.2299721454
 40
1.0
 40
1.0
 40
1.0
 40
1.0
 10
107.6211886554
 20
22.4087547144
 30
0.0
 10
107.6244771017
 20
22.6235546533
 30
0.0
 10
107.6363214979
 20
23.5576174829
 30
0.0
 10
107.6403254971
 20
24.4917710141
 30
0.0
 10
107.6400665206
 20
25.2110812033
 30
0.0
  0
SPLINE
  5
47C
100
AcDbEntity
  8
0
100
AcDbSpline
 62
7
  6
CONTINUOUS
 70
0
 71
3
 72
11
 73
7
 74
0
 42
0.0000001
 43
0.0000001
 44
0.0000000001
 40
0.0
 40
0.0
 40
0.0
 40
0.0
 40
0.2707682014
 40
0.5300168677
 40
0.7752247343
 40
1.0
 40
1.0
 40
1.0
 40
1.0
 10
133.9705926287
 20
138.3565004625
 30
0.0
 10
134.357995605
 20
138.2161146218
 30
0.0
 10
135.1466485183
 20
138.0231246913
 30
0.0
 10
136.3234511507
 20
137.9103218724
 30
0.0
 10
137.4351865399
 20
137.930176328
 30
0.0
 10
138.1459875704
 20
138.0434180362
 30
0.0
 10
138.475680656
 20
138.1345744234
 30
0.0
  0
SPLINE
  5
47D
100
AcDbEntity
  8
0
100
AcDbSpline
 62
7
  6
CONTINUOUS
 70
0
 71
3
 72
11
 73
7
 74
0
 42
0.0000001
 43
0.0000001
 44
0.0000000001
 40
0.0
 40
0.0
 40
0.0
 40
0.0
 40
0.1732004618
 40
0.4083774464
 40
0.6911433665
 40
1.0
 40
1.0
 40
1.0
 40
1.0
 10
135.3117822667
 20
150.705466458
 30
0.0
 10
135.0778448534
 20
150.8900305547
 30
0.0
 10
134.4952615292
 20
151.285101889
 30
0.0
 10
133.4723989091
 20
151.8916509643
 30
0.0
 10
132.2188105526
 20
152.5647719737
 30
0.0
 10
131.3072691037
 20
153.0179209859
 30
0.0
 10
130.8284152208
 20
153.2482376208
 30
0.0
  0
LINE
  5
47E
100
AcDbEntity
  8
0
100
AcDbLine
 62
7
  6
CONTINUOUS
 10
132.9879718707
 20
202.5463938303
 11
132.5430531757
 21
202.538352599
  0
SPLINE
  5
47F
100
AcDbEntity
  8
0
100
AcDbSpline
 62
7
  6
CONTINUOUS
 70
0
 71
3
 72
21
 73
17
 74
0
 42
0.0000001
 43
0.0000001
 44
0.0000000001
 40
0.0
 40
0.0
 40
0.0
 40
0.0
 40
0.0015138749
 40
0.0048670693
 40
0.0101829867
 40
0.0174837973
 40
0.0380593325
 40
0.0666018536
 40
0.1030869791
 40
0.147470159
 40
0.1997075014
 40
0.2597595136
 40
0.4027533156
 40
0.5748013281
 40
0.7743248065
 40
1.0
 40
1.0
 40
1.0
 40
1.0
 10
141.283914187
 20
108.1208000636
 30
0.0
 10
141.2842895432
 20
108.1225976053
 30
0.0
 10
141.2793497531
 20
108.1277535393
 30
0.0
 10
141.2705873079
 20
108.1350459238
 30
0.0
 10
141.2541943231
 20
108.1463129431
 30
0.0
 10
141.2204792258
 20
108.167771504
 30
0.0
 10
141.1613329731
 20
108.2026594555
 30
0.0
 10
141.0712150759
 20
108.2540229621
 30
0.0
 10
140.9555278657
 20
108.3191436048
 30
0.0
 10
140.8151354831
 20
108.3988511301
 30
0.0
 10
140.6506016938
 20
108.4939709934
 30
0.0
 10
140.3841248928
 20
108.6516968725
 30
0.0
 10
139.997712167
 20
108.892098556
 30
0.0
 10
139.4828402003
 20
109.2453907602
 30
0.0
 10
138.9090693
 20
109.6884722931
 30
0.0
 10
138.5260614499
 20
110.0350542175
 30
0.0
 10
138.3313380383
 20
110.2274528518
 30
0.0
  0
SPLINE
  5
480
100
AcDbEntity
  8
0
100
AcDbSpline
 62
7
  6
CONTINUOUS
 70
0
 71
3
 72
28
 73
24
 74
0
 42
0.0000001
 43
0.0000001
 44
0.0000000001
 40
0.0
 40
0.0
 40
0.0
 40
0.0
 40
0.2053604015
 40
0.3965510079
 40
0.4852682303
 40
0.5686202059
 40
0.6460403874
 40
0.7169859775
 40
0.7809549364
 40
0.8374668517
 40
0.8861044269
 40
0.9264766851
 40
0.9434667381
 40
0.9582826997
 40
0.9708922354
 40
0.9812634087
 40
0.98937181
 40
0.9925730335
 40
0.9952034183
 40
0.9972614401
 40
0.9987458369
 40
0.9996563002
 40
1.0
 40
1.0
 40
1.0
 40
1.0
 10
132.7700379127
 20
202.3100526685
 30
0.0
 10
133.5578120105
 20
202.1084880338
 30
0.0
 10
135.0815379871
 20
201.7292487233
 30
0.0
 10
136.9441414137
 20
201.2572195417
 30
0.0
 10
138.3381364501
 20
200.9026725332
 30
0.0
 10
139.2955698116
 20
200.6592767716
 30
0.0
 10
140.1846583272
 20
200.432648668
 30
0.0
 10
140.9991451086
 20
200.22407668
 30
0.0
 10
141.7331678642
 20
200.0350185617
 30
0.0
 10
142.3813417309
 20
199.8667966904
 30
0.0
 10
142.9387825153
 20
199.720914446
 30
0.0
 10
143.3446133713
 20
199.6138305328
 30
0.0
 10
143.620723118
 20
199.5400365154
 30
0.0
 10
143.7904835879
 20
199.4940941624
 30
0.0
 10
143.9347799234
 20
199.4543535945
 30
0.0
 10
144.053206409
 20
199.4208167582
 30
0.0
 10
144.1356140505
 20
199.3965908249
 30
0.0
 10
144.1883036384
 20
199.3803669169
 30
0.0
 10
144.2182410184
 20
199.3709556732
 30
0.0
 10
144.241015227
 20
199.3631326753
 30
0.0
 10
144.2586030476
 20
199.3575048108
 30
0.0
 10
144.2669221583
 20
199.3530030776
 30
0.0
 10
144.273324955
 20
199.3513009254
 30
0.0
 10
144.2733698317
 20
199.34994074
 30
0.0
  0
SPLINE
  5
481
100
AcDbEntity
  8
0
100
AcDbSpline
 62
7
  6
CONTINUOUS
 70
0
 71
3
 72
19
 73
15
 74
0
 42
0.0000001
 43
0.0000001
 44
0.0000000001
 40
0.0
 40
0.0
 40
0.0
 40
0.0
 40
0.1387466949
 40
0.2849032402
 40
0.4352938399
 40
0.5818946731
 40
0.6490772247
 40
0.7091974535
 40
0.7619425404
 40
0.809369721
 40
0.8547016052
 40
0.9006930867
 40
0.9489186991
 40
1.0
 40
1.0
 40
1.0
 40
1.0
 10
137.9948100362
 20
209.7301079539
 30
0.0
 10
138.3354073862
 20
209.446246275
 30
0.0
 10
139.0015254567
 20
208.822814501
 30
0.0
 10
139.9175950445
 20
207.7723740308
 30
0.0
 10
140.7145847575
 20
206.5975830362
 30
0.0
 10
141.1954765972
 20
205.5239934949
 30
0.0
 10
141.3662574938
 20
204.6612449446
 30
0.0
 10
141.364458446
 20
204.080932053
 30
0.0
 10
141.2304104298
 20
203.579173068
 30
0.0
 10
140.9741700721
 20
203.181579864
 30
0.0
 10
140.6247100541
 20
202.8982606637
 30
0.0
 10
140.2128164137
 20
202.7171028536
 30
0.0
 10
139.7567189643
 20
202.6188900727
 30
0.0
 10
139.4390169524
 20
202.5989078846
 30
0.0
 10
139.2757889059
 20
202.5973967091
 30
0.0
  0
SPLINE
  5
482
100
AcDbEntity
  8
0
100
AcDbSpline
 62
7
  6
CONTINUOUS
 70
0
 71
3
 72
20
 73
16
 74
0
 42
0.0000001
 43
0.0000001
 44
0.0000000001
 40
0.0
 40
0.0
 40
0.0
 40
0.0
 40
0.001787316
 40
0.0052079673
 40
0.0178948603
 40
0.038625071
 40
0.0674327557
 40
0.1042762119
 40
0.1490468104
 40
0.2016241998
 40
0.2618854839
 40
0.4048725509
 40
0.5766600477
 40
0.775702913
 40
1.0
 40
1.0
 40
1.0
 40
1.0
 10
143.0557488523
 20
142.5497310746
 30
0.0
 10
143.0582704282
 20
142.5468936599
 30
0.0
 10
143.0571079309
 20
142.5339337184
 30
0.0
 10
143.0397012187
 20
142.5015192587
 30
0.0
 10
142.9922073063
 20
142.437464585
 30
0.0
 10
142.9062013304
 20
142.3380975883
 30
0.0
 10
142.7815527689
 20
142.2030016548
 30
0.0
 10
142.6188640376
 20
142.0342559128
 30
0.0
 10
142.4182269691
 20
141.8317726511
 30
0.0
 10
142.1802066075
 20
141.596429371
 30
0.0
 10
141.790878364
 20
141.2174269229
 30
0.0
 10
141.2147910471
 20
140.6673581636
 30
0.0
 10
140.4190690546
 20
139.9205657425
 30
0.0
 10
139.4914308453
 20
139.0620347601
 30
0.0
 10
138.8279917409
 20
138.4552051385
 30
0.0
 10
138.475680656
 20
138.1345744234
 30
0.0
  0
SPLINE
  5
483
100
AcDbEntity
  8
0
100
AcDbSpline
 62
7
  6
CONTINUOUS
 70
0
 71
3
 72
18
 73
14
 74
0
 42
0.0000001
 43
0.0000001
 44
0.0000000001
 40
0.0
 40
0.0
 40
0.0
 40
0.0
 40
0.0095805542
 40
0.0264241562
 40
0.050628649
 40
0.0821720192
 40
0.1210032649
 40
0.1670609814
 40
0.2805857341
 40
0.4219428882
 40
0.5898529559
 40
0.7829832407
 40
1.0
 40
1.0
 40
1.0
 40
1.0
 10
144.0340383204
 20
139.2627044106
 30
0.0
 10
144.0314517426
 20
139.2469694344
 30
0.0
 10
144.0107352318
 20
139.206979304
 30
0.0
 10
143.9669445567
 20
139.1356908253
 30
0.0
 10
143.8969185012
 20
139.036791381
 30
0.0
 10
143.802571903
 20
138.910925251
 30
0.0
 10
143.6830542158
 20
138.7583011657
 30
0.0
 10
143.4758388105
 20
138.501174454
 30
0.0
 10
143.1550761046
 20
138.1164045258
 30
0.0
 10
142.6975094777
 20
137.5817613141
 30
0.0
 10
142.1473424477
 20
136.9520146646
 30
0.0
 10
141.5082953308
 20
136.232752219
 30
0.0
 10
141.0511132426
 20
135.7257809822
 30
0.0
 10
140.8083483932
 20
135.4583165778
 30
0.0
  0
SPLINE
  5
484
100
AcDbEntity
  8
0
100
AcDbSpline
 62
7
  6
CONTINUOUS
 70
0
 71
3
 72
9
 73
5
 74
0
 42
0.0000001
 43
0.0000001
 44
0.0000000001
 40
0.0
 40
0.0
 40
0.0
 40
0.0
 40
0.2526491769
 40
1.0
 40
1.0
 40
1.0
 40
1.0
 10
135.5583678549
 20
115.3516413198
 30
0.0
 10
135.5420641004
 20
115.4711226483
 30
0.0
 10
135.467462287
 20
115.9426855318
 30
0.0
 10
135.3571314787
 20
116.4079779326
 30
0.0
 10
135.2637834511
 20
116.7522549626
 30
0.0
  0
SPLINE
  5
485
100
AcDbEntity
  8
0
100
AcDbSpline
 62
7
  6
CONTINUOUS
 70
0
 71
3
 72
13
 73
9
 74
0
 42
0.0000001
 43
0.0000001
 44
0.0000000001
 40
0.0
 40
0.0
 40
0.0
 40
0.0
 40
0.2155063006
 40
0.4527940611
 40
0.5813847164
 40
0.7162663042
 40
0.8562960706
 40
1.0
 40
1.0
 40
1.0
 40
1.0
 10
138.1233190969
 20
111.5175291701
 30
0.0
 10
137.8048673101
 20
111.6482277123
 30
0.0
 10
137.1954169498
 20
112.0657517627
 30
0.0
 10
136.5815756595
 20
112.7722495258
 30
0.0
 10
136.1658798658
 20
113.4570201159
 30
0.0
 10
135.8880728441
 20
114.0409150977
 30
0.0
 10
135.6940417771
 20
114.6819634164
 30
0.0
 10
135.5893680687
 20
115.1241920503
 30
0.0
 10
135.5583335766
 20
115.3516232396
 30
0.0
  0
SPLINE
  5
486
100
AcDbEntity
  8
0
100
AcDbSpline
 62
7
  6
CONTINUOUS
 70
0
 71
3
 72
12
 73
8
 74
0
 42
0.0000001
 43
0.0000001
 44
0.0000000001
 40
0.0
 40
0.0
 40
0.0
 40
0.0
 40
0.2407298437
 40
0.4906895957
 40
0.6188461037
 40
0.7473463066
 40
1.0
 40
1.0
 40
1.0
 40
1.0
 10
132.7938846531
 20
136.1295062578
 30
0.0
 10
132.2925257086
 20
136.4636689632
 30
0.0
 10
131.3054974134
 20
137.2011145723
 30
0.0
 10
130.2512854673
 20
138.3584821204
 30
0.0
 10
129.6083114336
 20
139.455982034
 30
0.0
 10
129.1118738139
 20
140.6337001435
 30
0.0
 10
128.9171315395
 20
141.5779095447
 30
0.0
 10
128.8421040128
 20
142.2058027267
 30
0.0
  0
SPLINE
  5
487
100
AcDbEntity
  8
0
100
AcDbSpline
 62
7
  6
CONTINUOUS
 70
0
 71
3
 72
27
 73
23
 74
0
 42
0.0000001
 43
0.0000001
 44
0.0000000001
 40
0.0
 40
0.0
 40
0.0
 40
0.0
 40
0.1118161074
 40
0.1657838277
 40
0.2184274698
 40
0.3196163056
 40
0.4151228017
 40
0.5045428985
 40
0.5874851213
 40
0.6635997502
 40
0.7325675252
 40
0.79411198
 40
0.8479808853
 40
0.8939360287
 40
0.9317699551
 40
0.9613591008
 40
0.9730327107
 40
0.9826118386
 40
0.9900887045
 40
0.9954620368
 40
0.9987409839
 40
1.0
 40
1.0
 40
1.0
 40
1.0
 10
131.8268375797
 20
95.3248426297
 30
0.0
 10
132.0827127859
 20
95.3331177525
 30
0.0
 10
132.4619685792
 20
95.3485747324
 30
0.0
 10
132.9617913135
 20
95.3657759193
 30
0.0
 10
133.4375463338
 20
95.3722038382
 30
0.0
 10
134.0084226085
 20
95.3705762588
 30
0.0
 10
134.6635117227
 20
95.3737451291
 30
0.0
 10
135.2766955776
 20
95.3861919769
 30
0.0
 10
135.8455525944
 20
95.3935305116
 30
0.0
 10
136.3676120422
 20
95.3976406834
 30
0.0
 10
136.8406657024
 20
95.4029049464
 30
0.0
 10
137.2627921441
 20
95.4076055851
 30
0.0
 10
137.6322451412
 20
95.4097784597
 30
0.0
 10
137.9474382954
 20
95.4093709368
 30
0.0
 10
138.2069750811
 20
95.4079606178
 30
0.0
 10
138.3881589684
 20
95.404765581
 30
0.0
 10
138.5043327748
 20
95.4005811306
 30
0.0
 10
138.5703712414
 20
95.3974037098
 30
0.0
 10
138.6207369184
 20
95.393818565
 30
0.0
 10
138.6594993847
 20
95.3905355352
 30
0.0
 10
138.6783156666
 20
95.3864064282
 30
0.0
 10
138.6923556087
 20
95.3838898691
 30
0.0
 10
138.6925277008
 20
95.3810124258
 30
0.0
  0
SPLINE
  5
488
100
AcDbEntity
  8
0
100
AcDbSpline
 62
7
  6
CONTINUOUS
 70
0
 71
3
 72
8
 73
4
 74
0
 42
0.0000001
 43
0.0000001
 44
0.0000000001
 40
0.0
 40
0.0
 40
0.0
 40
0.0
 40
1.0
 40
1.0
 40
1.0
 40
1.0
 10
131.793387722
 20
95.3216492812
 30
0.0
 10
131.8045767318
 20
95.3221473197
 30
0.0
 10
131.8157499236
 20
95.3232479538
 30
0.0
 10
131.826835879
 20
95.3248428136
 30
0.0
  0
SPLINE
  5
489
100
AcDbEntity
  8
0
100
AcDbSpline
 62
7
  6
CONTINUOUS
 70
0
 71
3
 72
9
 73
5
 74
0
 42
0.0000001
 43
0.0000001
 44
0.0000000001
 40
0.0
 40
0.0
 40
0.0
 40
0.0
 40
0.2402360754
 40
1.0
 40
1.0
 40
1.0
 40
1.0
 10
132.2979305884
 20
116.2700352485
 30
0.0
 10
132.2454359976
 20
114.5928433644
 30
0.0
 10
132.0413005113
 20
107.6109629385
 30
0.0
 10
131.8880242907
 20
100.627642562
 30
0.0
 10
131.7933894121
 20
95.3216485895
 30
0.0
  0
SPLINE
  5
48A
100
AcDbEntity
  8
0
100
AcDbSpline
 62
7
  6
CONTINUOUS
 70
0
 71
3
 72
9
 73
5
 74
0
 42
0.0000001
 43
0.0000001
 44
0.0000000001
 40
0.0
 40
0.0
 40
0.0
 40
0.0
 40
0.234320171
 40
1.0
 40
1.0
 40
1.0
 40
1.0
 10
137.4459039084
 20
133.8687818453
 30
0.0
 10
137.0823083681
 20
133.8759961799
 30
0.0
 10
135.5305247863
 20
133.9027377759
 30
0.0
 10
133.9785338524
 20
133.9164529492
 30
0.0
 10
132.7902034612
 20
133.9217693175
 30
0.0
  0
SPLINE
  5
48B
100
AcDbEntity
  8
0
100
AcDbSpline
 62
7
  6
CONTINUOUS
 70
0
 71
3
 72
14
 73
10
 74
0
 42
0.0000001
 43
0.0000001
 44
0.0000000001
 40
0.0
 40
0.0
 40
0.0
 40
0.0
 40
0.1166266393
 40
0.2379646183
 40
0.3624584112
 40
0.4889191682
 40
0.6164576957
 40
0.7444919406
 40
1.0
 40
1.0
 40
1.0
 40
1.0
 10
135.264082186
 20
116.7524353525
 30
0.0
 10
135.1015207423
 20
117.4090666716
 30
0.0
 10
134.8842262973
 20
118.7806080991
 30
0.0
 10
134.9056087213
 20
120.8884515954
 30
0.0
 10
135.1162011853
 20
123.0388200232
 30
0.0
 10
135.4585556907
 20
125.2082265268
 30
0.0
 10
135.8874980862
 20
127.3825023267
 30
0.0
 10
136.5393499702
 20
130.2745418906
 30
0.0
 10
137.0808548317
 20
132.4324472315
 30
0.0
 10
137.4461757823
 20
133.8687054385
 30
0.0
  0
SPLINE
  5
48C
100
AcDbEntity
  8
0
100
AcDbSpline
 62
7
  6
CONTINUOUS
 70
0
 71
3
 72
9
 73
5
 74
0
 42
0.0000001
 43
0.0000001
 44
0.0000000001
 40
0.0
 40
0.0
 40
0.0
 40
0.0
 40
0.281369441
 40
1.0
 40
1.0
 40
1.0
 40
1.0
 10
132.297800282
 20
116.2698526838
 30
0.0
 10
132.5783930707
 20
116.2974180776
 30
0.0
 10
133.5738282484
 20
116.4125475033
 30
0.0
 10
134.5626398042
 20
116.5876581249
 30
0.0
 10
135.2637540695
 20
116.7519087433
 30
0.0
  0
SPLINE
  5
48D
100
AcDbEntity
  8
0
100
AcDbSpline
 62
7
  6
CONTINUOUS
 70
0
 71
3
 72
9
 73
5
 74
0
 42
0.0000001
 43
0.0000001
 44
0.0000000001
 40
0.0
 40
0.0
 40
0.0
 40
0.0
 40
0.2583196469
 40
1.0
 40
1.0
 40
1.0
 40
1.0
 10
132.7902034612
 20
133.9217693175
 30
0.0
 10
132.7520464987
 20
132.4017251548
 30
0.0
 10
132.6007304736
 20
126.517464363
 30
0.0
 10
132.4343494013
 20
120.633576555
 30
0.0
 10
132.2978053917
 20
116.270028047
 30
0.0
  0
SPLINE
  5
48E
100
AcDbEntity
  8
0
100
AcDbSpline
 62
7
  6
CONTINUOUS
 70
0
 71
3
 72
8
 73
4
 74
0
 42
0.0000001
 43
0.0000001
 44
0.0000000001
 40
0.0
 40
0.0
 40
0.0
 40
0.0
 40
1.0
 40
1.0
 40
1.0
 40
1.0
 10
132.7935370045
 20
134.2302241023
 30
0.0
 10
132.7928780546
 20
134.1274067284
 30
0.0
 10
132.7925113492
 20
134.0245820178
 30
0.0
 10
132.790675983
 20
133.9217789147
 30
0.0
  0
SPLINE
  5
48F
100
AcDbEntity
  8
0
100
AcDbSpline
 62
7
  6
CONTINUOUS
 70
0
 71
3
 72
9
 73
5
 74
0
 42
0.0000001
 43
0.0000001
 44
0.0000000001
 40
0.0
 40
0.0
 40
0.0
 40
0.0
 40
0.2603463889
 40
1.0
 40
1.0
 40
1.0
 40
1.0
 10
132.9338033869
 20
211.511894376
 30
0.0
 10
133.0370660107
 20
211.5140937272
 30
0.0
 10
133.4337003796
 20
211.5225950586
 30
0.0
 10
133.8303308796
 20
211.5312779865
 30
0.0
 10
134.1236967351
 20
211.5378484195
 30
0.0
  0
SPLINE
  5
490
100
AcDbEntity
  8
0
100
AcDbSpline
 62
7
  6
CONTINUOUS
 70
0
 71
3
 72
11
 73
7
 74
0
 42
0.0000001
 43
0.0000001
 44
0.0000000001
 40
0.0
 40
0.0
 40
0.0
 40
0.0
 40
0.2175909103
 40
0.4525162944
 40
0.7131549644
 40
1.0
 40
1.0
 40
1.0
 40
1.0
 10
134.1236875321
 20
211.5378691579
 30
0.0
 10
134.4396496872
 20
211.544945451
 30
0.0
 10
135.1013712047
 20
211.4604246251
 30
0.0
 10
136.0711408927
 20
211.0769118764
 30
0.0
 10
137.044510926
 20
210.4836643256
 30
0.0
 10
137.6744469372
 20
209.9964610119
 30
0.0
 10
137.9948111709
 20
209.7301016295
 30
0.0
  0
SPLINE
  5
491
100
AcDbEntity
  8
0
100
AcDbSpline
 62
7
  6
CONTINUOUS
 70
0
 71
3
 72
10
 73
6
 74
0
 42
0.0000001
 43
0.0000001
 44
0.0000000001
 40
0.0
 40
0.0
 40
0.0
 40
0.0
 40
0.2191775948
 40
0.5870334488
 40
1.0
 40
1.0
 40
1.0
 40
1.0
 10
140.0747072232
 20
135.502066009
 30
0.0
 10
140.0293477191
 20
135.5401373557
 30
0.0
 10
139.907037644
 20
135.6411374372
 30
0.0
 10
139.694569065
 20
135.8080692533
 30
0.0
 10
139.5294058745
 20
135.9393244955
 30
0.0
 10
139.4417329526
 20
136.0083408491
 30
0.0
  0
SPLINE
  5
492
100
AcDbEntity
  8
0
100
AcDbSpline
 62
7
  6
CONTINUOUS
 70
0
 71
3
 72
13
 73
9
 74
0
 42
0.0000001
 43
0.0000001
 44
0.0000000001
 40
0.0
 40
0.0
 40
0.0
 40
0.0
 40
0.1263005403
 40
0.2504781299
 40
0.3736300749
 40
0.4975160463
 40
0.7475143138
 40
1.0
 40
1.0
 40
1.0
 40
1.0
 10
137.4458294427
 20
133.8682375584
 30
0.0
 10
137.580698746
 20
133.8524548889
 30
0.0
 10
137.8534178899
 20
133.8630548732
 30
0.0
 10
138.2447961733
 20
133.9613456161
 30
0.0
 10
138.6110648123
 20
134.1248003718
 30
0.0
 10
139.0604481208
 20
134.4167252944
 30
0.0
 10
139.5615577391
 20
134.8721028305
 30
0.0
 10
139.9102290979
 20
135.2861149456
 30
0.0
 10
140.0747072232
 20
135.502066009
 30
0.0
  0
SPLINE
  5
493
100
AcDbEntity
  8
0
100
AcDbSpline
 62
7
  6
CONTINUOUS
 70
0
 71
3
 72
14
 73
10
 74
0
 42
0.0000001
 43
0.0000001
 44
0.0000000001
 40
0.0
 40
0.0
 40
0.0
 40
0.0
 40
0.1138415117
 40
0.2191746316
 40
0.3189339003
 40
0.4223003055
 40
0.542479536
 40
0.684184523
 40
1.0
 40
1.0
 40
1.0
 40
1.0
 10
138.9929164288
 20
202.9407104449
 30
0.0
 10
139.2044184835
 20
202.9407881777
 30
0.0
 10
139.6127503666
 20
202.9667368649
 30
0.0
 10
140.1904507535
 20
203.1217671388
 30
0.0
 10
140.6835696294
 20
203.4413523964
 30
0.0
 10
141.005328541
 20
203.9751515982
 30
0.0
 10
141.0635961195
 20
204.6695337554
 30
0.0
 10
140.8161651741
 20
205.7246169433
 30
0.0
 10
140.3644026823
 20
206.4660413668
 30
0.0
 10
140.0200592119
 20
206.94111406
 30
0.0
  0
SPLINE
  5
494
100
AcDbEntity
  8
0
100
AcDbSpline
 62
7
  6
CONTINUOUS
 70
0
 71
3
 72
11
 73
7
 74
0
 42
0.0000001
 43
0.0000001
 44
0.0000000001
 40
0.0
 40
0.0
 40
0.0
 40
0.0
 40
0.2579474637
 40
0.5119043409
 40
0.7596972073
 40
1.0
 40
1.0
 40
1.0
 40
1.0
 10
140.02005921
 20
206.94111406
 30
0.0
 10
139.8518238358
 20
207.1667046612
 30
0.0
 10
139.5014549405
 20
207.6024736928
 30
0.0
 10
138.9316394822
 20
208.2053727864
 30
0.0
 10
138.3376240377
 20
208.7560445216
 30
0.0
 10
137.9253781637
 20
209.0939373854
 30
0.0
 10
137.715897138
 20
209.2515701604
 30
0.0
  0
SPLINE
  5
495
100
AcDbEntity
  8
0
100
AcDbSpline
 62
7
  6
CONTINUOUS
 70
0
 71
3
 72
11
 73
7
 74
0
 42
0.0000001
 43
0.0000001
 44
0.0000000001
 40
0.0
 40
0.0
 40
0.0
 40
0.0
 40
0.2822113869
 40
0.5418597783
 40
0.778957333
 40
1.0
 40
1.0
 40
1.0
 40
1.0
 10
137.715897138
 20
209.2515701604
 30
0.0
 10
137.39529355
 20
209.4950325582
 30
0.0
 10
136.763900059
 20
209.9425987439
 30
0.0
 10
135.7933184227
 20
210.4895695332
 30
0.0
 10
134.8290353325
 20
210.8501221014
 30
0.0
 10
134.1735896439
 20
210.9389806642
 30
0.0
 10
133.8582778113
 20
210.9388613256
 30
0.0
  0
SPLINE
  5
496
100
AcDbEntity
  8
0
100
AcDbSpline
 62
7
  6
CONTINUOUS
 70
0
 71
3
 72
9
 73
5
 74
0
 42
0.0000001
 43
0.0000001
 44
0.0000000001
 40
0.0
 40
0.0
 40
0.0
 40
0.0
 40
0.240593322
 40
1.0
 40
1.0
 40
1.0
 40
1.0
 10
139.4625533636
 20
137.2692865615
 30
0.0
 10
139.4773557485
 20
137.1690050379
 30
0.0
 10
139.5198137094
 20
136.7495082658
 30
0.0
 10
139.4943569806
 20
136.3239413969
 30
0.0
 10
139.4417323788
 20
136.0083413127
 30
0.0
  0
SPLINE
  5
497
100
AcDbEntity
  8
0
100
AcDbSpline
 62
7
  6
CONTINUOUS
 70
0
 71
3
 72
9
 73
5
 74
0
 42
0.0000001
 43
0.0000001
 44
0.0000000001
 40
0.0
 40
0.0
 40
0.0
 40
0.0
 40
0.7513968866
 40
1.0
 40
1.0
 40
1.0
 40
1.0
 10
139.9972470917
 20
136.6680948549
 30
0.0
 10
140.0627873396
 20
136.3821282907
 30
0.0
 10
140.1041870487
 20
135.9887995845
 30
0.0
 10
140.0838248298
 20
135.5987130528
 30
0.0
 10
140.0746931468
 20
135.5020771005
 30
0.0
  0
SPLINE
  5
498
100
AcDbEntity
  8
0
100
AcDbSpline
 62
7
  6
CONTINUOUS
 70
0
 71
3
 72
26
 73
22
 74
0
 42
0.0000001
 43
0.0000001
 44
0.0000000001
 40
0.0
 40
0.0
 40
0.0
 40
0.0
 40
0.0012314103
 40
0.0044681972
 40
0.0098019869
 40
0.0172402759
 40
0.0267803127
 40
0.0384167054
 40
0.0679527531
 40
0.1057426063
 40
0.151593322
 40
0.2053373398
 40
0.2668182975
 40
0.3357702111
 40
0.4117891697
 40
0.4945971392
 40
0.5838763673
 40
0.6793078227
 40
0.7805115963
 40
0.8871743612
 40
1.0
 40
1.0
 40
1.0
 40
1.0
 10
138.6736631798
 20
94.8649665799
 30
0.0
 10
138.6736410228
 20
94.8621395737
 30
0.0
 10
138.6595208225
 20
94.8594988404
 30
0.0
 10
138.6409246548
 20
94.8565025672
 30
0.0
 10
138.6021743693
 20
94.8539627791
 30
0.0
 10
138.5519202171
 20
94.8515114585
 30
0.0
 10
138.4859127795
 20
94.8492098305
 30
0.0
 10
138.369704203
 20
94.8457809985
 30
0.0
 10
138.1883836872
 20
94.8407137449
 30
0.0
 10
137.9286722799
 20
94.8342058563
 30
0.0
 10
137.6132148719
 20
94.8332512796
 30
0.0
 10
137.2434677894
 20
94.8397752426
 30
0.0
 10
136.8206433816
 20
94.8422475193
 30
0.0
 10
136.3466130715
 20
94.8430122017
 30
0.0
 10
135.8240355296
 20
94.864756386
 30
0.0
 10
135.2544232615
 20
94.8705634899
 30
0.0
 10
134.6402684451
 20
94.8757533714
 30
0.0
 10
133.9839715076
 20
94.8847432028
 30
0.0
 10
133.2873932362
 20
94.8850256598
 30
0.0
 10
132.5521497301
 20
94.8784337082
 30
0.0
 10
132.0456164549
 20
94.8887856336
 30
0.0
 10
131.7898972231
 20
94.9300492547
 30
0.0
  0
SPLINE
  5
499
100
AcDbEntity
  8
0
100
AcDbSpline
 62
7
  6
CONTINUOUS
 70
0
 71
3
 72
8
 73
4
 74
0
 42
0.0000001
 43
0.0000001
 44
0.0000000001
 40
0.0
 40
0.0
 40
0.0
 40
0.0
 40
1.0
 40
1.0
 40
1.0
 40
1.0
 10
128.8428859578
 20
142.2057982859
 30
0.0
 10
128.7562782118
 20
143.3048757663
 30
0.0
 10
128.7725214034
 20
144.4128878927
 30
0.0
 10
128.840876693
 20
145.5132513618
 30
0.0
  0
SPLINE
  5
49A
100
AcDbEntity
  8
0
100
AcDbSpline
 62
7
  6
CONTINUOUS
 70
0
 71
3
 72
21
 73
17
 74
0
 42
0.0000001
 43
0.0000001
 44
0.0000000001
 40
0.0
 40
0.0
 40
0.0
 40
0.0
 40
0.062878466
 40
0.1256600947
 40
0.1883287702
 40
0.25088812
 40
0.3757637431
 40
0.5004195073
 40
0.5626481224
 40
0.6248319811
 40
0.6871030449
 40
0.7493385245
 40
0.8114021246
 40
0.8734715306
 40
0.9365735468
 40
1.0
 40
1.0
 40
1.0
 40
1.0
 10
113.1203577017
 20
134.0740342813
 30
0.0
 10
113.4500032321
 20
134.0773139628
 30
0.0
 10
114.1080860606
 20
134.1139476741
 30
0.0
 10
115.0949558619
 20
134.1445873278
 30
0.0
 10
116.0804517631
 20
134.16601777
 30
0.0
 10
117.3915571323
 20
134.185780453
 30
0.0
 10
119.0277226944
 20
134.2024541764
 30
0.0
 10
120.6621972545
 20
134.2135038546
 30
0.0
 10
121.9680222618
 20
134.2168848367
 30
0.0
 10
122.9467472144
 20
134.2236745584
 30
0.0
 10
123.9255536813
 20
134.2267085397
 30
0.0
 10
124.903656765
 20
134.2181147155
 30
0.0
 10
125.8808355458
 20
134.2116520303
 30
0.0
 10
126.8622033187
 20
134.2326162511
 30
0.0
 10
127.8511646598
 20
134.2559094266
 30
0.0
 10
128.5140552174
 20
134.2192651294
 30
0.0
 10
128.8465814621
 20
134.2168720988
 30
0.0
  0
SPLINE
  5
49B
100
AcDbEntity
  8
0
100
AcDbSpline
 62
7
  6
CONTINUOUS
 70
0
 71
3
 72
9
 73
5
 74
0
 42
0.0000001
 43
0.0000001
 44
0.0000000001
 40
0.0
 40
0.0
 40
0.0
 40
0.0
 40
0.2814491718
 40
1.0
 40
1.0
 40
1.0
 40
1.0
 10
139.9963035312
 20
136.6691226552
 30
0.0
 10
140.096448232
 20
136.5748648688
 30
0.0
 10
140.43285753
 20
136.2208200168
 30
0.0
 10
140.6960252683
 20
135.7909882447
 30
0.0
 10
140.8083587642
 20
135.4583329933
 30
0.0
  0
SPLINE
  5
49C
100
AcDbEntity
  8
0
100
AcDbSpline
 62
7
  6
CONTINUOUS
 70
0
 71
3
 72
9
 73
5
 74
0
 42
0.0000001
 43
0.0000001
 44
0.0000000001
 40
0.0
 40
0.0
 40
0.0
 40
0.0
 40
0.5200363944
 40
1.0
 40
1.0
 40
1.0
 40
1.0
 10
139.4625815057
 20
137.269256563
 30
0.0
 10
139.5587548529
 20
137.1685768579
 30
0.0
 10
139.736376607
 20
136.9683170797
 30
0.0
 10
139.9041484291
 20
136.7585829046
 30
0.0
 10
139.9962823203
 20
136.6690031297
 30
0.0
  0
SPLINE
  5
49D
100
AcDbEntity
  8
0
100
AcDbSpline
 62
7
  6
CONTINUOUS
 70
0
 71
3
 72
10
 73
6
 74
0
 42
0.0000001
 43
0.0000001
 44
0.0000000001
 40
0.0
 40
0.0
 40
0.0
 40
0.0
 40
0.5411158708
 40
0.7961855679
 40
1.0
 40
1.0
 40
1.0
 40
1.0
 10
137.7158966418
 20
209.2515838061
 30
0.0
 10
137.7962153183
 20
209.315543226
 30
0.0
 10
137.8980695962
 20
209.4332121167
 30
0.0
 10
137.9822802701
 20
209.6028453015
 30
0.0
 10
138.0003771867
 20
209.6917877362
 30
0.0
 10
137.9948561146
 20
209.730064262
 30
0.0
  0
SPLINE
  5
49E
100
AcDbEntity
  8
0
100
AcDbSpline
 62
7
  6
CONTINUOUS
 70
0
 71
3
 72
11
 73
7
 74
0
 42
0.0000001
 43
0.0000001
 44
0.0000000001
 40
0.0
 40
0.0
 40
0.0
 40
0.0
 40
0.2853365296
 40
0.5410486702
 40
0.7731688896
 40
1.0
 40
1.0
 40
1.0
 40
1.0
 10
134.1236875065
 20
211.5378691573
 30
0.0
 10
134.1524756517
 20
211.4722303031
 30
0.0
 10
134.1777442645
 20
211.3334530894
 30
0.0
 10
134.1369940126
 20
211.1394356378
 30
0.0
 10
134.0319870943
 20
210.9862216492
 30
0.0
 10
133.9152562047
 20
210.9389157365
 30
0.0
 10
133.8582779687
 20
210.9388640455
 30
0.0
  0
SPLINE
  5
49F
100
AcDbEntity
  8
0
100
AcDbSpline
 62
7
  6
CONTINUOUS
 70
0
 71
3
 72
11
 73
7
 74
0
 42
0.0000001
 43
0.0000001
 44
0.0000000001
 40
0.0
 40
0.0
 40
0.0
 40
0.0
 40
0.2183917216
 40
0.4386272401
 40
0.6981355739
 40
1.0
 40
1.0
 40
1.0
 40
1.0
 10
138.9928652834
 20
202.9405973967
 30
0.0
 10
139.0280153169
 20
202.9406161457
 30
0.0
 10
139.0995010835
 20
202.92114143
 30
0.0
 10
139.1862486757
 20
202.8458584758
 30
0.0
 10
139.2497917614
 20
202.735038999
 30
0.0
 10
139.2707900384
 20
202.6457334489
 30
0.0
 10
139.2757880133
 20
202.5974062772
 30
0.0
  0
SPLINE
  5
4A0
100
AcDbEntity
  8
0
100
AcDbSpline
 62
7
  6
CONTINUOUS
 70
0
 71
3
 72
11
 73
7
 74
0
 42
0.0000001
 43
0.0000001
 44
0.0000000001
 40
0.0
 40
0.0
 40
0.0
 40
0.0
 40
0.1231891962
 40
0.3434044423
 40
0.6580185652
 40
1.0
 40
1.0
 40
1.0
 40
1.0
 10
132.8681312858
 20
202.9384739264
 30
0.0
 10
132.8856831055
 20
202.938496049
 30
0.0
 10
132.926710988
 20
202.8987418357
 30
0.0
 10
132.9585801171
 20
202.8128301252
 30
0.0
 10
132.9816307676
 20
202.6883834171
 30
0.0
 10
132.9876804653
 20
202.5951184428
 30
0.0
 10
132.9879850909
 20
202.5463943329
 30
0.0
  0
SPLINE
  5
4A1
100
AcDbEntity
  8
0
100
AcDbSpline
 62
7
  6
CONTINUOUS
 70
0
 71
3
 72
11
 73
7
 74
0
 42
0.0000001
 43
0.0000001
 44
0.0000000001
 40
0.0
 40
0.0
 40
0.0
 40
0.0
 40
0.2526812744
 40
0.5053959912
 40
0.7557720103
 40
1.0
 40
1.0
 40
1.0
 40
1.0
 10
138.4756632225
 20
138.1345512972
 30
0.0
 10
138.5697375032
 20
138.0759460228
 30
0.0
 10
138.7533164713
 20
137.9506129948
 30
0.0
 10
139.0015411554
 20
137.7300574891
 30
0.0
 10
139.2346585079
 20
137.4996761983
 30
0.0
 10
139.3886002623
 20
137.3467364314
 30
0.0
 10
139.4625815057
 20
137.269256563
 30
0.0
  0
SPLINE
  5
4A2
100
AcDbEntity
  8
0
100
AcDbSpline
 62
7
  6
CONTINUOUS
 70
0
 71
3
 72
12
 73
8
 74
0
 42
0.0000001
 43
0.0000001
 44
0.0000000001
 40
0.0
 40
0.0
 40
0.0
 40
0.0
 40
0.1218718393
 40
0.218470865
 40
0.3399443514
 40
0.6453329835
 40
1.0
 40
1.0
 40
1.0
 40
1.0
 10
132.4304665266
 20
202.9383152901
 30
0.0
 10
132.4480328774
 20
202.9383211147
 30
0.0
 10
132.474611063
 20
202.9111470553
 30
0.0
 10
132.4950332439
 20
202.8683214347
 30
0.0
 10
132.5193154925
 20
202.795967559
 30
0.0
 10
132.5378346937
 20
202.6847468759
 30
0.0
 10
132.5430347699
 20
202.5894735574
 30
0.0
 10
132.5430531752
 20
202.5383525995
 30
0.0
  0
SPLINE
  5
4A3
100
AcDbEntity
  8
0
100
AcDbSpline
 62
7
  6
CONTINUOUS
 70
0
 71
3
 72
18
 73
14
 74
0
 42
0.0000001
 43
0.0000001
 44
0.0000000001
 40
0.0
 40
0.0
 40
0.0
 40
0.0
 40
0.0331737445
 40
0.0722437208
 40
0.1168767877
 40
0.1671725041
 40
0.2812837594
 40
0.4091552431
 40
0.5478396865
 40
0.6944011995
 40
0.7697617008
 40
0.8460187728
 40
1.0
 40
1.0
 40
1.0
 40
1.0
 10
138.7283302185
 20
95.8617883908
 30
0.0
 10
138.7411174548
 20
96.036334806
 30
0.0
 10
138.7335384098
 20
96.41887009
 30
0.0
 10
138.6600951766
 20
97.0314289647
 30
0.0
 10
138.5353535593
 20
97.7275108471
 30
0.0
 10
138.3157059878
 20
98.8082360681
 30
0.0
 10
137.990810128
 20
100.3155486236
 30
0.0
 10
137.6197297657
 20
102.2900900595
 30
0.0
 10
137.379607005
 20
104.4593370892
 30
0.0
 10
137.3663066702
 20
106.3659737115
 30
0.0
 10
137.4876184451
 20
107.9351012425
 30
0.0
 10
137.7013864081
 20
109.5339006382
 30
0.0
 10
137.947014229
 20
110.724671919
 30
0.0
 10
138.1234128279
 20
111.517644941
 30
0.0
  0
SPLINE
  5
4A4
100
AcDbEntity
  8
0
100
AcDbSpline
 62
7
  6
CONTINUOUS
 70
0
 71
3
 72
20
 73
16
 74
0
 42
0.0000001
 43
0.0000001
 44
0.0000000001
 40
0.0
 40
0.0
 40
0.0
 40
0.0
 40
0.0023179384
 40
0.0064149319
 40
0.0202878213
 40
0.0418489541
 40
0.0710968117
 40
0.1080014516
 40
0.1525247214
 40
0.204623705
 40
0.2642330463
 40
0.4056529322
 40
0.5761122684
 40
0.7746623358
 40
1.0
 40
1.0
 40
1.0
 40
1.0
 10
140.8320291966
 20
118.2607528994
 30
0.0
 10
140.8315685967
 20
118.2577026939
 30
0.0
 10
140.826356328
 20
118.250362951
 30
0.0
 10
140.807954635
 20
118.2311017782
 30
0.0
 10
140.7664589004
 20
118.197960778
 30
0.0
 10
140.697326226
 20
118.1470788619
 30
0.0
 10
140.6011652226
 20
118.0806907783
 30
0.0
 10
140.4787077411
 20
117.9989145659
 30
0.0
 10
140.3297952232
 20
117.9019126838
 30
0.0
 10
140.1546891138
 20
117.7898133986
 30
0.0
 10
139.8698709212
 20
117.6099155345
 30
0.0
 10
139.4499636408
 20
117.3489510676
 30
0.0
 10
138.8708652339
 20
116.993857768
 30
0.0
 10
138.1947461017
 20
116.5833594317
 30
0.0
 10
137.7115654594
 20
116.2922020856
 30
0.0
 10
137.4545127373
 20
116.1377487616
 30
0.0
  0
SPLINE
  5
4A5
100
AcDbEntity
  8
0
100
AcDbSpline
 62
7
  6
CONTINUOUS
 70
0
 71
3
 72
27
 73
23
 74
0
 42
0.0000001
 43
0.0000001
 44
0.0000000001
 40
0.0
 40
0.0
 40
0.0
 40
0.0
 40
0.0627700128
 40
0.1254950423
 40
0.1568416531
 40
0.1881813675
 40
0.219502635
 40
0.2508115699
 40
0.2977764056
 40
0.3446440772
 40
0.3915761965
 40
0.4384777892
 40
0.5322222204
 40
0.5790593195
 40
0.6258906873
 40
0.6726812292
 40
0.7194805651
 40
0.7662781044
 40
0.8130467201
 40
0.8598038674
 40
0.9065476064
 40
1.0
 40
1.0
 40
1.0
 40
1.0
 10
109.0009849969
 20
134.069813075
 30
0.0
 10
109.087198502
 20
134.069529261
 30
0.0
 10
109.2595659272
 20
134.0693922654
 30
0.0
 10
109.4749784588
 20
134.0675628133
 30
0.0
 10
109.6472337362
 20
134.0673188009
 30
0.0
 10
109.7763421626
 20
134.0688406393
 30
0.0
 10
109.9054196141
 20
134.0693306478
 30
0.0
 10
110.055908421
 20
134.0643043574
 30
0.0
 10
110.2272843634
 20
134.0505528387
 30
0.0
 10
110.4208641028
 20
134.0494061155
 30
0.0
 10
110.6136986294
 20
134.0626409761
 30
0.0
 10
110.8712810601
 20
134.0713905426
 30
0.0
 10
111.1287636013
 20
134.0629844813
 30
0.0
 10
111.3862375945
 20
134.0646088744
 30
0.0
 10
111.578902398
 20
134.0750372729
 30
0.0
 10
111.7718091187
 20
134.0784730837
 30
0.0
 10
111.964575436
 20
134.0729455951
 30
0.0
 10
112.1572835463
 20
134.0670768611
 30
0.0
 10
112.3500421854
 20
134.0672940163
 30
0.0
 10
112.5426772628
 20
134.0701327805
 30
0.0
 10
112.7994543765
 20
134.0716145676
 30
0.0
 10
112.9920081937
 20
134.0727600988
 30
0.0
 10
113.1203592559
 20
134.0738755848
 30
0.0
  0
SPLINE
  5
4A6
100
AcDbEntity
  8
0
100
AcDbSpline
 62
7
  6
CONTINUOUS
 70
0
 71
3
 72
10
 73
6
 74
0
 42
0.0000001
 43
0.0000001
 44
0.0000000001
 40
0.0
 40
0.0
 40
0.0
 40
0.0
 40
0.6604806857
 40
0.8810785262
 40
1.0
 40
1.0
 40
1.0
 40
1.0
 10
128.8203461737
 20
202.5370032071
 30
0.0
 10
128.8203119999
 20
202.6319213867
 30
0.0
 10
128.8085706121
 20
202.7626102263
 30
0.0
 10
128.7641445594
 20
202.8947355619
 30
0.0
 10
128.7248498204
 20
202.9369715644
 30
0.0
 10
128.7077595252
 20
202.9369658977
 30
0.0
  0
SPLINE
  5
4A7
100
AcDbEntity
  8
0
100
AcDbSpline
 62
7
  6
CONTINUOUS
 70
0
 71
3
 72
12
 73
8
 74
0
 42
0.0000001
 43
0.0000001
 44
0.0000000001
 40
0.0
 40
0.0
 40
0.0
 40
0.0
 40
0.0502253429
 40
0.1237331115
 40
0.3372752555
 40
0.6328078098
 40
1.0
 40
1.0
 40
1.0
 40
1.0
 10
143.9014397198
 20
167.8028553527
 30
0.0
 10
143.90833302
 20
167.829657061
 30
0.0
 10
143.9189102722
 20
167.8972032193
 30
0.0
 10
143.9372431521
 20
168.0820817281
 30
0.0
 10
143.9517181825
 20
168.4029798304
 30
0.0
 10
143.9630497099
 20
168.8856007481
 30
0.0
 10
143.9663012254
 20
169.2507794302
 30
0.0
 10
143.9674542637
 20
169.4530976945
 30
0.0
  0
SPLINE
  5
4A8
100
AcDbEntity
  8
0
100
AcDbSpline
 62
7
  6
CONTINUOUS
 70
0
 71
3
 72
11
 73
7
 74
0
 42
0.0000001
 43
0.0000001
 44
0.0000000001
 40
0.0
 40
0.0
 40
0.0
 40
0.0
 40
0.2140811925
 40
0.4439331709
 40
0.7052347374
 40
1.0
 40
1.0
 40
1.0
 40
1.0
 10
132.6834664536
 20
210.9384333261
 30
0.0
 10
132.733862879
 20
210.9385075242
 30
0.0
 10
132.8388011032
 20
210.9850550432
 30
0.0
 10
132.9313609627
 20
211.1288896406
 30
0.0
 10
132.971909748
 20
211.3124123933
 30
0.0
 10
132.9556500522
 20
211.4460945262
 30
0.0
 10
132.9336636253
 20
211.5119093694
 30
0.0
  0
SPLINE
  5
4A9
100
AcDbEntity
  8
0
100
AcDbSpline
 62
7
  6
CONTINUOUS
 70
0
 71
3
 72
10
 73
6
 74
0
 42
0.0000001
 43
0.0000001
 44
0.0000000001
 40
0.0
 40
0.0
 40
0.0
 40
0.0
 40
0.4577996103
 40
0.7218817498
 40
1.0
 40
1.0
 40
1.0
 40
1.0
 10
125.6652751329
 20
218.1811344703
 30
0.0
 10
124.8400148222
 20
217.4655386948
 30
0.0
 10
123.4885012909
 20
216.3947652079
 30
0.0
 10
121.558644905
 20
214.9918033297
 30
0.0
 10
120.4956747411
 20
214.2540319222
 30
0.0
 10
119.9444984622
 20
213.8845007546
 30
0.0
  0
SPLINE
  5
4AA
100
AcDbEntity
  8
0
100
AcDbSpline
 62
7
  6
CONTINUOUS
 70
0
 71
3
 72
9
 73
5
 74
0
 42
0.0000001
 43
0.0000001
 44
0.0000000001
 40
0.0
 40
0.0
 40
0.0
 40
0.0
 40
0.5006929789
 40
1.0
 40
1.0
 40
1.0
 40
1.0
 10
119.9444984622
 20
213.8845007546
 30
0.0
 10
120.969996185
 20
212.9191802112
 30
0.0
 10
123.0277166874
 20
211.0014013968
 30
0.0
 10
125.1119135191
 20
209.1120161907
 30
0.0
 10
126.167165698
 20
208.1852117575
 30
0.0
  0
SPLINE
  5
4AB
100
AcDbEntity
  8
0
100
AcDbSpline
 62
7
  6
CONTINUOUS
 70
0
 71
3
 72
9
 73
5
 74
0
 42
0.0000001
 43
0.0000001
 44
0.0000000001
 40
0.0
 40
0.0
 40
0.0
 40
0.0
 40
0.2718189664
 40
1.0
 40
1.0
 40
1.0
 40
1.0
 10
126.1603435011
 20
211.3942772251
 30
0.0
 10
126.7740488068
 20
211.4048730166
 30
0.0
 10
129.0318126371
 20
211.4443228252
 30
0.0
 10
131.2895506705
 20
211.4853551228
 30
0.0
 10
132.9336481616
 20
211.5119091196
 30
0.0
  0
SPLINE
  5
4AC
100
AcDbEntity
  8
0
100
AcDbSpline
 62
7
  6
CONTINUOUS
 70
0
 71
3
 72
10
 73
6
 74
0
 42
0.0000001
 43
0.0000001
 44
0.0000000001
 40
0.0
 40
0.0
 40
0.0
 40
0.0
 40
0.2499969238
 40
0.6250016715
 40
1.0
 40
1.0
 40
1.0
 40
1.0
 10
109.0009850182
 20
134.0698130749
 30
0.0
 10
108.8968716359
 20
134.0674731658
 30
0.0
 10
108.6365003907
 20
134.066638143
 30
0.0
 10
108.2199415418
 20
134.0645997837
 30
0.0
 10
107.9075306422
 20
134.0694414673
 30
0.0
 10
107.7513199166
 20
134.0693851959
 30
0.0
  0
SPLINE
  5
4AD
100
AcDbEntity
  8
0
100
AcDbSpline
 62
7
  6
CONTINUOUS
 70
0
 71
3
 72
8
 73
4
 74
0
 42
0.0000001
 43
0.0000001
 44
0.0000000001
 40
0.0
 40
0.0
 40
0.0
 40
0.0
 40
1.0
 40
1.0
 40
1.0
 40
1.0
 10
131.3907745643
 20
95.2450632599
 30
0.0
 10
131.5247713999
 20
95.2714085778
 30
0.0
 10
131.658684767
 20
95.2983204408
 30
0.0
 10
131.7932451816
 20
95.3216168467
 30
0.0
  0
SPLINE
  5
4AE
100
AcDbEntity
  8
0
100
AcDbSpline
 62
7
  6
CONTINUOUS
 70
0
 71
3
 72
9
 73
5
 74
0
 42
0.0000001
 43
0.0000001
 44
0.0000000001
 40
0.0
 40
0.0
 40
0.0
 40
0.0
 40
0.2389209797
 40
1.0
 40
1.0
 40
1.0
 40
1.0
 10
130.1095508568
 20
116.0557593428
 30
0.0
 10
130.216980486
 20
114.3982777116
 30
0.0
 10
130.6542793946
 20
107.4601125454
 30
0.0
 10
131.0545544217
 20
100.5196752589
 30
0.0
 10
131.3524433345
 20
95.2371073432
 30
0.0
  0
SPLINE
  5
4AF
100
AcDbEntity
  8
0
100
AcDbSpline
 62
7
  6
CONTINUOUS
 70
0
 71
3
 72
13
 73
9
 74
0
 42
0.0000001
 43
0.0000001
 44
0.0000000001
 40
0.0
 40
0.0
 40
0.0
 40
0.0
 40
0.2514700864
 40
0.3796828366
 40
0.510202482
 40
0.6360073333
 40
0.7567578311
 40
1.0
 40
1.0
 40
1.0
 40
1.0
 10
139.208735296
 20
135.9412570417
 30
0.0
 10
139.2283249101
 20
135.9484362137
 30
0.0
 10
139.2582818713
 20
135.9584116249
 30
0.0
 10
139.2961282474
 20
135.9776457971
 30
0.0
 10
139.322883534
 20
135.9949390332
 30
0.0
 10
139.3508888259
 20
136.0095196153
 30
0.0
 10
139.3915589685
 20
136.0163390337
 30
0.0
 10
139.4217854358
 20
136.0115682689
 30
0.0
 10
139.4417067366
 20
136.0083408399
 30
0.0
  0
SPLINE
  5
4B0
100
AcDbEntity
  8
0
100
AcDbSpline
 62
7
  6
CONTINUOUS
 70
0
 71
3
 72
9
 73
5
 74
0
 42
0.0000001
 43
0.0000001
 44
0.0000000001
 40
0.0
 40
0.0
 40
0.0
 40
0.0
 40
0.2395445342
 40
1.0
 40
1.0
 40
1.0
 40
1.0
 10
138.4755938723
 20
138.1345945978
 30
0.0
 10
138.5767172915
 20
137.9788819428
 30
0.0
 10
138.9527692471
 20
137.2996000644
 30
0.0
 10
139.1558798692
 20
136.5282913287
 30
0.0
 10
139.2085968742
 20
135.9412358968
 30
0.0
  0
SPLINE
  5
4B1
100
AcDbEntity
  8
0
100
AcDbSpline
 62
7
  6
CONTINUOUS
 70
0
 71
3
 72
11
 73
7
 74
0
 42
0.0000001
 43
0.0000001
 44
0.0000000001
 40
0.0
 40
0.0
 40
0.0
 40
0.0
 40
0.2118190071
 40
0.4445370316
 40
0.7069033872
 40
1.0
 40
1.0
 40
1.0
 40
1.0
 10
139.2087551771
 20
135.9412815873
 30
0.0
 10
138.752703844
 20
135.8815507469
 30
0.0
 10
137.8042273797
 20
135.7014982727
 30
0.0
 10
136.2795843471
 20
135.4982425339
 30
0.0
 10
134.5591112968
 20
135.5574177546
 30
0.0
 10
133.3771756223
 20
135.874922601
 30
0.0
 10
132.7938721481
 20
136.1294900505
 30
0.0
  0
SPLINE
  5
4B2
100
AcDbEntity
  8
0
100
AcDbSpline
 62
7
  6
CONTINUOUS
 70
0
 71
3
 72
11
 73
7
 74
0
 42
0.0000001
 43
0.0000001
 44
0.0000000001
 40
0.0
 40
0.0
 40
0.0
 40
0.0
 40
0.2333697113
 40
0.481214129
 40
0.7378531558
 40
1.0
 40
1.0
 40
1.0
 40
1.0
 10
137.4507999104
 20
134.2854369978
 30
0.0
 10
137.6612531989
 20
134.289932622
 30
0.0
 10
138.0838720301
 20
134.4685512834
 30
0.0
 10
138.5872944875
 20
134.903334218
 30
0.0
 10
139.0406020359
 20
135.4290333051
 30
0.0
 10
139.3110506915
 20
135.811212245
 30
0.0
 10
139.441833905
 20
136.0082106522
 30
0.0
  0
SPLINE
  5
4B3
100
AcDbEntity
  8
0
100
AcDbSpline
 62
7
  6
CONTINUOUS
 70
0
 71
3
 72
15
 73
11
 74
0
 42
0.0000001
 43
0.0000001
 44
0.0000000001
 40
0.0
 40
0.0
 40
0.0
 40
0.0
 40
0.0160851174
 40
0.0395920368
 40
0.1098396511
 40
0.2115577081
 40
0.3412354032
 40
0.4935068472
 40
0.6599071823
 40
1.0
 40
1.0
 40
1.0
 40
1.0
 10
108.781839989
 20
223.1160689517
 30
0.0
 10
108.7894995116
 20
223.0662663362
 30
0.0
 10
108.8029171904
 20
222.9428902848
 30
0.0
 10
108.8299628999
 20
222.5998821105
 30
0.0
 10
108.8598298006
 20
221.9881513791
 30
0.0
 10
108.8917015993
 20
221.0437829403
 30
0.0
 10
108.9200018301
 20
219.8422104442
 30
0.0
 10
108.9429046501
 20
218.4378959014
 30
0.0
 10
108.9654607528
 20
216.3743668129
 30
0.0
 10
108.9719237433
 20
214.7877178099
 30
0.0
 10
108.9723073145
 20
213.7223443362
 30
0.0
  0
SPLINE
  5
4B4
100
AcDbEntity
  8
0
100
AcDbSpline
 62
7
  6
CONTINUOUS
 70
0
 71
3
 72
9
 73
5
 74
0
 42
0.0000001
 43
0.0000001
 44
0.0000000001
 40
0.0
 40
0.0
 40
0.0
 40
0.0
 40
0.2637596785
 40
1.0
 40
1.0
 40
1.0
 40
1.0
 10
132.79353949
 20
134.2303623794
 30
0.0
 10
133.2030314313
 20
134.2323161562
 30
0.0
 10
134.7555339491
 20
134.2421989703
 30
0.0
 10
136.3080015229
 20
134.2620892466
 30
0.0
 10
137.4507923975
 20
134.2859611292
 30
0.0
  0
SPLINE
  5
4B5
100
AcDbEntity
  8
0
100
AcDbSpline
 62
7
  6
CONTINUOUS
 70
0
 71
3
 72
14
 73
10
 74
0
 42
0.0000001
 43
0.0000001
 44
0.0000000001
 40
0.0
 40
0.0
 40
0.0
 40
0.0
 40
0.4030225996
 40
0.5661002447
 40
0.7035299901
 40
0.8153038436
 40
0.9015214604
 40
0.9626053536
 40
1.0
 40
1.0
 40
1.0
 40
1.0
 10
120.2983413219
 20
223.4185202848
 30
0.0
 10
120.1328168562
 20
223.5724462563
 30
0.0
 10
119.8983522125
 20
223.7866270139
 30
0.0
 10
119.6003353692
 20
224.0452113327
 30
0.0
 10
119.4223790694
 20
224.1929937224
 30
0.0
 10
119.2739919466
 20
224.3084065143
 30
0.0
 10
119.1546000931
 20
224.3921763959
 30
0.0
 10
119.0654328756
 20
224.4433558658
 30
0.0
 10
119.0119456131
 20
224.4636566686
 30
0.0
 10
118.9909729016
 20
224.4636566689
 30
0.0
  0
SPLINE
  5
4B6
100
AcDbEntity
  8
0
100
AcDbSpline
 62
7
  6
CONTINUOUS
 70
0
 71
3
 72
9
 73
5
 74
0
 42
0.0000001
 43
0.0000001
 44
0.0000000001
 40
0.0
 40
0.0
 40
0.0
 40
0.0
 40
0.5441122895
 40
1.0
 40
1.0
 40
1.0
 40
1.0
 10
118.3324121324
 20
223.2913007354
 30
0.0
 10
118.689706129
 20
223.2997311269
 30
0.0
 10
119.346096174
 20
223.3267192499
 30
0.0
 10
120.0011384806
 20
223.3812744562
 30
0.0
 10
120.2982558098
 20
223.4185320811
 30
0.0
  0
SPLINE
  5
4B7
100
AcDbEntity
  8
0
100
AcDbSpline
 62
7
  6
CONTINUOUS
 70
0
 71
3
 72
11
 73
7
 74
0
 42
0.0000001
 43
0.0000001
 44
0.0000000001
 40
0.0
 40
0.0
 40
0.0
 40
0.0
 40
0.125888643
 40
0.2513896953
 40
0.5016540932
 40
1.0
 40
1.0
 40
1.0
 40
1.0
 10
109.0180826527
 20
223.1168440623
 30
0.0
 10
109.4090036879
 20
223.1191020802
 30
0.0
 10
110.1895961651
 20
223.1296424573
 30
0.0
 10
111.7472301729
 20
223.152671465
 30
0.0
 10
114.4611770406
 20
223.2037459818
 30
0.0
 10
116.7853124647
 20
223.254792671
 30
0.0
 10
118.3324173912
 20
223.2912968593
 30
0.0
  0
SPLINE
  5
4B8
100
AcDbEntity
  8
0
100
AcDbSpline
 62
7
  6
CONTINUOUS
 70
0
 71
3
 72
11
 73
7
 74
0
 42
0.0000001
 43
0.0000001
 44
0.0000000001
 40
0.0
 40
0.0
 40
0.0
 40
0.0
 40
0.2533838398
 40
0.5038292939
 40
0.7521832394
 40
1.0
 40
1.0
 40
1.0
 40
1.0
 10
120.2981110581
 20
223.4176755754
 30
0.0
 10
120.9768607136
 20
223.4436919715
 30
0.0
 10
122.3343987911
 20
223.3746619826
 30
0.0
 10
124.306902296
 20
222.9062592026
 30
0.0
 10
126.1463958935
 20
222.0896507252
 30
0.0
 10
127.2482233981
 20
221.3285232266
 30
0.0
 10
127.7575728258
 20
220.9020375668
 30
0.0
  0
SPLINE
  5
4B9
100
AcDbEntity
  8
0
100
AcDbSpline
 62
7
  6
CONTINUOUS
 70
0
 71
3
 72
11
 73
7
 74
0
 42
0.0000001
 43
0.0000001
 44
0.0000000001
 40
0.0
 40
0.0
 40
0.0
 40
0.0
 40
0.2928404009
 40
0.5624831702
 40
0.7980968881
 40
1.0
 40
1.0
 40
1.0
 40
1.0
 10
125.6653317334
 20
218.1811867627
 30
0.0
 10
125.3865183547
 20
218.8913249211
 30
0.0
 10
124.7273008137
 20
220.2122007529
 30
0.0
 10
123.4165704754
 20
221.8501423572
 30
0.0
 10
121.9197429735
 20
222.9644285128
 30
0.0
 10
120.8183404554
 20
223.3406964965
 30
0.0
 10
120.298126127
 20
223.4184988376
 30
0.0
  0
SPLINE
  5
4BA
100
AcDbEntity
  8
0
100
AcDbSpline
 62
7
  6
CONTINUOUS
 70
0
 71
3
 72
16
 73
12
 74
0
 42
0.0000001
 43
0.0000001
 44
0.0000000001
 40
0.0
 40
0.0
 40
0.0
 40
0.0
 40
0.0204651802
 40
0.0468512361
 40
0.0798830954
 40
0.1200670908
 40
0.222371793
 40
0.3511925696
 40
0.5016563072
 40
0.6656460948
 40
1.0
 40
1.0
 40
1.0
 40
1.0
 10
118.332418103
 20
223.2912968761
 30
0.0
 10
118.3840401168
 20
223.2504046731
 30
0.0
 10
118.4870189664
 20
223.1380183628
 30
0.0
 10
118.6252380718
 20
222.9206167158
 30
0.0
 10
118.7647134447
 20
222.631367467
 30
0.0
 10
118.9658503653
 20
222.1030975286
 30
0.0
 10
119.1954422192
 20
221.2590162336
 30
0.0
 10
119.4338565911
 20
220.0539704772
 30
0.0
 10
119.6334607929
 20
218.640918202
 30
0.0
 10
119.8430871066
 20
216.5633253889
 30
0.0
 10
119.9217876141
 20
214.9601953803
 30
0.0
 10
119.9444984738
 20
213.8845007623
 30
0.0
  0
ELLIPSE
  5
4BB
100
AcDbEntity
  8
0
100
AcDbEllipse
 62
7
  6
CONTINUOUS
 10
86.1952344523
 20
25.2519507205
 30
0.0
 11
19.4003472608
 21
-4.9929337672
 31
0.0
 40
0.0014398858
 41
-0.0367487279
 42
-0.0055947054
  0
ELLIPSE
  5
4BC
100
AcDbEntity
  8
0
100
AcDbEllipse
 62
7
  6
CONTINUOUS
 10
86.8664557078
 20
25.2519507205
 30
0.0
 11
19.5139310487
 21
0.0069851017
 31
0.0
 40
0.256227188
 41
-0.0311534896
 42
0.0000005329
  0
ELLIPSE
  5
4BD
100
AcDbEntity
  8
0
100
AcDbEllipse
 62
7
  6
CONTINUOUS
 10
86.8664557079
 20
25.2519507205
 30
0.0
 11
19.4003472608
 21
-4.9929337672
 31
0.0
 40
0.0014398858
 41
-0.0055947054
 42
0.0255593171
  0
ELLIPSE
  5
4BE
100
AcDbEntity
  8
0
100
AcDbEllipse
 62
7
  6
CONTINUOUS
 10
75.4203278938
 20
178.0372384135
 30
0.0
 11
-1.4977493744
 21
3.2094191195
 31
0.0
 40
0.0059220645
 41
-1.4224618492
 42
-0.5020135784
  0
ENDSEC
  0
SECTION
  2
OBJECTS
  0
DICTIONARY
  5
C
100
AcDbDictionary
280
0
281
1
  3
ACAD_GROUP
350
D
  3
ACAD_MLINESTYLE
350
17
  3
ACAD_LAYOUT
350
1A
  3
ACAD_PLOTSETTINGS
350
19
  3
ACAD_PLOTSTYLENAME
350
E
  0
DICTIONARY
  5
D
102
{ACAD_REACTORS
330
C
102
}
100
AcDbDictionary
280
0
281
1
  0
ACDBDICTIONARYWDFLT
  5
E
102
{ACAD_REACTORS
330
C
102
}
100
AcDbDictionary
281
1
  3
Normal
350
F
100
AcDbDictionaryWithDefault
340
F
  0
DICTIONARY
  5
17
102
{ACAD_REACTORS
330
C
102
}
100
AcDbDictionary
280
0
281
1
  3
Standard
350
18
  0
DICTIONARY
  5
19
102
{ACAD_REACTORS
330
C
102
}
100
AcDbDictionary
281
1
  0
DICTIONARY
  5
1A
102
{ACAD_REACTORS
330
C
102
}
100
AcDbDictionary
281
1
  3
Model
350
4BF
  3
Layout1
350
4C0
  0
ACDBPLACEHOLDER
  5
F
102
{ACAD_REACTORS
330
E
102
}
  0
MLINESTYLE
  5
18
102
{ACAD_REACTORS
330
17
102
}
100
AcDbMlineStyle
  2
STANDARD
 70
0
  3

 62
256
 51
90.0
 52
90.0
 71
2
 49
0.5
 62
256
  6
BYLAYER
 49
-0.5
 62
256
  6
BYLAYER
  0
LAYOUT
  5
4BF
102
{ACAD_REACTORS
330
1A
102
}
100
AcDbPlotSettings
  1

  2
none_device
  4

  6

 40
0.0
 41
0.0
 42
0.0
 43
0.0
 44
210.0
 45
297.0
 46
0.0
 47
0.0
 48
0.0
 49
0.0
140
0.0
141
0.0
142
1.0
143
1.0
 70
1024
 72
1
 73
0
 74
0
  7

 75
0
147
1.0
148
0.0
149
0.0
100
AcDbLayout
  1
Model
 70
0
 71
0
 10
0.0
 20
0.0
 11
210.0
 21
297.0
 12
0.0
 22
0.0
 32
0.0
 14
0.0
 24
0.0
 34
0.0
 15
0.0
 25
0.0
 35
0.0
146
0.0
 13
0.0
 23
0.0
 33
0.0
 16
1.0
 26
0.0
 36
0.0
 17
0.0
 27
1.0
 37
0.0
 76
0
330
210
345
0
346
0
  0
LAYOUT
  5
4C0
102
{ACAD_REACTORS
330
1A
102
}
100
AcDbPlotSettings
  1

  2
none_device
  4

  6

 40
0.0
 41
0.0
 42
0.0
 43
0.0
 44
210.0
 45
297.0
 46
0.0
 47
0.0
 48
0.0
 49
0.0
140
0.0
141
0.0
142
1.0
143
1.0
 70
0
 72
1
 73
0
 74
0
  7

 75
0
147
1.0
148
0.0
149
0.0
100
AcDbLayout
  1
Layout1
 70
0
 71
1
 10
0.0
 20
0.0
 11
210.0
 21
297.0
 12
0.0
 22
0.0
 32
0.0
 14
0.0
 24
0.0
 34
0.0
 15
0.0
 25
0.0
 35
0.0
146
0.0
 13
0.0
 23
0.0
 33
0.0
 16
1.0
 26
0.0
 36
0.0
 17
0.0
 27
1.0
 37
0.0
 76
0
330
211
345
0
346
0
  0
ENDSEC
  0
EOF
