999
DXF file: C:\Users\sesa63760\Dev\_Creo\CAD\MCADPD0005308_3D-CAD\drw0001_5.dxf
999
Pro/ENGINEER 2019471 by Parametric Technology Corporation
  0
SECTION
  2
HEADER
  9
$ACADVER
  1
AC1024
  9
$DWGCODEPAGE
  3
ANSI_1252
  9
$EXTMAX
 10
197.5931427565
 20
279.4531590414
 30
0.0
  9
$EXTMIN
 10
0.0
 20
0.0
 30
0.0
  9
$LIMMIN
 10
0.0
 20
0.0
  9
$LIMMAX
 10
197.5931427565
 20
279.4531590414
  9
$VIEWCTR
 10
98.7965713783
 20
139.7265795207
  9
$VIEWSIZE
 40
279.4531590414
  9
$CLAYER
  8
0
  9
$LTSCALE
 40
18.2162059227
  9
$CELTYPE
  6
BYLAYER
  9
$DIMSCALE
 40
1.0
  9
$DIMASZ
 40
2.3522993185
  9
$DIMEXO
 40
1.0
  9
$DIMDLI
 40
12.5857422739
  9
$DIMEXE
 40
1.0
  9
$DIMCEN
 40
2.9808336964
  9
$DIMLFAC
 40
1.0
  9
$DIMBLK
  1
_FILLED
  9
$DIMALT
 70
0
  9
$DIMALTF
 40
0.0393700787
  9
$DIMTXT
 40
3.2932190459
  9
$DIMTOL
 70
1
  9
$DIMLIM
 70
0
  9
$DIMTFAC
 40
1.0
  9
$DIMTP
 40
0.01
  9
$DIMTM
 40
0.01
  9
$DIMGAP
 40
0.625
  9
$DIMDSEP
 70
46
  9
$AUNITS
 70
0
  9
$PDMODE
 70
3
  9
$PDSIZE
 40
0.3125
  9
$HANDSEED
  5
271
  9
$TILEMODE
 70
1
  9
$MEASUREMENT
 70
1
  9
$INSUNITS
 70
4
  0
ENDSEC
  0
SECTION
  2
CLASSES
  0
CLASS
  1
ACDBDICTIONARYWDFLT
  2
AcDbDictionaryWithDefault
  3
AutoCAD 2000
 90
0
 91
1
280
0
281
0
  0
CLASS
  1
ACDBPLACEHOLDER
  2
AcDbPlaceHolder
  3
AutoCAD 2000
 90
0
 91
1
280
0
281
0
  0
CLASS
  1
LAYOUT
  2
AcDbLayout
  3
AutoCAD 2000
 90
0
 91
0
280
0
281
0
  0
ENDSEC
  0
SECTION
  2
TABLES
  0
TABLE
  2
VPORT
  5
8
100
AcDbSymbolTable
 70
2
  0
VPORT
  5
1F4
100
AcDbSymbolTableRecord
100
AcDbViewportTableRecord
  2
*ACTIVE
 70
0
 10
0.0
 20
0.0
 11
1.0
 21
1.0
 12
98.7965713783
 22
139.7265795207
 13
0.0
 23
0.0
 14
1.0
 24
1.0
 15
0.0
 25
0.0
 16
0.0
 26
0.0
 36
1.0
 17
0.0
 27
0.0
 37
0.0
 40
279.4531590414
 41
0.7070707071
 42
50.0
 43
0.0
 44
0.0
 50
0.0
 51
0.0
 71
0
 72
100
 73
1
 74
1
 75
0
 76
0
 77
0
 78
0
  0
ENDTAB
  0
TABLE
  2
LTYPE
  5
5
100
AcDbSymbolTable
 70
6
  0
LTYPE
  5
14
100
AcDbSymbolTableRecord
100
AcDbLinetypeTableRecord
  2
BYBLOCK
 70
0
  3

 72
65
 73
0
 40
0.0
  0
LTYPE
  5
15
100
AcDbSymbolTableRecord
100
AcDbLinetypeTableRecord
  2
BYLAYER
 70
0
  3

 72
65
 73
0
 40
0.0
  0
LTYPE
  5
16
100
AcDbSymbolTableRecord
100
AcDbLinetypeTableRecord
  2
CONTINUOUS
 70
64
  3
Solid line
 72
65
 73
0
 40
0.0
  0
LTYPE
  5
1F5
100
AcDbSymbolTableRecord
100
AcDbLinetypeTableRecord
  2
CENTER
 70
64
  3
____ _ ____ _ ____ _ ____ _ ____ _ ____ _ ____
 72
65
 73
4
 40
0.6
 49
0.375
 74
0
 49
-0.075
 74
0
 49
0.075
 74
0
 49
-0.075
 74
0
  0
LTYPE
  5
1F6
100
AcDbSymbolTableRecord
100
AcDbLinetypeTableRecord
  2
HIDDEN
 70
64
  3
- - - - - - - - - - - - - - - - - - - -
 72
65
 73
2
 40
0.2
 49
0.1
 74
0
 49
-0.1
 74
0
  0
LTYPE
  5
1F7
100
AcDbSymbolTableRecord
100
AcDbLinetypeTableRecord
  2
PHANTOM
 70
64
  3
_____ _ _ _____ _ _ _____ _ _ _____
 72
65
 73
6
 40
0.8
 49
0.45
 74
0
 49
-0.05
 74
0
 49
0.1
 74
0
 49
-0.05
 74
0
 49
0.1
 74
0
 49
-0.05
 74
0
  0
LTYPE
  5
1F8
100
AcDbSymbolTableRecord
100
AcDbLinetypeTableRecord
  2
DOT
 70
64
  3
. . . . . . . . . . . . . . . . . . . .
 72
65
 73
2
 40
0.2
 49
0.1
 74
0
 49
-0.1
 74
0
  0
LTYPE
  5
1F9
100
AcDbSymbolTableRecord
100
AcDbLinetypeTableRecord
  2
DASHED
 70
64
  3
- - - - - - - - - - - - - - - - - - - -
 72
65
 73
2
 40
0.2
 49
0.1
 74
0
 49
-0.1
 74
0
  0
ENDTAB
  0
TABLE
  2
LAYER
  5
2
100
AcDbSymbolTable
 70
36
  0
LAYER
  5
10
100
AcDbSymbolTableRecord
100
AcDbLayerTableRecord
  2
0
 70
0
 62
7
  6
CONTINUOUS
370
-3
390
F
  0
LAYER
  5
1FA
100
AcDbSymbolTableRecord
100
AcDbLayerTableRecord
  2
DEFAULT_1
 70
0
 62
7
  6
CENTER
370
-3
390
F
  0
LAYER
  5
1FB
100
AcDbSymbolTableRecord
100
AcDbLayerTableRecord
  2
DEFAULT_2
 70
0
 62
7
  6
HIDDEN
370
-3
390
F
  0
LAYER
  5
1FC
100
AcDbSymbolTableRecord
100
AcDbLayerTableRecord
  2
DEFAULT_3
 70
0
 62
7
  6
PHANTOM
370
-3
390
F
  0
LAYER
  5
1FD
100
AcDbSymbolTableRecord
100
AcDbLayerTableRecord
  2
00_COMPONENTS
 70
0
 62
7
  6
CONTINUOUS
370
-3
390
F
  0
LAYER
  5
1FE
100
AcDbSymbolTableRecord
100
AcDbLayerTableRecord
  2
01_1_DEFAULT_DATUMS
 70
0
 62
7
  6
CONTINUOUS
370
-3
390
F
  0
LAYER
  5
1FF
100
AcDbSymbolTableRecord
100
AcDbLayerTableRecord
  2
01_PLANES
 70
0
 62
7
  6
CONTINUOUS
370
-3
390
F
  0
LAYER
  5
200
100
AcDbSymbolTableRecord
100
AcDbLayerTableRecord
  2
02_COORD_SYS
 70
0
 62
7
  6
CONTINUOUS
370
-3
390
F
  0
LAYER
  5
201
100
AcDbSymbolTableRecord
100
AcDbLayerTableRecord
  2
03_AXES
 70
0
 62
7
  6
CONTINUOUS
370
-3
390
F
  0
LAYER
  5
202
100
AcDbSymbolTableRecord
100
AcDbLayerTableRecord
  2
04_POINTS
 70
0
 62
7
  6
CONTINUOUS
370
-3
390
F
  0
LAYER
  5
203
100
AcDbSymbolTableRecord
100
AcDbLayerTableRecord
  2
05_CURVES
 70
0
 62
7
  6
CONTINUOUS
370
-3
390
F
  0
LAYER
  5
204
100
AcDbSymbolTableRecord
100
AcDbLayerTableRecord
  2
06_SURFS
 70
0
 62
7
  6
CONTINUOUS
370
-3
390
F
  0
LAYER
  5
205
100
AcDbSymbolTableRecord
100
AcDbLayerTableRecord
  2
07_COSMETICS
 70
0
 62
7
  6
CONTINUOUS
370
-3
390
F
  0
LAYER
  5
206
100
AcDbSymbolTableRecord
100
AcDbLayerTableRecord
  2
10_NOTES
 70
0
 62
7
  6
CONTINUOUS
370
-3
390
F
  0
LAYER
  5
207
100
AcDbSymbolTableRecord
100
AcDbLayerTableRecord
  2
11_NOTES_PUB
 70
0
 62
7
  6
CONTINUOUS
370
-3
390
F
  0
LAYER
  5
208
100
AcDbSymbolTableRecord
100
AcDbLayerTableRecord
  2
13_REF_GTOL
 70
0
 62
7
  6
CONTINUOUS
370
-3
390
F
  0
LAYER
  5
209
100
AcDbSymbolTableRecord
100
AcDbLayerTableRecord
  2
16_MISC
 70
0
 62
7
  6
CONTINUOUS
370
-3
390
F
  0
LAYER
  5
20A
100
AcDbSymbolTableRecord
100
AcDbLayerTableRecord
  2
17_NO_PRINT
 70
0
 62
7
  6
CONTINUOUS
370
-3
390
F
  0
LAYER
  5
20B
100
AcDbSymbolTableRecord
100
AcDbLayerTableRecord
  2
18_DATUM_CAMS_JOINTS
 70
0
 62
7
  6
CONTINUOUS
370
-3
390
F
  0
LAYER
  5
20C
100
AcDbSymbolTableRecord
100
AcDbLayerTableRecord
  2
19_DATUM_FUNCTIONAL
 70
0
 62
7
  6
CONTINUOUS
370
-3
390
F
  0
LAYER
  5
20D
100
AcDbSymbolTableRecord
100
AcDbLayerTableRecord
  2
20_DATUM_KINEMATIC_SCHEME
 70
0
 62
7
  6
CONTINUOUS
370
-3
390
F
  0
ENDTAB
  0
TABLE
  2
STYLE
  5
3
100
AcDbSymbolTable
 70
1
  0
STYLE
  5
11
100
AcDbSymbolTableRecord
100
AcDbTextStyleTableRecord
  2
STANDARD
 70
0
 40
0.0
 41
1.0
 50
0.0
 71
0
 42
0.2
  3
ARIAL.TTF
  4

  0
STYLE
  5
20E
100
AcDbSymbolTableRecord
100
AcDbTextStyleTableRecord
  2
TEXTSTYLE_1
 70
0
 40
0.0
 41
0.8
 50
0.0
 71
0
 42
0.2
  3
gdt
  4

  0
ENDTAB
  0
TABLE
  2
VIEW
  5
6
100
AcDbSymbolTable
 70
0
  0
ENDTAB
  0
TABLE
  2
UCS
  5
7
100
AcDbSymbolTable
 70
0
  0
ENDTAB
  0
TABLE
  2
APPID
  5
9
100
AcDbSymbolTable
 70
1
  0
APPID
  5
20F
100
AcDbSymbolTableRecord
100
AcDbRegAppTableRecord
  2
ACAD
 70
0
  0
ENDTAB
  0
TABLE
  2
BLOCK_RECORD
  5
1
100
AcDbSymbolTable
 70
0
  0
BLOCK_RECORD
  5
210
100
AcDbSymbolTableRecord
100
AcDbBlockTableRecord
  2
*Model_Space
  0
BLOCK_RECORD
  5
211
100
AcDbSymbolTableRecord
100
AcDbBlockTableRecord
  2
*Paper_Space
  0
BLOCK_RECORD
  5
212
100
AcDbSymbolTableRecord
100
AcDbBlockTableRecord
  2
_FILLED
  0
ENDTAB
  0
TABLE
  2
DIMSTYLE
  5
A
100
AcDbSymbolTable
 70
1
100
AcDbDimStyleTable
 71
0
  0
DIMSTYLE
105
213
100
AcDbSymbolTableRecord
100
AcDbDimStyleTableRecord
  2
STANDARD
 70
0
  3

  4

 40
1.0
 41
2.3522993185
 42
1.0
 43
0.38
 44
1.0
 45
0.0
 46
0.0
 47
0.01
 48
0.01
140
3.2932190459
141
0.09
142
0.0
143
25.4
144
1.0
145
0.0
146
1.0
147
0.625
 71
1
 72
0
 73
0
 74
0
 75
0
 76
0
 77
1
 78
8
 79
2
170
0
171
1
172
0
173
0
174
0
175
0
176
0
177
0
178
0
270
2
179
2
271
2
272
2
273
2
274
2
275
0
280
0
281
0
282
0
283
1
284
8
285
0
286
0
287
3
288
0
340
11
278
46
341
212
342
212
343
212
344
212
  0
ENDTAB
  0
ENDSEC
  0
SECTION
  2
BLOCKS
  0
BLOCK
  5
20
100
AcDbEntity
  8
0
100
AcDbBlockBegin
  2
*Model_Space
 70
0
 10
0.0
 20
0.0
 30
0.0
  3
*Model_Space
  1

  0
ENDBLK
  5
21
100
AcDbEntity
  8
0
100
AcDbBlockEnd
  0
BLOCK
  5
1C
100
AcDbEntity
  8
0
100
AcDbBlockBegin
  2
*Paper_Space
 70
0
 10
0.0
 20
0.0
 30
0.0
  3
*Paper_Space
  1

  0
ENDBLK
  5
1D
100
AcDbEntity
  8
0
100
AcDbBlockEnd
  0
BLOCK
  5
214
100
AcDbEntity
  8
0
100
AcDbBlockBegin
  2
_FILLED
 70
64
 10
0.0
 20
0.0
  3
_FILLED
  1

  0
SOLID
  5
215
100
AcDbEntity
  8
0
  6
BYBLOCK
 62
0
100
AcDbTrace
 10
0.0
 20
0.0
 11
-1.0
 21
0.25
 12
-1.0
 22
-0.25
 13
-1.0
 23
-0.25
  0
ENDBLK
  5
216
100
AcDbEntity
  8
0
  6
BYBLOCK
 62
0
100
AcDbBlockEnd
  0
ENDSEC
  0
SECTION
  2
ENTITIES
  0
LINE
  5
217
100
AcDbEntity
  8
0
100
AcDbLine
 62
7
  6
BYLAYER
 10
23.0329548205
 20
116.748627451
 11
23.0329548205
 21
164.718627451
  0
LINE
  5
218
100
AcDbEntity
  8
0
100
AcDbLine
 62
7
  6
BYLAYER
 10
24.6829548205
 20
64.818627451
 11
24.6829548205
 21
116.748627451
  0
LINE
  5
219
100
AcDbEntity
  8
0
100
AcDbLine
 62
7
  6
BYLAYER
 10
28.5329549396
 20
170.218627451
 11
28.5329965193
 21
116.748627451
  0
LINE
  5
21A
100
AcDbEntity
  8
0
100
AcDbLine
 62
7
  6
BYLAYER
 10
28.6829548205
 20
116.748627451
 11
28.6829548205
 21
64.818627451
  0
LINE
  5
21B
100
AcDbEntity
  8
0
100
AcDbLine
 62
7
  6
BYLAYER
 10
24.6829548205
 20
64.818627451
 11
178.3829548205
 21
64.818627451
  0
LINE
  5
21C
100
AcDbEntity
  8
0
100
AcDbLine
 62
7
  6
BYLAYER
 10
71.5329548205
 20
170.218627451
 11
71.5329548205
 21
174.518627451
  0
LINE
  5
21D
100
AcDbEntity
  8
0
100
AcDbLine
 62
7
  6
BYLAYER
 10
74.5329548205
 20
170.218627451
 11
74.5329548205
 21
175.518627451
  0
LINE
  5
21E
100
AcDbEntity
  8
0
100
AcDbLine
 62
7
  6
BYLAYER
 10
79.0329548205
 20
175.518627451
 11
79.0329548205
 21
213.318627451
  0
LINE
  5
21F
100
AcDbEntity
  8
0
100
AcDbLine
 62
7
  6
BYLAYER
 10
23.0329548205
 20
116.748627451
 11
28.6829548205
 21
116.748627451
  0
LINE
  5
220
100
AcDbEntity
  8
0
100
AcDbLine
 62
7
  6
BYLAYER
 10
174.3829548205
 20
116.748627451
 11
180.0329548205
 21
116.748627451
  0
LINE
  5
221
100
AcDbEntity
  8
0
100
AcDbLine
 62
7
  6
BYLAYER
 10
81.8418762111
 20
197.0998334933
 11
81.7491574544
 21
213.3884264445
  0
LINE
  5
222
100
AcDbEntity
  8
0
100
AcDbLine
 62
7
  6
BYLAYER
 10
81.7491598103
 20
215.318627451
 11
81.7491598103
 21
213.3884264445
  0
LINE
  5
223
100
AcDbEntity
  8
0
100
AcDbLine
 62
7
  6
BYLAYER
 10
87.6329548205
 20
213.318627451
 11
87.6329548205
 21
215.318627451
  0
LINE
  5
224
100
AcDbEntity
  8
0
100
AcDbLine
 62
7
  6
BYLAYER
 10
88.0329548205
 20
213.318627451
 11
88.0329548205
 21
215.318627451
  0
LINE
  5
225
100
AcDbEntity
  8
0
100
AcDbLine
 62
7
  6
BYLAYER
 10
92.0380272857
 20
147.518627451
 11
92.0380272849
 21
162.2068219312
  0
LINE
  5
226
100
AcDbEntity
  8
0
100
AcDbLine
 62
7
  6
BYLAYER
 10
95.0329548205
 20
147.1823517103
 11
95.0329548205
 21
167.1009359974
  0
LINE
  5
227
100
AcDbEntity
  8
0
100
AcDbLine
 62
7
  6
BYLAYER
 10
95.0329548205
 20
167.218627451
 11
95.0329548205
 21
170.218627451
  0
LINE
  5
228
100
AcDbEntity
  8
0
100
AcDbLine
 62
7
  6
BYLAYER
 10
91.5442592868
 20
147.518627451
 11
92.0380272849
 21
162.2068219312
  0
LINE
  5
229
100
AcDbEntity
  8
0
100
AcDbLine
 62
7
  6
BYLAYER
 10
180.0329548205
 20
141.0320939715
 11
23.0329548205
 21
141.0320939715
  0
LINE
  5
22A
100
AcDbEntity
  8
0
100
AcDbLine
 62
7
  6
BYLAYER
 10
108.0329548205
 20
170.218627451
 11
108.0329548205
 21
167.218627451
  0
LINE
  5
22B
100
AcDbEntity
  8
0
100
AcDbLine
 62
7
  6
BYLAYER
 10
108.0329548205
 20
147.1823517103
 11
108.0329548205
 21
167.1009359974
  0
LINE
  5
22C
100
AcDbEntity
  8
0
100
AcDbLine
 62
7
  6
BYLAYER
 10
28.5329548205
 20
143.7820939715
 11
174.5329548205
 21
143.7820939715
  0
LINE
  5
22D
100
AcDbEntity
  8
0
100
AcDbLine
 62
7
  6
BYLAYER
 10
111.458720912
 20
147.1823517103
 11
91.607188729
 21
147.1823517103
  0
LINE
  5
22E
100
AcDbEntity
  8
0
100
AcDbLine
 62
7
  6
BYLAYER
 10
91.5442592868
 20
147.518627451
 11
111.5216503543
 21
147.518627451
  0
LINE
  5
22F
100
AcDbEntity
  8
0
100
AcDbLine
 62
7
  6
BYLAYER
 10
111.5216503543
 20
147.518627451
 11
111.0278823562
 21
162.2068219312
  0
LINE
  5
230
100
AcDbEntity
  8
0
100
AcDbLine
 62
7
  6
BYLAYER
 10
111.0278823564
 20
147.518627451
 11
111.0278823562
 21
162.2068219312
  0
LINE
  5
231
100
AcDbEntity
  8
0
100
AcDbLine
 62
7
  6
BYLAYER
 10
121.3167498293
 20
215.318627451
 11
121.3167498293
 21
213.3884264444
  0
LINE
  5
232
100
AcDbEntity
  8
0
100
AcDbLine
 62
7
  6
BYLAYER
 10
124.0329548205
 20
175.518627451
 11
124.0329548205
 21
213.318627451
  0
LINE
  5
233
100
AcDbEntity
  8
0
100
AcDbLine
 62
7
  6
BYLAYER
 10
121.316750734
 20
213.3884264445
 11
121.22403343
 21
197.0998334933
  0
LINE
  5
234
100
AcDbEntity
  8
0
100
AcDbLine
 62
7
  6
BYLAYER
 10
128.5329548205
 20
170.218627451
 11
128.5329548205
 21
175.518627451
  0
LINE
  5
235
100
AcDbEntity
  8
0
100
AcDbLine
 62
7
  6
BYLAYER
 10
95.0329548205
 20
167.1009359974
 11
108.0329548205
 21
167.1009359974
  0
LINE
  5
236
100
AcDbEntity
  8
0
100
AcDbLine
 62
7
  6
BYLAYER
 10
108.0329548205
 20
167.218627451
 11
95.0329548205
 21
167.218627451
  0
LINE
  5
237
100
AcDbEntity
  8
0
100
AcDbLine
 62
7
  6
BYLAYER
 10
174.5329546554
 20
168.2186274484
 11
108.0329548205
 21
168.218627451
  0
LINE
  5
238
100
AcDbEntity
  8
0
100
AcDbLine
 62
7
  6
BYLAYER
 10
95.0329548205
 20
168.218627451
 11
28.5329549052
 21
168.2186274429
  0
LINE
  5
239
100
AcDbEntity
  8
0
100
AcDbLine
 62
7
  6
BYLAYER
 10
95.0329548205
 20
169.218627451
 11
108.0329548205
 21
169.218627451
  0
LINE
  5
23A
100
AcDbEntity
  8
0
100
AcDbLine
 62
7
  6
BYLAYER
 10
131.5329548205
 20
170.218627451
 11
131.5329548205
 21
174.518627451
  0
LINE
  5
23B
100
AcDbEntity
  8
0
100
AcDbLine
 62
7
  6
BYLAYER
 10
28.5329548295
 20
170.218627451
 11
95.0329548205
 21
170.218627451
  0
LINE
  5
23C
100
AcDbEntity
  8
0
100
AcDbLine
 62
7
  6
BYLAYER
 10
108.0329548205
 20
170.218627451
 11
174.5329548124
 21
170.218627451
  0
LINE
  5
23D
100
AcDbEntity
  8
0
100
AcDbLine
 62
7
  6
BYLAYER
 10
131.5329548205
 20
174.518627451
 11
71.5329548205
 21
174.518627451
  0
LINE
  5
23E
100
AcDbEntity
  8
0
100
AcDbLine
 62
7
  6
BYLAYER
 10
72.5329548205
 20
175.518627451
 11
130.5329548205
 21
175.518627451
  0
LINE
  5
23F
100
AcDbEntity
  8
0
100
AcDbLine
 62
7
  6
BYLAYER
 10
111.3571877615
 20
183.018627451
 11
91.7087218773
 21
183.018627451
  0
LINE
  5
240
100
AcDbEntity
  8
0
100
AcDbLine
 62
7
  6
BYLAYER
 10
110.2656063207
 20
185.518627451
 11
92.8003033208
 21
185.518627451
  0
LINE
  5
241
100
AcDbEntity
  8
0
100
AcDbLine
 62
7
  6
BYLAYER
 10
81.8418762111
 20
197.0998334933
 11
121.22403343
 21
197.0998334933
  0
LINE
  5
242
100
AcDbEntity
  8
0
100
AcDbLine
 62
7
  6
BYLAYER
 10
174.3829548205
 20
64.818627451
 11
174.3829548205
 21
116.748627451
  0
LINE
  5
243
100
AcDbEntity
  8
0
100
AcDbLine
 62
7
  6
BYLAYER
 10
174.5329131218
 20
116.748627451
 11
174.5329545351
 21
170.218627451
  0
LINE
  5
244
100
AcDbEntity
  8
0
100
AcDbLine
 62
7
  6
BYLAYER
 10
124.0329548205
 20
213.318627451
 11
123.7898262305
 21
213.318627451
  0
LINE
  5
245
100
AcDbEntity
  8
0
100
AcDbLine
 62
7
  6
BYLAYER
 10
79.2760833733
 20
213.318627451
 11
79.0329548205
 21
213.318627451
  0
LINE
  5
246
100
AcDbEntity
  8
0
100
AcDbLine
 62
7
  6
BYLAYER
 10
87.6329548205
 20
213.318627451
 11
88.0329548205
 21
213.318627451
  0
LINE
  5
247
100
AcDbEntity
  8
0
100
AcDbLine
 62
7
  6
BYLAYER
 10
121.316750734
 20
213.3884264445
 11
88.0329548205
 21
213.3884264444
  0
LINE
  5
248
100
AcDbEntity
  8
0
100
AcDbLine
 62
7
  6
BYLAYER
 10
87.6329548205
 20
213.3884264444
 11
81.7491574544
 21
213.3884264445
  0
LINE
  5
249
100
AcDbEntity
  8
0
100
AcDbLine
 62
7
  6
BYLAYER
 10
178.3829548205
 20
116.748627451
 11
178.3829548205
 21
64.818627451
  0
LINE
  5
24A
100
AcDbEntity
  8
0
100
AcDbLine
 62
7
  6
BYLAYER
 10
180.0329548205
 20
116.748627451
 11
180.0329548205
 21
164.718627451
  0
LINE
  5
24B
100
AcDbEntity
  8
0
100
AcDbLine
 62
7
  6
BYLAYER
 10
81.0329774533
 20
215.318627451
 11
122.0329539701
 21
215.318627451
  0
CIRCLE
  5
24C
100
AcDbEntity
  8
0
100
AcDbCircle
 62
7
  6
BYLAYER
 10
143.5329548205
 20
91.868627451
 40
16.25
  0
CIRCLE
  5
24D
100
AcDbEntity
  8
0
100
AcDbCircle
 62
7
  6
BYLAYER
 10
59.5329548205
 20
91.868627451
 40
16.25
  0
CIRCLE
  5
24E
100
AcDbEntity
  8
0
100
AcDbCircle
 62
7
  6
BYLAYER
 10
59.5329548205
 20
91.868627451
 40
15.75
  0
CIRCLE
  5
24F
100
AcDbEntity
  8
0
100
AcDbCircle
 62
7
  6
BYLAYER
 10
143.5329548205
 20
91.868627451
 40
15.75
  0
ARC
  5
250
100
AcDbEntity
  8
0
100
AcDbCircle
 62
7
  6
BYLAYER
 10
28.5329548205
 20
164.718627451
 40
5.5
100
AcDbArc
 50
90.0
 51
180.0
  0
ARC
  5
251
100
AcDbEntity
  8
0
100
AcDbCircle
 62
7
  6
BYLAYER
 10
174.5329548205
 20
164.718627451
 40
5.5
100
AcDbArc
 50
0.0
 51
90.0
  0
ARC
  5
252
100
AcDbEntity
  8
0
100
AcDbCircle
 62
7
  6
BYLAYER
 10
81.0329548205
 20
213.318627451
 40
2.0
100
AcDbArc
 50
90.0
 51
180.0
  0
ARC
  5
253
100
AcDbEntity
  8
0
100
AcDbCircle
 62
7
  6
BYLAYER
 10
122.0329548205
 20
213.318627451
 40
2.0
100
AcDbArc
 50
0.0
 51
90.0
  0
ARC
  5
254
100
AcDbEntity
  8
0
100
AcDbCircle
 62
7
  6
BYLAYER
 10
121.8107815205
 20
213.3685813455
 40
1.9500462159
100
AcDbArc
 50
83.9072682387
 51
89.9807210789
  0
ARC
  5
255
100
AcDbEntity
  8
0
100
AcDbCircle
 62
7
  6
BYLAYER
 10
130.5329548205
 20
174.518627451
 40
1.0
100
AcDbArc
 50
0.0
 51
90.0
  0
ARC
  5
256
100
AcDbEntity
  8
0
100
AcDbCircle
 62
7
  6
BYLAYER
 10
72.5329548205
 20
174.518627451
 40
1.0
100
AcDbArc
 50
90.0
 51
180.0
  0
SPLINE
  5
257
100
AcDbEntity
  8
0
100
AcDbSpline
 62
7
  6
BYLAYER
 70
0
 71
3
 72
8
 73
4
 74
0
 42
0.0000001
 43
0.0000001
 44
0.0000000001
 40
0.0
 40
0.0
 40
0.0
 40
0.0
 40
1.0
 40
1.0
 40
1.0
 40
1.0
 10
92.1249162154
 20
147.1557382146
 30
0.0
 10
92.068542562
 20
147.2666117085
 30
0.0
 10
92.0380272849
 20
147.3942452961
 30
0.0
 10
92.0380272849
 20
147.518627451
 30
0.0
  0
SPLINE
  5
258
100
AcDbEntity
  8
0
100
AcDbSpline
 62
7
  6
BYLAYER
 70
0
 71
3
 72
14
 73
10
 74
0
 42
0.0000001
 43
0.0000001
 44
0.0000000001
 40
0.0
 40
0.0
 40
0.0
 40
0.0
 40
0.0822351311
 40
0.173041999
 40
0.2777238379
 40
0.3982143994
 40
0.5337498712
 40
0.6817840263
 40
1.0
 40
1.0
 40
1.0
 40
1.0
 10
23.0329548205
 20
141.0320939715
 30
0.0
 10
23.0329548205
 20
141.2143091371
 30
0.0
 10
23.1136239951
 20
141.6006309294
 30
0.0
 10
23.4495054618
 20
142.1277419144
 30
0.0
 10
23.9736757145
 20
142.6011545391
 30
0.0
 10
24.6642727759
 20
143.0111876252
 30
0.0
 10
25.4977198611
 20
143.3461747196
 30
0.0
 10
26.7896416199
 20
143.6854139084
 30
0.0
 10
27.8278574727
 20
143.7820939742
 30
0.0
 10
28.5329548629
 20
143.7820939715
 30
0.0
  0
SPLINE
  5
259
100
AcDbEntity
  8
0
100
AcDbSpline
 62
7
  6
BYLAYER
 70
0
 71
3
 72
19
 73
15
 74
0
 42
0.0000001
 43
0.0000001
 44
0.0000000001
 40
0.0
 40
0.0
 40
0.0
 40
0.0
 40
0.146667835
 40
0.2834543759
 40
0.3461447621
 40
0.4046436637
 40
0.4593813604
 40
0.5115653926
 40
0.5629482826
 40
0.6154248514
 40
0.6705197885
 40
0.729123252
 40
0.857662697
 40
1.0
 40
1.0
 40
1.0
 40
1.0
 10
121.2240403855
 20
197.0998334412
 30
0.0
 10
121.2170175859
 20
196.1641746504
 30
0.0
 10
121.1607772073
 20
194.3563237938
 30
0.0
 10
120.9316548565
 20
192.154442117
 30
0.0
 10
120.5718755854
 20
190.5462026689
 30
0.0
 10
120.2102209874
 20
189.4806049912
 30
0.0
 10
119.728589981
 20
188.536573638
 30
0.0
 10
119.1163392126
 20
187.7257484366
 30
0.0
 10
118.3664952168
 20
187.0612019075
 30
0.0
 10
117.4908635562
 20
186.5393589961
 30
0.0
 10
116.5005991872
 20
186.1505753545
 30
0.0
 10
114.9996590307
 20
185.7703418556
 30
0.0
 10
112.9017038265
 20
185.5456771441
 30
0.0
 10
111.1736669013
 20
185.5186413966
 30
0.0
 10
110.2656089068
 20
185.518627451
 30
0.0
  0
SPLINE
  5
25A
100
AcDbEntity
  8
0
100
AcDbSpline
 62
7
  6
BYLAYER
 70
0
 71
3
 72
8
 73
4
 74
0
 42
0.0000001
 43
0.0000001
 44
0.0000000001
 40
0.0
 40
0.0
 40
0.0
 40
0.0
 40
1.0
 40
1.0
 40
1.0
 40
1.0
 10
111.0278823562
 20
147.518627451
 30
0.0
 10
111.0278823562
 20
147.3942452961
 30
0.0
 10
110.9973670791
 20
147.2666117085
 30
0.0
 10
110.9409934256
 20
147.1557382146
 30
0.0
  0
SPLINE
  5
25B
100
AcDbEntity
  8
0
100
AcDbSpline
 62
7
  6
BYLAYER
 70
0
 71
3
 72
19
 73
15
 74
0
 42
0.0000001
 43
0.0000001
 44
0.0000000001
 40
0.0
 40
0.0
 40
0.0
 40
0.0
 40
0.1423165673
 40
0.2708395026
 40
0.3294461726
 40
0.3845507737
 40
0.43703976
 40
0.4884326458
 40
0.5406211481
 40
0.5953620156
 40
0.6538650964
 40
0.7165514599
 40
0.8533090589
 40
1.0
 40
1.0
 40
1.0
 40
1.0
 10
92.800299532
 20
185.518627451
 30
0.0
 10
91.8923750451
 20
185.5186388799
 30
0.0
 10
90.164577152
 20
185.5456172294
 30
0.0
 10
88.066838743
 20
185.7702321603
 30
0.0
 10
86.5659144893
 20
186.1504212387
 30
0.0
 10
85.5754830038
 20
186.5392160933
 30
0.0
 10
84.6996433666
 20
187.0611058344
 30
0.0
 10
83.9496120024
 20
187.7257010025
 30
0.0
 10
83.3372680064
 20
188.5366020902
 30
0.0
 10
82.8556379758
 20
189.4807194359
 30
0.0
 10
82.4940118519
 20
190.546345598
 30
0.0
 10
82.1342535153
 20
192.1543990639
 30
0.0
 10
81.9051912542
 20
194.3562206608
 30
0.0
 10
81.8489021277
 20
196.164028573
 30
0.0
 10
81.8418660218
 20
197.0998334168
 30
0.0
  0
SPLINE
  5
25C
100
AcDbEntity
  8
0
100
AcDbSpline
 62
7
  6
BYLAYER
 70
0
 71
3
 72
20
 73
16
 74
0
 42
0.0000001
 43
0.0000001
 44
0.0000000001
 40
0.0
 40
0.0
 40
0.0
 40
0.0
 40
0.1558583687
 40
0.2296538974
 40
0.2991994039
 40
0.3638243376
 40
0.4234006582
 40
0.4784504089
 40
0.530236439
 40
0.5805519909
 40
0.6313478708
 40
0.6842400057
 40
0.7402740552
 40
0.8631943906
 40
1.0
 40
1.0
 40
1.0
 40
1.0
 10
123.6854182561
 20
197.0125847502
 30
0.0
 10
123.6772986372
 20
195.8507033135
 30
0.0
 10
123.6279650311
 20
194.1379870099
 30
0.0
 10
123.4389513855
 20
191.9148610682
 30
0.0
 10
123.2250527508
 20
190.3782731089
 30
0.0
 10
122.9183029959
 20
188.9649607364
 30
0.0
 10
122.4995679599
 20
187.6925590983
 30
0.0
 10
121.9500319653
 20
186.5747361709
 30
0.0
 10
121.2569252597
 20
185.6219136635
 30
0.0
 10
120.4165623433
 20
184.8412080127
 30
0.0
 10
119.4381175747
 20
184.2289547913
 30
0.0
 10
118.3346923792
 20
183.7700064255
 30
0.0
 10
116.6619282354
 20
183.3203951843
 30
0.0
 10
114.313203641
 20
183.0535216737
 30
0.0
 10
112.3770610001
 20
183.0186369892
 30
0.0
 10
111.3571877615
 20
183.018627451
 30
0.0
  0
SPLINE
  5
25D
100
AcDbEntity
  8
0
100
AcDbSpline
 62
7
  6
BYLAYER
 70
0
 71
3
 72
15
 73
11
 74
0
 42
0.0000001
 43
0.0000001
 44
0.0000000001
 40
0.0
 40
0.0
 40
0.0
 40
0.0
 40
0.1557676056
 40
0.3159197992
 40
0.4728249296
 40
0.6178086766
 40
0.7435929107
 40
0.8474873147
 40
0.9305444333
 40
1.0
 40
1.0
 40
1.0
 40
1.0
 10
111.3571912212
 20
183.018627451
 30
0.0
 10
111.3571912151
 20
183.1705309195
 30
0.0
 10
111.3448245023
 20
183.4787328041
 30
0.0
 10
111.2885936437
 20
183.9370148759
 30
0.0
 10
111.1899063654
 20
184.3774281778
 30
0.0
 10
111.0542640514
 20
184.7731112694
 30
0.0
 10
110.8837947019
 20
185.0981230756
 30
0.0
 10
110.6917300773
 20
185.3386041603
 30
0.0
 10
110.483109074
 20
185.4845700865
 30
0.0
 10
110.3333418758
 20
185.5186274514
 30
0.0
 10
110.2656092979
 20
185.518627451
 30
0.0
  0
SPLINE
  5
25E
100
AcDbEntity
  8
0
100
AcDbSpline
 62
7
  6
BYLAYER
 70
0
 71
3
 72
9
 73
5
 74
0
 42
0.0000001
 43
0.0000001
 44
0.0000000001
 40
0.0
 40
0.0
 40
0.0
 40
0.0
 40
0.4999999448
 40
1.0
 40
1.0
 40
1.0
 40
1.0
 10
123.790006966
 20
213.3186273592
 30
0.0
 10
123.7734695207
 20
210.6009485897
 30
0.0
 10
123.737266339
 20
205.1656100691
 30
0.0
 10
123.7039140424
 20
199.7302533029
 30
0.0
 10
123.6856661482
 20
197.01258488
 30
0.0
  0
SPLINE
  5
25F
100
AcDbEntity
  8
0
100
AcDbSpline
 62
7
  6
BYLAYER
 70
0
 71
3
 72
13
 73
9
 74
0
 42
0.0000001
 43
0.0000001
 44
0.0000000001
 40
0.0
 40
0.0
 40
0.0
 40
0.0
 40
0.044893142
 40
0.1202303266
 40
0.2258278527
 40
0.3573209383
 40
0.6717572718
 40
1.0
 40
1.0
 40
1.0
 40
1.0
 10
123.6854182544
 20
197.0125847572
 30
0.0
 10
123.6492800986
 20
197.0199057473
 30
0.0
 10
123.5509198889
 20
197.0307484723
 30
0.0
 10
123.366103557
 20
197.0452737284
 30
0.0
 10
123.1097816307
 20
197.0587632906
 30
0.0
 10
122.6571709359
 20
197.0767645059
 30
0.0
 10
122.0214461414
 20
197.091908718
 30
0.0
 10
121.4936251645
 20
197.0981613978
 30
0.0
 10
121.2240335011
 20
197.0998334968
 30
0.0
  0
SPLINE
  5
260
100
AcDbEntity
  8
0
100
AcDbSpline
 62
7
  6
BYLAYER
 70
0
 71
3
 72
13
 73
9
 74
0
 42
0.0000001
 43
0.0000001
 44
0.0000000001
 40
0.0
 40
0.0
 40
0.0
 40
0.0
 40
0.2989695605
 40
0.5710540067
 40
0.6920953558
 40
0.8023678718
 40
0.9037127964
 40
1.0
 40
1.0
 40
1.0
 40
1.0
 10
28.5329548629
 20
168.2186274421
 30
0.0
 10
27.8219616793
 20
168.2166152474
 30
0.0
 10
26.4585139394
 20
168.0549519116
 30
0.0
 10
24.9064857359
 20
167.425705591
 30
0.0
 10
23.9500452498
 20
166.6941429537
 30
0.0
 10
23.4320105175
 20
166.0867032548
 30
0.0
 10
23.1076238589
 20
165.4204079181
 30
0.0
 10
23.0329548205
 20
164.94761337
 30
0.0
 10
23.0329548205
 20
164.718627451
 30
0.0
  0
SPLINE
  5
261
100
AcDbEntity
  8
0
100
AcDbSpline
 62
7
  6
BYLAYER
 70
0
 71
3
 72
11
 73
7
 74
0
 42
0.0000001
 43
0.0000001
 44
0.0000000001
 40
0.0
 40
0.0
 40
0.0
 40
0.0
 40
0.2439067402
 40
0.5033799471
 40
0.76115381
 40
1.0
 40
1.0
 40
1.0
 40
1.0
 10
122.0177553972
 20
215.307612562
 30
0.0
 10
122.2523187628
 20
215.2826370149
 30
0.0
 10
122.7312118627
 20
215.1412501384
 30
0.0
 10
123.3264454914
 20
214.6786500969
 30
0.0
 10
123.7061905969
 20
214.0338550308
 30
0.0
 10
123.7898164672
 20
213.5496225222
 30
0.0
 10
123.7898164797
 20
213.318627451
 30
0.0
  0
SPLINE
  5
262
100
AcDbEntity
  8
0
100
AcDbSpline
 62
7
  6
BYLAYER
 70
0
 71
3
 72
13
 73
9
 74
0
 42
0.0000001
 43
0.0000001
 44
0.0000000001
 40
0.0
 40
0.0
 40
0.0
 40
0.0
 40
0.0422931863
 40
0.1147066812
 40
0.2149912647
 40
0.3400577511
 40
0.6479523895
 40
1.0
 40
1.0
 40
1.0
 40
1.0
 10
123.790006966
 20
213.3186273592
 30
0.0
 10
123.7557350223
 20
213.3251780911
 30
0.0
 10
123.6612442501
 20
213.3335865482
 30
0.0
 10
123.4843898588
 20
213.345332217
 30
0.0
 10
123.2388760291
 20
213.3557774694
 30
0.0
 10
122.7991996099
 20
213.3699744083
 30
0.0
 10
122.1516306007
 20
213.3823227671
 30
0.0
 10
121.6071918738
 20
213.3872406424
 30
0.0
 10
121.316750795
 20
213.3884155825
 30
0.0
  0
SPLINE
  5
263
100
AcDbEntity
  8
0
100
AcDbSpline
 62
7
  6
BYLAYER
 70
0
 71
3
 72
9
 73
5
 74
0
 42
0.0000001
 43
0.0000001
 44
0.0000000001
 40
0.0
 40
0.0
 40
0.0
 40
0.0
 40
0.5000000654
 40
1.0
 40
1.0
 40
1.0
 40
1.0
 10
79.380447063
 20
197.0125843323
 30
0.0
 10
79.3621518474
 20
199.7302531244
 30
0.0
 10
79.3285824619
 20
205.1656097823
 30
0.0
 10
79.292155978
 20
210.6009481138
 30
0.0
 10
79.2755715262
 20
213.3186271737
 30
0.0
  0
SPLINE
  5
264
100
AcDbEntity
  8
0
100
AcDbSpline
 62
7
  6
BYLAYER
 70
0
 71
3
 72
15
 73
11
 74
0
 42
0.0000001
 43
0.0000001
 44
0.0000000001
 40
0.0
 40
0.0
 40
0.0
 40
0.0
 40
0.0694555817
 40
0.1525127227
 40
0.2564071574
 40
0.3821914198
 40
0.5271751782
 40
0.6840802963
 40
0.8442324514
 40
1.0
 40
1.0
 40
1.0
 40
1.0
 10
92.8003033468
 20
185.518627451
 30
0.0
 10
92.7325707603
 20
185.518627451
 30
0.0
 10
92.582803539
 20
185.4845700481
 30
0.0
 10
92.3741825583
 20
185.3386040075
 30
0.0
 10
92.1821180034
 20
185.0981228021
 30
0.0
 10
92.0116487504
 20
184.7731109068
 30
0.0
 10
91.8760065478
 20
184.3774277901
 30
0.0
 10
91.7773193775
 20
183.9370145464
 30
0.0
 10
91.7210885981
 20
183.478732614
 30
0.0
 10
91.7087219136
 20
183.1705308501
 30
0.0
 10
91.7087219136
 20
183.018627451
 30
0.0
  0
SPLINE
  5
265
100
AcDbEntity
  8
0
100
AcDbSpline
 62
7
  6
BYLAYER
 70
0
 71
3
 72
20
 73
16
 74
0
 42
0.0000001
 43
0.0000001
 44
0.0000000001
 40
0.0
 40
0.0
 40
0.0
 40
0.0
 40
0.1367523771
 40
0.2596293319
 40
0.3156577292
 40
0.3685641355
 40
0.4193576636
 40
0.4696705936
 40
0.5214930024
 40
0.5765673394
 40
0.6361218298
 40
0.7007671521
 40
0.7703312698
 40
0.8441232872
 40
1.0
 40
1.0
 40
1.0
 40
1.0
 10
91.7087218773
 20
183.018627451
 30
0.0
 10
90.6892573161
 20
183.0186350669
 30
0.0
 10
88.7539344923
 20
183.0534599643
 30
0.0
 10
86.4056967782
 20
183.3190624515
 30
0.0
 10
84.7337024231
 20
183.7706051094
 30
0.0
 10
83.6304672507
 20
184.2298130331
 30
0.0
 10
82.6509821825
 20
184.8402784601
 30
0.0
 10
81.8088531647
 20
185.6196618772
 30
0.0
 10
81.1167222659
 20
186.5738425373
 30
0.0
 10
80.5671129943
 20
187.6917956507
 30
0.0
 10
80.1475545097
 20
188.964122217
 30
0.0
 10
79.8409672642
 20
190.3776039933
 30
0.0
 10
79.6271041407
 20
191.9144342772
 30
0.0
 10
79.4378381636
 20
194.1377654445
 30
0.0
 10
79.388614679
 20
195.8505800737
 30
0.0
 10
79.380491385
 20
197.0125847502
 30
0.0
  0
SPLINE
  5
266
100
AcDbEntity
  8
0
100
AcDbSpline
 62
7
  6
BYLAYER
 70
0
 71
3
 72
13
 73
9
 74
0
 42
0.0000001
 43
0.0000001
 44
0.0000000001
 40
0.0
 40
0.0
 40
0.0
 40
0.0
 40
0.0448931203
 40
0.1202302704
 40
0.2258277605
 40
0.3573208206
 40
0.6717571693
 40
1.0
 40
1.0
 40
1.0
 40
1.0
 10
79.3804913882
 20
197.0125842592
 30
0.0
 10
79.4166295253
 20
197.0199052528
 30
0.0
 10
79.5149896887
 20
197.0307479864
 30
0.0
 10
79.6998059451
 20
197.0452732533
 30
0.0
 10
79.9561277938
 20
197.0587628282
 30
0.0
 10
80.408738453
 20
197.0767640639
 30
0.0
 10
81.0444633276
 20
197.0919082959
 30
0.0
 10
81.5722844051
 20
197.0981609839
 30
0.0
 10
81.8418761546
 20
197.099833085
 30
0.0
  0
SPLINE
  5
267
100
AcDbEntity
  8
0
100
AcDbSpline
 62
7
  6
BYLAYER
 70
0
 71
3
 72
11
 73
7
 74
0
 42
0.0000001
 43
0.0000001
 44
0.0000000001
 40
0.0
 40
0.0
 40
0.0
 40
0.0
 40
0.2413203093
 40
0.5017740507
 40
0.7611059649
 40
1.0
 40
1.0
 40
1.0
 40
1.0
 10
79.2760931599
 20
213.318627451
 30
0.0
 10
79.2760931599
 20
213.5683537067
 30
0.0
 10
79.3742463335
 20
214.0925623624
 30
0.0
 10
79.8149209868
 20
214.7712485146
 30
0.0
 10
80.4865832298
 20
215.2186781585
 30
0.0
 10
81.0072565009
 20
215.3186272342
 30
0.0
 10
81.2544719677
 20
215.318627451
 30
0.0
  0
SPLINE
  5
268
100
AcDbEntity
  8
0
100
AcDbSpline
 62
7
  6
BYLAYER
 70
0
 71
3
 72
13
 73
9
 74
0
 42
0.0000001
 43
0.0000001
 44
0.0000000001
 40
0.0
 40
0.0
 40
0.0
 40
0.0
 40
0.3520345743
 40
0.6599294061
 40
0.7849986917
 40
0.8852867737
 40
0.9577037757
 40
1.0
 40
1.0
 40
1.0
 40
1.0
 10
81.7491573285
 20
213.3884138916
 30
0.0
 10
81.4586882678
 20
213.3872427406
 30
0.0
 10
80.9141874937
 20
213.3823291407
 30
0.0
 10
80.2665403707
 20
213.3699818996
 30
0.0
 10
79.8267999281
 20
213.3557851699
 30
0.0
 10
79.5812451652
 20
213.3453400054
 30
0.0
 10
79.4043589974
 20
213.3335921667
 30
0.0
 10
79.3098502252
 20
213.3251806941
 30
0.0
 10
79.2755715262
 20
213.3186271737
 30
0.0
  0
SPLINE
  5
269
100
AcDbEntity
  8
0
100
AcDbSpline
 62
7
  6
BYLAYER
 70
0
 71
3
 72
13
 73
9
 74
0
 42
0.0000001
 43
0.0000001
 44
0.0000000001
 40
0.0
 40
0.0
 40
0.0
 40
0.0
 40
0.0962732563
 40
0.197656358
 40
0.3079284901
 40
0.4289165054
 40
0.7010430437
 40
1.0
 40
1.0
 40
1.0
 40
1.0
 10
180.0329548205
 20
164.718627451
 30
0.0
 10
180.0329548205
 20
164.9475776571
 30
0.0
 10
179.9581713969
 20
165.4204083896
 30
0.0
 10
179.6338128346
 20
166.0867463084
 30
0.0
 10
179.1159647851
 20
166.6942929987
 30
0.0
 10
178.1593031792
 20
167.4256256396
 30
0.0
 10
176.6073927315
 20
168.0538971648
 30
0.0
 10
175.2439128533
 20
168.2183858592
 30
0.0
 10
174.532954738
 20
168.2186274469
 30
0.0
  0
SPLINE
  5
26A
100
AcDbEntity
  8
0
100
AcDbSpline
 62
7
  6
BYLAYER
 70
0
 71
3
 72
14
 73
10
 74
0
 42
0.0000001
 43
0.0000001
 44
0.0000000001
 40
0.0
 40
0.0
 40
0.0
 40
0.0
 40
0.3182159736
 40
0.4662501287
 40
0.6017856007
 40
0.7222761622
 40
0.8269580012
 40
0.917764869
 40
1.0
 40
1.0
 40
1.0
 40
1.0
 10
174.532954738
 20
143.7820939715
 30
0.0
 10
175.2380521321
 20
143.7820939768
 30
0.0
 10
176.2762679914
 20
143.6854139137
 30
0.0
 10
177.5681897591
 20
143.3461747266
 30
0.0
 10
178.4016368508
 20
143.0111876325
 30
0.0
 10
179.092233918
 20
142.6011545456
 30
0.0
 10
179.6164041753
 20
142.1277419195
 30
0.0
 10
179.9522856451
 20
141.6006309323
 30
0.0
 10
180.0329548205
 20
141.2143091379
 30
0.0
 10
180.0329548205
 20
141.0320939715
 30
0.0
  0
ELLIPSE
  5
26B
100
AcDbEntity
  8
0
100
AcDbEllipse
 62
7
  6
BYLAYER
 10
108.0329548205
 20
161.9047835747
 30
0.0
 11
-0.0
 21
5.1961524227
 31
0.0
 40
0.5773502692
 41
-1.5126362348
 42
0.0
  0
ELLIPSE
  5
26C
100
AcDbEntity
  8
0
100
AcDbEllipse
 62
7
  6
BYLAYER
 10
95.0329548205
 20
161.9047835747
 30
0.0
 11
-0.0
 21
5.1961524227
 31
0.0
 40
0.5773502692
 41
0.0
 42
1.5126362348
  0
ELLIPSE
  5
26D
100
AcDbEntity
  8
0
100
AcDbEllipse
 62
7
  6
BYLAYER
 10
110.7202954061
 20
147.518627451
 30
0.0
 11
-0.5947628379
 21
0.5561177042
 31
0.0
 40
0.9669299339
 41
-2.8067932551
 42
-2.3729681036
  0
ELLIPSE
  5
26E
100
AcDbEntity
  8
0
100
AcDbEllipse
 62
7
  6
BYLAYER
 10
92.345614235
 20
147.518627451
 30
0.0
 11
0.5947628379
 21
0.5561177042
 31
0.0
 40
0.9669299339
 41
-3.9102172036
 42
-3.4763920521
  0
ENDSEC
  0
SECTION
  2
OBJECTS
  0
DICTIONARY
  5
C
100
AcDbDictionary
280
0
281
1
  3
ACAD_GROUP
350
D
  3
ACAD_MLINESTYLE
350
17
  3
ACAD_LAYOUT
350
1A
  3
ACAD_PLOTSETTINGS
350
19
  3
ACAD_PLOTSTYLENAME
350
E
  0
DICTIONARY
  5
D
102
{ACAD_REACTORS
330
C
102
}
100
AcDbDictionary
280
0
281
1
  0
ACDBDICTIONARYWDFLT
  5
E
102
{ACAD_REACTORS
330
C
102
}
100
AcDbDictionary
281
1
  3
Normal
350
F
100
AcDbDictionaryWithDefault
340
F
  0
DICTIONARY
  5
17
102
{ACAD_REACTORS
330
C
102
}
100
AcDbDictionary
280
0
281
1
  3
Standard
350
18
  0
DICTIONARY
  5
19
102
{ACAD_REACTORS
330
C
102
}
100
AcDbDictionary
281
1
  0
DICTIONARY
  5
1A
102
{ACAD_REACTORS
330
C
102
}
100
AcDbDictionary
281
1
  3
Model
350
26F
  3
Layout1
350
270
  0
ACDBPLACEHOLDER
  5
F
102
{ACAD_REACTORS
330
E
102
}
  0
MLINESTYLE
  5
18
102
{ACAD_REACTORS
330
17
102
}
100
AcDbMlineStyle
  2
STANDARD
 70
0
  3

 62
256
 51
90.0
 52
90.0
 71
2
 49
0.5
 62
256
  6
BYLAYER
 49
-0.5
 62
256
  6
BYLAYER
  0
LAYOUT
  5
26F
102
{ACAD_REACTORS
330
1A
102
}
100
AcDbPlotSettings
  1

  2
none_device
  4

  6

 40
0.0
 41
0.0
 42
0.0
 43
0.0
 44
210.0
 45
297.0
 46
0.0
 47
0.0
 48
0.0
 49
0.0
140
0.0
141
0.0
142
1.0
143
1.0
 70
1024
 72
1
 73
0
 74
0
  7

 75
0
147
1.0
148
0.0
149
0.0
100
AcDbLayout
  1
Model
 70
0
 71
0
 10
0.0
 20
0.0
 11
210.0
 21
297.0
 12
0.0
 22
0.0
 32
0.0
 14
0.0
 24
0.0
 34
0.0
 15
0.0
 25
0.0
 35
0.0
146
0.0
 13
0.0
 23
0.0
 33
0.0
 16
1.0
 26
0.0
 36
0.0
 17
0.0
 27
1.0
 37
0.0
 76
0
330
210
345
0
346
0
  0
LAYOUT
  5
270
102
{ACAD_REACTORS
330
1A
102
}
100
AcDbPlotSettings
  1

  2
none_device
  4

  6

 40
0.0
 41
0.0
 42
0.0
 43
0.0
 44
210.0
 45
297.0
 46
0.0
 47
0.0
 48
0.0
 49
0.0
140
0.0
141
0.0
142
1.0
143
1.0
 70
0
 72
1
 73
0
 74
0
  7

 75
0
147
1.0
148
0.0
149
0.0
100
AcDbLayout
  1
Layout1
 70
0
 71
1
 10
0.0
 20
0.0
 11
210.0
 21
297.0
 12
0.0
 22
0.0
 32
0.0
 14
0.0
 24
0.0
 34
0.0
 15
0.0
 25
0.0
 35
0.0
146
0.0
 13
0.0
 23
0.0
 33
0.0
 16
1.0
 26
0.0
 36
0.0
 17
0.0
 27
1.0
 37
0.0
 76
0
330
211
345
0
346
0
  0
ENDSEC
  0
EOF
