999
DXF file: C:\2D\Gen2D\CAD\GV3P80_3D-CAD\drw0001_4.dxf
999
Pro/ENGINEER 2019471 by Parametric Technology Corporation
  0
SECTION
  2
HEADER
  9
$ACADVER
  1
AC1024
  9
$DWGCODEPAGE
  3
ANSI_1252
  9
$EXTMAX
 10
109.966383257
 20
155.5238848921
 30
0.0
  9
$EXTMIN
 10
0.0
 20
0.0
 30
0.0
  9
$LIMMIN
 10
0.0
 20
0.0
  9
$LIMMAX
 10
109.966383257
 20
155.5238848921
  9
$VIEWCTR
 10
54.9831916285
 20
77.761942446
  9
$VIEWSIZE
 40
155.5238848921
  9
$CLAYER
  8
0
  9
$LTSCALE
 40
10.1378532374
  9
$CELTYPE
  6
BYLAYER
  9
$DIMSCALE
 40
1.0
  9
$DIMASZ
 40
1.3091236102
  9
$DIMEXO
 40
1.0
  9
$DIMDLI
 40
7.004334964
  9
$DIMEXE
 40
1.0
  9
$DIMCEN
 40
1.6589214388
  9
$DIMLFAC
 40
1.0
  9
$DIMBLK
  1
_FILLED
  9
$DIMALT
 70
0
  9
$DIMALTF
 40
0.0393700787
  9
$DIMTXT
 40
1.8327730543
  9
$DIMTOL
 70
1
  9
$DIMLIM
 70
0
  9
$DIMTFAC
 40
1.0
  9
$DIMTP
 40
0.01
  9
$DIMTM
 40
0.01
  9
$DIMGAP
 40
0.625
  9
$DIMDSEP
 70
46
  9
$AUNITS
 70
0
  9
$PDMODE
 70
3
  9
$PDSIZE
 40
0.3125
  9
$HANDSEED
  5
2FD
  9
$TILEMODE
 70
1
  9
$MEASUREMENT
 70
1
  9
$INSUNITS
 70
4
  0
ENDSEC
  0
SECTION
  2
CLASSES
  0
CLASS
  1
ACDBDICTIONARYWDFLT
  2
AcDbDictionaryWithDefault
  3
AutoCAD 2000
 90
0
 91
1
280
0
281
0
  0
CLASS
  1
ACDBPLACEHOLDER
  2
AcDbPlaceHolder
  3
AutoCAD 2000
 90
0
 91
1
280
0
281
0
  0
CLASS
  1
LAYOUT
  2
AcDbLayout
  3
AutoCAD 2000
 90
0
 91
0
280
0
281
0
  0
ENDSEC
  0
SECTION
  2
TABLES
  0
TABLE
  2
VPORT
  5
8
100
AcDbSymbolTable
 70
2
  0
VPORT
  5
1F4
100
AcDbSymbolTableRecord
100
AcDbViewportTableRecord
  2
*ACTIVE
 70
0
 10
0.0
 20
0.0
 11
1.0
 21
1.0
 12
54.9831916285
 22
77.761942446
 13
0.0
 23
0.0
 14
1.0
 24
1.0
 15
0.0
 25
0.0
 16
0.0
 26
0.0
 36
1.0
 17
0.0
 27
0.0
 37
0.0
 40
155.5238848921
 41
0.7070707071
 42
50.0
 43
0.0
 44
0.0
 50
0.0
 51
0.0
 71
0
 72
100
 73
1
 74
1
 75
0
 76
0
 77
0
 78
0
  0
ENDTAB
  0
TABLE
  2
LTYPE
  5
5
100
AcDbSymbolTable
 70
6
  0
LTYPE
  5
14
100
AcDbSymbolTableRecord
100
AcDbLinetypeTableRecord
  2
BYBLOCK
 70
0
  3

 72
65
 73
0
 40
0.0
  0
LTYPE
  5
15
100
AcDbSymbolTableRecord
100
AcDbLinetypeTableRecord
  2
BYLAYER
 70
0
  3

 72
65
 73
0
 40
0.0
  0
LTYPE
  5
16
100
AcDbSymbolTableRecord
100
AcDbLinetypeTableRecord
  2
CONTINUOUS
 70
64
  3
Solid line
 72
65
 73
0
 40
0.0
  0
LTYPE
  5
1F5
100
AcDbSymbolTableRecord
100
AcDbLinetypeTableRecord
  2
CENTER
 70
64
  3
____ _ ____ _ ____ _ ____ _ ____ _ ____ _ ____
 72
65
 73
4
 40
0.6
 49
0.375
 74
0
 49
-0.075
 74
0
 49
0.075
 74
0
 49
-0.075
 74
0
  0
LTYPE
  5
1F6
100
AcDbSymbolTableRecord
100
AcDbLinetypeTableRecord
  2
HIDDEN
 70
64
  3
- - - - - - - - - - - - - - - - - - - -
 72
65
 73
2
 40
0.2
 49
0.1
 74
0
 49
-0.1
 74
0
  0
LTYPE
  5
1F7
100
AcDbSymbolTableRecord
100
AcDbLinetypeTableRecord
  2
PHANTOM
 70
64
  3
_____ _ _ _____ _ _ _____ _ _ _____
 72
65
 73
6
 40
0.8
 49
0.45
 74
0
 49
-0.05
 74
0
 49
0.1
 74
0
 49
-0.05
 74
0
 49
0.1
 74
0
 49
-0.05
 74
0
  0
LTYPE
  5
1F8
100
AcDbSymbolTableRecord
100
AcDbLinetypeTableRecord
  2
DOT
 70
64
  3
. . . . . . . . . . . . . . . . . . . .
 72
65
 73
2
 40
0.2
 49
0.1
 74
0
 49
-0.1
 74
0
  0
LTYPE
  5
1F9
100
AcDbSymbolTableRecord
100
AcDbLinetypeTableRecord
  2
DASHED
 70
64
  3
- - - - - - - - - - - - - - - - - - - -
 72
65
 73
2
 40
0.2
 49
0.1
 74
0
 49
-0.1
 74
0
  0
ENDTAB
  0
TABLE
  2
LAYER
  5
2
100
AcDbSymbolTable
 70
36
  0
LAYER
  5
10
100
AcDbSymbolTableRecord
100
AcDbLayerTableRecord
  2
0
 70
0
 62
7
  6
CONTINUOUS
370
-3
390
F
  0
LAYER
  5
1FA
100
AcDbSymbolTableRecord
100
AcDbLayerTableRecord
  2
DEFAULT_1
 70
0
 62
7
  6
CENTER
370
-3
390
F
  0
LAYER
  5
1FB
100
AcDbSymbolTableRecord
100
AcDbLayerTableRecord
  2
DEFAULT_2
 70
0
 62
8
  6
HIDDEN
370
-3
390
F
  0
LAYER
  5
1FC
100
AcDbSymbolTableRecord
100
AcDbLayerTableRecord
  2
DEFAULT_3
 70
0
 62
7
  6
PHANTOM
370
-3
390
F
  0
LAYER
  5
1FD
100
AcDbSymbolTableRecord
100
AcDbLayerTableRecord
  2
00_COMPONENTS
 70
0
 62
7
  6
CONTINUOUS
370
-3
390
F
  0
LAYER
  5
1FE
100
AcDbSymbolTableRecord
100
AcDbLayerTableRecord
  2
00_COMPONENTS_1
 70
0
 62
7
  6
CONTINUOUS
370
-3
390
F
  0
LAYER
  5
1FF
100
AcDbSymbolTableRecord
100
AcDbLayerTableRecord
  2
01_1_DEFAULT_DATUMS
 70
0
 62
7
  6
CONTINUOUS
370
-3
390
F
  0
LAYER
  5
200
100
AcDbSymbolTableRecord
100
AcDbLayerTableRecord
  2
01_PLANES
 70
0
 62
7
  6
CONTINUOUS
370
-3
390
F
  0
LAYER
  5
201
100
AcDbSymbolTableRecord
100
AcDbLayerTableRecord
  2
02_COORD_SYS
 70
0
 62
7
  6
CONTINUOUS
370
-3
390
F
  0
LAYER
  5
202
100
AcDbSymbolTableRecord
100
AcDbLayerTableRecord
  2
03_AXES
 70
0
 62
7
  6
CONTINUOUS
370
-3
390
F
  0
LAYER
  5
203
100
AcDbSymbolTableRecord
100
AcDbLayerTableRecord
  2
04_POINTS
 70
0
 62
7
  6
CONTINUOUS
370
-3
390
F
  0
LAYER
  5
204
100
AcDbSymbolTableRecord
100
AcDbLayerTableRecord
  2
05_CURVES
 70
0
 62
7
  6
CONTINUOUS
370
-3
390
F
  0
LAYER
  5
205
100
AcDbSymbolTableRecord
100
AcDbLayerTableRecord
  2
06_SURFS
 70
0
 62
7
  6
CONTINUOUS
370
-3
390
F
  0
LAYER
  5
206
100
AcDbSymbolTableRecord
100
AcDbLayerTableRecord
  2
07_COSMETICS
 70
0
 62
7
  6
CONTINUOUS
370
-3
390
F
  0
LAYER
  5
207
100
AcDbSymbolTableRecord
100
AcDbLayerTableRecord
  2
10_NOTES
 70
0
 62
7
  6
CONTINUOUS
370
-3
390
F
  0
LAYER
  5
208
100
AcDbSymbolTableRecord
100
AcDbLayerTableRecord
  2
11_NOTES_PUB
 70
0
 62
7
  6
CONTINUOUS
370
-3
390
F
  0
LAYER
  5
209
100
AcDbSymbolTableRecord
100
AcDbLayerTableRecord
  2
13_REF_GTOL
 70
0
 62
7
  6
CONTINUOUS
370
-3
390
F
  0
LAYER
  5
20A
100
AcDbSymbolTableRecord
100
AcDbLayerTableRecord
  2
16_MISC
 70
0
 62
7
  6
CONTINUOUS
370
-3
390
F
  0
LAYER
  5
20B
100
AcDbSymbolTableRecord
100
AcDbLayerTableRecord
  2
17_NO_PRINT
 70
0
 62
7
  6
CONTINUOUS
370
-3
390
F
  0
LAYER
  5
20C
100
AcDbSymbolTableRecord
100
AcDbLayerTableRecord
  2
18_DATUM_CAMS_JOINTS
 70
0
 62
7
  6
CONTINUOUS
370
-3
390
F
  0
LAYER
  5
20D
100
AcDbSymbolTableRecord
100
AcDbLayerTableRecord
  2
19_DATUM_FUNCTIONAL
 70
0
 62
7
  6
CONTINUOUS
370
-3
390
F
  0
LAYER
  5
20E
100
AcDbSymbolTableRecord
100
AcDbLayerTableRecord
  2
20_DATUM_KINEMATIC_SCHEME
 70
0
 62
7
  6
CONTINUOUS
370
-3
390
F
  0
LAYER
  5
20F
100
AcDbSymbolTableRecord
100
AcDbLayerTableRecord
  2
INTFCLR_5
 70
0
 62
7
  6
CONTINUOUS
370
-3
390
F
  0
ENDTAB
  0
TABLE
  2
STYLE
  5
3
100
AcDbSymbolTable
 70
1
  0
STYLE
  5
11
100
AcDbSymbolTableRecord
100
AcDbTextStyleTableRecord
  2
STANDARD
 70
0
 40
0.0
 41
0.8
 50
0.0
 71
0
 42
0.2
  3
txt
  4

  0
STYLE
  5
210
100
AcDbSymbolTableRecord
100
AcDbTextStyleTableRecord
  2
TEXTSTYLE_1
 70
0
 40
0.0
 41
0.8
 50
0.0
 71
0
 42
0.2
  3
gdt
  4

  0
ENDTAB
  0
TABLE
  2
VIEW
  5
6
100
AcDbSymbolTable
 70
0
  0
ENDTAB
  0
TABLE
  2
UCS
  5
7
100
AcDbSymbolTable
 70
0
  0
ENDTAB
  0
TABLE
  2
APPID
  5
9
100
AcDbSymbolTable
 70
1
  0
APPID
  5
211
100
AcDbSymbolTableRecord
100
AcDbRegAppTableRecord
  2
ACAD
 70
0
  0
ENDTAB
  0
TABLE
  2
BLOCK_RECORD
  5
1
100
AcDbSymbolTable
 70
0
  0
BLOCK_RECORD
  5
212
100
AcDbSymbolTableRecord
100
AcDbBlockTableRecord
  2
*Model_Space
  0
BLOCK_RECORD
  5
213
100
AcDbSymbolTableRecord
100
AcDbBlockTableRecord
  2
*Paper_Space
  0
BLOCK_RECORD
  5
214
100
AcDbSymbolTableRecord
100
AcDbBlockTableRecord
  2
_FILLED
  0
ENDTAB
  0
TABLE
  2
DIMSTYLE
  5
A
100
AcDbSymbolTable
 70
1
100
AcDbDimStyleTable
 71
0
  0
DIMSTYLE
105
215
100
AcDbSymbolTableRecord
100
AcDbDimStyleTableRecord
  2
STANDARD
 70
0
  3

  4

 40
1.0
 41
1.3091236102
 42
1.0
 43
0.38
 44
1.0
 45
0.0
 46
0.0
 47
0.01
 48
0.01
140
1.8327730543
141
0.09
142
0.0
143
25.4
144
1.0
145
0.0
146
1.0
147
0.625
 71
1
 72
0
 73
0
 74
0
 75
0
 76
0
 77
1
 78
8
 79
2
170
0
171
1
172
0
173
0
174
0
175
0
176
0
177
0
178
0
270
2
179
2
271
2
272
2
273
2
274
2
275
0
280
0
281
0
282
0
283
1
284
8
285
0
286
0
287
3
288
0
340
11
278
46
341
214
342
214
343
214
344
214
  0
ENDTAB
  0
ENDSEC
  0
SECTION
  2
BLOCKS
  0
BLOCK
  5
20
100
AcDbEntity
  8
0
100
AcDbBlockBegin
  2
*Model_Space
 70
0
 10
0.0
 20
0.0
 30
0.0
  3
*Model_Space
  1

  0
ENDBLK
  5
21
100
AcDbEntity
  8
0
100
AcDbBlockEnd
  0
BLOCK
  5
1C
100
AcDbEntity
  8
0
100
AcDbBlockBegin
  2
*Paper_Space
 70
0
 10
0.0
 20
0.0
 30
0.0
  3
*Paper_Space
  1

  0
ENDBLK
  5
1D
100
AcDbEntity
  8
0
100
AcDbBlockEnd
  0
BLOCK
  5
216
100
AcDbEntity
  8
0
100
AcDbBlockBegin
  2
_FILLED
 70
64
 10
0.0
 20
0.0
  3
_FILLED
  1

  0
SOLID
  5
217
100
AcDbEntity
  8
0
  6
BYBLOCK
 62
0
100
AcDbTrace
 10
0.0
 20
0.0
 11
-1.0
 21
0.25
 12
-1.0
 22
-0.25
 13
-1.0
 23
-0.25
  0
ENDBLK
  5
218
100
AcDbEntity
  8
0
  6
BYBLOCK
 62
0
100
AcDbBlockEnd
  0
ENDSEC
  0
SECTION
  2
ENTITIES
  0
LINE
  5
219
100
AcDbEntity
  8
00_COMPONENTS_1
100
AcDbLine
 62
7
  6
CONTINUOUS
 10
29.0108894702
 20
11.1360431655
 11
83.8108894702
 21
11.1360431655
  0
LINE
  5
21A
100
AcDbEntity
  8
00_COMPONENTS_1
100
AcDbLine
 62
7
  6
CONTINUOUS
 10
29.0108894702
 20
12.6360431655
 11
44.5587055407
 21
12.6360431655
  0
LINE
  5
21B
100
AcDbEntity
  8
00_COMPONENTS_1
100
AcDbLine
 62
7
  6
CONTINUOUS
 10
50.7630737028
 20
12.6360431655
 11
62.0587055071
 21
12.6360431655
  0
LINE
  5
21C
100
AcDbEntity
  8
00_COMPONENTS_1
100
AcDbLine
 62
7
  6
CONTINUOUS
 10
68.2630736692
 20
12.6360431655
 11
83.8108894702
 21
12.6360431655
  0
LINE
  5
21D
100
AcDbEntity
  8
00_COMPONENTS_1
100
AcDbLine
 62
7
  6
CONTINUOUS
 10
75.0655900086
 20
18.6360431655
 11
72.7561889319
 21
18.6360431655
  0
LINE
  5
21E
100
AcDbEntity
  8
00_COMPONENTS_1
100
AcDbLine
 62
7
  6
CONTINUOUS
 10
57.5655900086
 20
18.6360431655
 11
55.2561889319
 21
18.6360431655
  0
LINE
  5
21F
100
AcDbEntity
  8
00_COMPONENTS_1
100
AcDbLine
 62
7
  6
CONTINUOUS
 10
40.0655900086
 20
18.6360431655
 11
37.7561889319
 21
18.6360431655
  0
LINE
  5
220
100
AcDbEntity
  8
00_COMPONENTS_1
100
AcDbLine
 62
7
  6
CONTINUOUS
 10
37.7561889319
 20
22.6360431655
 11
40.0655900086
 21
22.6360431655
  0
LINE
  5
221
100
AcDbEntity
  8
00_COMPONENTS_1
100
AcDbLine
 62
7
  6
CONTINUOUS
 10
55.2561889319
 20
22.6360431655
 11
57.5655900086
 21
22.6360431655
  0
LINE
  5
222
100
AcDbEntity
  8
00_COMPONENTS_1
100
AcDbLine
 62
7
  6
CONTINUOUS
 10
72.7561889319
 20
22.6360431655
 11
75.0655900086
 21
22.6360431655
  0
LINE
  5
223
100
AcDbEntity
  8
00_COMPONENTS_1
100
AcDbLine
 62
7
  6
CONTINUOUS
 10
37.7561889319
 20
135.9360431655
 11
36.6014883935
 21
133.9360431655
  0
LINE
  5
224
100
AcDbEntity
  8
00_COMPONENTS_1
100
AcDbLine
 62
7
  6
CONTINUOUS
 10
83.8108894702
 20
33.3860431655
 11
29.0108894702
 21
33.3860431655
  0
LINE
  5
225
100
AcDbEntity
  8
00_COMPONENTS_1
100
AcDbLine
 62
7
  6
CONTINUOUS
 10
36.6014883935
 20
20.6360431655
 11
37.7561889319
 21
18.6360431655
  0
LINE
  5
226
100
AcDbEntity
  8
00_COMPONENTS_1
100
AcDbLine
 62
7
  6
CONTINUOUS
 10
40.0655900086
 20
131.9360431655
 11
41.220290547
 21
133.9360431655
  0
LINE
  5
227
100
AcDbEntity
  8
00_COMPONENTS_1
100
AcDbLine
 62
7
  6
CONTINUOUS
 10
41.220290547
 20
20.6360431655
 11
40.0655900086
 21
22.6360431655
  0
LINE
  5
228
100
AcDbEntity
  8
00_COMPONENTS_1
100
AcDbLine
 62
7
  6
CONTINUOUS
 10
58.9108894702
 20
42.9360431655
 11
53.9108894702
 21
42.9360431655
  0
LINE
  5
229
100
AcDbEntity
  8
00_COMPONENTS_1
100
AcDbLine
 62
7
  6
CONTINUOUS
 10
55.2561889319
 20
135.9360431655
 11
54.1014883935
 21
133.9360431655
  0
LINE
  5
22A
100
AcDbEntity
  8
00_COMPONENTS_1
100
AcDbLine
 62
7
  6
CONTINUOUS
 10
65.5108894702
 20
44.8360431655
 11
58.9108894702
 21
44.8360431655
  0
LINE
  5
22B
100
AcDbEntity
  8
00_COMPONENTS_1
100
AcDbLine
 62
7
  6
CONTINUOUS
 10
53.9108894702
 20
44.8360431655
 11
47.3108894702
 21
44.8360431655
  0
LINE
  5
22C
100
AcDbEntity
  8
00_COMPONENTS_1
100
AcDbLine
 62
7
  6
CONTINUOUS
 10
47.4358894702
 20
44.9810431655
 11
65.3858894702
 21
44.9810431655
  0
LINE
  5
22D
100
AcDbEntity
  8
00_COMPONENTS_1
100
AcDbLine
 62
7
  6
CONTINUOUS
 10
54.1014883935
 20
20.6360431655
 11
55.2561889319
 21
18.6360431655
  0
LINE
  5
22E
100
AcDbEntity
  8
00_COMPONENTS_1
100
AcDbLine
 62
7
  6
CONTINUOUS
 10
29.0108894702
 20
11.1360431655
 11
29.0108894702
 21
143.4360431655
  0
LINE
  5
22F
100
AcDbEntity
  8
00_COMPONENTS_1
100
AcDbLine
 62
7
  6
CONTINUOUS
 10
30.5108894702
 20
58.7860431655
 11
30.5108894702
 21
78.1360431655
  0
LINE
  5
230
100
AcDbEntity
  8
00_COMPONENTS_1
100
AcDbLine
 62
7
  6
CONTINUOUS
 10
30.8170211243
 20
75.2799115114
 11
30.8170211243
 21
59.3421748195
  0
LINE
  5
231
100
AcDbEntity
  8
00_COMPONENTS_1
100
AcDbLine
 62
7
  6
CONTINUOUS
 10
33.1108894702
 20
67.6360431655
 11
33.1108894702
 21
72.2360431655
  0
LINE
  5
232
100
AcDbEntity
  8
00_COMPONENTS_1
100
AcDbLine
 62
7
  6
CONTINUOUS
 10
57.5655900086
 20
131.9360431655
 11
58.720290547
 21
133.9360431655
  0
LINE
  5
233
100
AcDbEntity
  8
00_COMPONENTS_1
100
AcDbLine
 62
7
  6
CONTINUOUS
 10
65.3858894702
 20
52.9310431655
 11
47.4358894702
 21
52.9310431655
  0
LINE
  5
234
100
AcDbEntity
  8
00_COMPONENTS_1
100
AcDbLine
 62
7
  6
CONTINUOUS
 10
33.0108894702
 20
53.0860431655
 11
79.8108894702
 21
53.0860431655
  0
LINE
  5
235
100
AcDbEntity
  8
00_COMPONENTS_1
100
AcDbLine
 62
7
  6
CONTINUOUS
 10
58.720290547
 20
20.6360431655
 11
57.5655900086
 21
22.6360431655
  0
LINE
  5
236
100
AcDbEntity
  8
00_COMPONENTS_1
100
AcDbLine
 62
7
  6
CONTINUOUS
 10
33.3608894702
 20
71.9360431655
 11
33.3608894702
 21
67.9350612909
  0
LINE
  5
237
100
AcDbEntity
  8
00_COMPONENTS_1
100
AcDbLine
 62
7
  6
CONTINUOUS
 10
33.8608894702
 20
58.7860431655
 11
33.8608894702
 21
53.0860431655
  0
LINE
  5
238
100
AcDbEntity
  8
00_COMPONENTS_1
100
AcDbLine
 62
7
  6
CONTINUOUS
 10
34.0108894702
 20
59.3421748195
 11
34.0108894702
 21
54.4421748195
  0
LINE
  5
239
100
AcDbEntity
  8
00_COMPONENTS_1
100
AcDbLine
 62
7
  6
CONTINUOUS
 10
35.3608894702
 20
67.9350609594
 11
35.3608894702
 21
71.9360431655
  0
LINE
  5
23A
100
AcDbEntity
  8
00_COMPONENTS_1
100
AcDbLine
 62
7
  6
CONTINUOUS
 10
35.6108894702
 20
72.2360431655
 11
35.6108894702
 21
67.6360431655
  0
LINE
  5
23B
100
AcDbEntity
  8
00_COMPONENTS_1
100
AcDbLine
 62
7
  6
CONTINUOUS
 10
36.6108894702
 20
78.1360431655
 11
36.6108894702
 21
75.5860431655
  0
LINE
  5
23C
100
AcDbEntity
  8
00_COMPONENTS_1
100
AcDbLine
 62
7
  6
CONTINUOUS
 10
34.0108894702
 20
54.4421748195
 11
52.8547578162
 21
54.4421748195
  0
LINE
  5
23D
100
AcDbEntity
  8
00_COMPONENTS_1
100
AcDbLine
 62
7
  6
CONTINUOUS
 10
33.8608894702
 20
58.7860431655
 11
30.5108894702
 21
58.7860431655
  0
LINE
  5
23E
100
AcDbEntity
  8
00_COMPONENTS_1
100
AcDbLine
 62
7
  6
CONTINUOUS
 10
42.3061444925
 20
76.5860431655
 11
42.3061444925
 21
74.5860431655
  0
LINE
  5
23F
100
AcDbEntity
  8
00_COMPONENTS_1
100
AcDbLine
 62
7
  6
CONTINUOUS
 10
42.3387276099
 20
74.5860431655
 11
42.3387276099
 21
76.5860431655
  0
LINE
  5
240
100
AcDbEntity
  8
00_COMPONENTS_1
100
AcDbLine
 62
7
  6
CONTINUOUS
 10
72.7561889319
 20
135.9360431655
 11
71.6014883935
 21
133.9360431655
  0
LINE
  5
241
100
AcDbEntity
  8
00_COMPONENTS_1
100
AcDbLine
 62
7
  6
CONTINUOUS
 10
30.8170211243
 20
59.3421748195
 11
34.0108894702
 21
59.3421748195
  0
LINE
  5
242
100
AcDbEntity
  8
00_COMPONENTS_1
100
AcDbLine
 62
7
  6
CONTINUOUS
 10
71.6014883935
 20
20.6360431655
 11
72.7561889319
 21
18.6360431655
  0
LINE
  5
243
100
AcDbEntity
  8
00_COMPONENTS_1
100
AcDbLine
 62
7
  6
CONTINUOUS
 10
50.9108900598
 20
11.1360431655
 11
50.6572550592
 21
13.7098618454
  0
LINE
  5
244
100
AcDbEntity
  8
00_COMPONENTS_1
100
AcDbLine
 62
7
  6
CONTINUOUS
 10
42.8400046387
 20
76.5860431655
 11
42.8400046387
 21
74.5860431655
  0
LINE
  5
245
100
AcDbEntity
  8
00_COMPONENTS_1
100
AcDbLine
 62
7
  6
CONTINUOUS
 10
47.3108894702
 20
44.8360431655
 11
47.3108894702
 21
53.0860431655
  0
LINE
  5
246
100
AcDbEntity
  8
00_COMPONENTS_1
100
AcDbLine
 62
7
  6
CONTINUOUS
 10
47.4358894702
 20
52.9310431655
 11
47.4358894702
 21
44.9810431655
  0
LINE
  5
247
100
AcDbEntity
  8
00_COMPONENTS_1
100
AcDbLine
 62
7
  6
CONTINUOUS
 10
50.6572544711
 20
140.8622244994
 11
50.9108894702
 21
143.4360431655
  0
LINE
  5
248
100
AcDbEntity
  8
00_COMPONENTS_1
100
AcDbLine
 62
7
  6
CONTINUOUS
 10
75.0655900086
 20
131.9360431655
 11
76.220290547
 21
133.9360431655
  0
LINE
  5
249
100
AcDbEntity
  8
00_COMPONENTS_1
100
AcDbLine
 62
7
  6
CONTINUOUS
 10
35.6108894702
 20
67.6360431655
 11
33.1108894702
 21
67.6360431655
  0
LINE
  5
24A
100
AcDbEntity
  8
00_COMPONENTS_1
100
AcDbLine
 62
7
  6
CONTINUOUS
 10
35.3608894702
 20
67.9360430616
 11
33.3608894702
 21
67.9360430616
  0
LINE
  5
24B
100
AcDbEntity
  8
00_COMPONENTS_1
100
AcDbLine
 62
7
  6
CONTINUOUS
 10
76.220290547
 20
20.6360431655
 11
75.0655900086
 21
22.6360431655
  0
LINE
  5
24C
100
AcDbEntity
  8
00_COMPONENTS_1
100
AcDbLine
 62
7
  6
CONTINUOUS
 10
44.4108894702
 20
143.4360431655
 11
44.6645236704
 21
140.8622247107
  0
LINE
  5
24D
100
AcDbEntity
  8
00_COMPONENTS_1
100
AcDbLine
 62
7
  6
CONTINUOUS
 10
44.6645242242
 20
13.7098618476
 11
44.4108891282
 21
11.1360431655
  0
LINE
  5
24E
100
AcDbEntity
  8
00_COMPONENTS_1
100
AcDbLine
 62
7
  6
CONTINUOUS
 10
33.3608894702
 20
71.9360431655
 11
35.3608894702
 21
71.9360431655
  0
LINE
  5
24F
100
AcDbEntity
  8
00_COMPONENTS_1
100
AcDbLine
 62
7
  6
CONTINUOUS
 10
46.8708894702
 20
72.0110431655
 11
44.2366754363
 21
72.0110431655
  0
LINE
  5
250
100
AcDbEntity
  8
00_COMPONENTS_1
100
AcDbLine
 62
7
  6
CONTINUOUS
 10
67.5220058526
 20
72.1393509686
 11
68.9537902913
 21
72.1393509686
  0
LINE
  5
251
100
AcDbEntity
  8
00_COMPONENTS_1
100
AcDbLine
 62
7
  6
CONTINUOUS
 10
33.1108894702
 20
72.2360431655
 11
35.6108894702
 21
72.2360431655
  0
LINE
  5
252
100
AcDbEntity
  8
00_COMPONENTS_1
100
AcDbLine
 62
7
  6
CONTINUOUS
 10
47.3741972734
 20
72.5143509686
 11
56.4708894702
 21
72.5143509686
  0
LINE
  5
253
100
AcDbEntity
  8
00_COMPONENTS_1
100
AcDbLine
 62
7
  6
CONTINUOUS
 10
46.8708894702
 20
79.1610431655
 11
48.8601030326
 21
77.1718296031
  0
LINE
  5
254
100
AcDbEntity
  8
00_COMPONENTS_1
100
AcDbLine
 62
7
  6
CONTINUOUS
 10
49.4469883211
 20
76.8599443146
 11
47.6491972776
 21
78.6577353581
  0
LINE
  5
255
100
AcDbEntity
  8
00_COMPONENTS_1
100
AcDbLine
 62
7
  6
CONTINUOUS
 10
52.8547578162
 20
54.4421748195
 11
52.8547578162
 21
61.5378601006
  0
LINE
  5
256
100
AcDbEntity
  8
00_COMPONENTS_1
100
AcDbLine
 62
7
  6
CONTINUOUS
 10
53.1608894702
 20
61.7772090365
 11
53.1608894702
 21
60.7968618421
  0
LINE
  5
257
100
AcDbEntity
  8
00_COMPONENTS_1
100
AcDbLine
 62
7
  6
CONTINUOUS
 10
53.1608894702
 20
58.4752244888
 11
53.1608894702
 21
53.0860431655
  0
LINE
  5
258
100
AcDbEntity
  8
00_COMPONENTS_1
100
AcDbLine
 62
7
  6
CONTINUOUS
 10
53.9108894702
 20
42.9360431655
 11
53.9108894702
 21
44.8360431655
  0
LINE
  5
259
100
AcDbEntity
  8
00_COMPONENTS_1
100
AcDbLine
 62
7
  6
CONTINUOUS
 10
48.8601030326
 20
74.0002567278
 11
46.8708894702
 21
72.0110431655
  0
LINE
  5
25A
100
AcDbEntity
  8
00_COMPONENTS_1
100
AcDbLine
 62
7
  6
CONTINUOUS
 10
47.6491972734
 20
72.5143509686
 11
49.4469883168
 21
74.312142012
  0
LINE
  5
25B
100
AcDbEntity
  8
00_COMPONENTS_1
100
AcDbLine
 62
7
  6
CONTINUOUS
 10
43.7989955813
 20
74.2628527261
 11
42.3664955947
 21
74.2503514881
  0
LINE
  5
25C
100
AcDbEntity
  8
00_COMPONENTS_1
100
AcDbLine
 62
7
  6
CONTINUOUS
 10
49.2644862528
 20
74.3105493406
 11
69.3740867484
 21
74.4860431655
  0
LINE
  5
25D
100
AcDbEntity
  8
00_COMPONENTS_1
100
AcDbLine
 62
7
  6
CONTINUOUS
 10
69.382221702
 20
74.5860431655
 11
50.274316595
 21
74.5860431655
  0
LINE
  5
25E
100
AcDbEntity
  8
00_COMPONENTS_1
100
AcDbLine
 62
7
  6
CONTINUOUS
 10
42.3061444925
 20
74.5860431655
 11
43.7724609592
 21
74.5860431655
  0
LINE
  5
25F
100
AcDbEntity
  8
00_COMPONENTS_1
100
AcDbLine
 62
7
  6
CONTINUOUS
 10
41.9679884165
 20
75.2799115114
 11
30.8170211243
 21
75.2799115114
  0
LINE
  5
260
100
AcDbEntity
  8
00_COMPONENTS_1
100
AcDbLine
 62
7
  6
CONTINUOUS
 10
36.6108894702
 20
75.5860431655
 11
42.2708894702
 21
75.5860431655
  0
LINE
  5
261
100
AcDbEntity
  8
00_COMPONENTS_1
100
AcDbLine
 62
7
  6
CONTINUOUS
 10
42.3061444925
 20
76.5860431655
 11
43.7724609592
 21
76.5860431655
  0
LINE
  5
262
100
AcDbEntity
  8
00_COMPONENTS_1
100
AcDbLine
 62
7
  6
CONTINUOUS
 10
50.274316595
 20
76.5860431655
 11
69.382221702
 21
76.5860431655
  0
LINE
  5
263
100
AcDbEntity
  8
00_COMPONENTS_1
100
AcDbLine
 62
7
  6
CONTINUOUS
 10
69.3740867484
 20
76.6860431612
 11
49.2644862584
 21
76.861536986
  0
LINE
  5
264
100
AcDbEntity
  8
00_COMPONENTS_1
100
AcDbLine
 62
7
  6
CONTINUOUS
 10
42.3664955947
 20
76.9217348386
 11
43.7989955807
 21
76.9092336006
  0
LINE
  5
265
100
AcDbEntity
  8
00_COMPONENTS_1
100
AcDbLine
 62
7
  6
CONTINUOUS
 10
58.9108894702
 20
44.8360431655
 11
58.9108894702
 21
42.9360431655
  0
LINE
  5
266
100
AcDbEntity
  8
00_COMPONENTS_1
100
AcDbLine
 62
7
  6
CONTINUOUS
 10
30.5108894702
 20
78.1360431655
 11
36.6108894702
 21
78.1360431655
  0
LINE
  5
267
100
AcDbEntity
  8
00_COMPONENTS_1
100
AcDbLine
 62
7
  6
CONTINUOUS
 10
56.4708894702
 20
78.6577353581
 11
47.3741972776
 21
78.6577353581
  0
LINE
  5
268
100
AcDbEntity
  8
00_COMPONENTS_1
100
AcDbLine
 62
7
  6
CONTINUOUS
 10
68.9537902913
 20
79.0327353581
 11
67.5220058526
 21
79.0327353581
  0
LINE
  5
269
100
AcDbEntity
  8
00_COMPONENTS_1
100
AcDbLine
 62
7
  6
CONTINUOUS
 10
44.2366754363
 20
79.1610431655
 11
46.8708894702
 21
79.1610431655
  0
LINE
  5
26A
100
AcDbEntity
  8
00_COMPONENTS_1
100
AcDbLine
 62
7
  6
CONTINUOUS
 10
68.4108900262
 20
11.1360431655
 11
68.1572550259
 21
13.7098618429
  0
LINE
  5
26B
100
AcDbEntity
  8
00_COMPONENTS_1
100
AcDbLine
 62
7
  6
CONTINUOUS
 10
65.3858894702
 20
44.9810431655
 11
65.3858894702
 21
52.9310431655
  0
LINE
  5
26C
100
AcDbEntity
  8
00_COMPONENTS_1
100
AcDbLine
 62
7
  6
CONTINUOUS
 10
65.5108894702
 20
53.0860431655
 11
65.5108894702
 21
44.8360431655
  0
LINE
  5
26D
100
AcDbEntity
  8
00_COMPONENTS_1
100
AcDbLine
 62
7
  6
CONTINUOUS
 10
68.1572549235
 20
140.8622244888
 11
68.4108899238
 21
143.4360431655
  0
LINE
  5
26E
100
AcDbEntity
  8
00_COMPONENTS_1
100
AcDbLine
 62
7
  6
CONTINUOUS
 10
61.9108890531
 20
143.4360431655
 11
62.1645232545
 21
140.8622246987
  0
LINE
  5
26F
100
AcDbEntity
  8
00_COMPONENTS_1
100
AcDbLine
 62
7
  6
CONTINUOUS
 10
68.1708894702
 20
74.4755430219
 11
68.1708894702
 21
74.5860431655
  0
LINE
  5
270
100
AcDbEntity
  8
00_COMPONENTS_1
100
AcDbLine
 62
7
  6
CONTINUOUS
 10
68.1708894702
 20
76.5860431655
 11
68.1708894702
 21
76.6965433048
  0
LINE
  5
271
100
AcDbEntity
  8
00_COMPONENTS_1
100
AcDbLine
 62
7
  6
CONTINUOUS
 10
62.1645241908
 20
13.70986185
 11
61.9108890946
 21
11.1360431655
  0
LINE
  5
272
100
AcDbEntity
  8
00_COMPONENTS_1
100
AcDbLine
 62
7
  6
CONTINUOUS
 10
37.7561889319
 20
22.6360431655
 11
36.6014883935
 21
20.6360431655
  0
LINE
  5
273
100
AcDbEntity
  8
00_COMPONENTS_1
100
AcDbLine
 62
7
  6
CONTINUOUS
 10
36.6014883935
 20
133.9360431655
 11
37.7561889319
 21
131.9360431655
  0
LINE
  5
274
100
AcDbEntity
  8
00_COMPONENTS_1
100
AcDbLine
 62
7
  6
CONTINUOUS
 10
74.5108894702
 20
105.6360431655
 11
74.5108894702
 21
113.5860431655
  0
LINE
  5
275
100
AcDbEntity
  8
00_COMPONENTS_1
100
AcDbLine
 62
7
  6
CONTINUOUS
 10
40.0655900086
 20
18.6360431655
 11
41.220290547
 21
20.6360431655
  0
LINE
  5
276
100
AcDbEntity
  8
00_COMPONENTS_1
100
AcDbLine
 62
7
  6
CONTINUOUS
 10
41.220290547
 20
133.9360431655
 11
40.0655900086
 21
135.9360431655
  0
LINE
  5
277
100
AcDbEntity
  8
00_COMPONENTS_1
100
AcDbLine
 62
7
  6
CONTINUOUS
 10
79.8108894702
 20
98.0860431655
 11
33.0108894702
 21
98.0860431655
  0
LINE
  5
278
100
AcDbEntity
  8
00_COMPONENTS_1
100
AcDbLine
 62
7
  6
CONTINUOUS
 10
83.8108894702
 20
143.4360431655
 11
83.8108894702
 21
11.1360431655
  0
LINE
  5
279
100
AcDbEntity
  8
00_COMPONENTS_1
100
AcDbLine
 62
7
  6
CONTINUOUS
 10
55.2561889319
 20
22.6360431655
 11
54.1014883935
 21
20.6360431655
  0
LINE
  5
27A
100
AcDbEntity
  8
00_COMPONENTS_1
100
AcDbLine
 62
7
  6
CONTINUOUS
 10
74.5108894702
 20
105.6360431655
 11
83.8108894702
 21
105.6360431655
  0
LINE
  5
27B
100
AcDbEntity
  8
00_COMPONENTS_1
100
AcDbLine
 62
7
  6
CONTINUOUS
 10
54.1014883935
 20
133.9360431655
 11
55.2561889319
 21
131.9360431655
  0
LINE
  5
27C
100
AcDbEntity
  8
00_COMPONENTS_1
100
AcDbLine
 62
7
  6
CONTINUOUS
 10
57.5655900086
 20
18.6360431655
 11
58.720290547
 21
20.6360431655
  0
LINE
  5
27D
100
AcDbEntity
  8
00_COMPONENTS_1
100
AcDbLine
 62
7
  6
CONTINUOUS
 10
70.8608894702
 20
107.3860431655
 11
68.7608894702
 21
107.3860431655
  0
LINE
  5
27E
100
AcDbEntity
  8
00_COMPONENTS_1
100
AcDbLine
 62
7
  6
CONTINUOUS
 10
65.6608894702
 20
107.3860431655
 11
63.5608894702
 21
107.3860431655
  0
LINE
  5
27F
100
AcDbEntity
  8
00_COMPONENTS_1
100
AcDbLine
 62
7
  6
CONTINUOUS
 10
60.4608894702
 20
107.3860431655
 11
58.3608894702
 21
107.3860431655
  0
LINE
  5
280
100
AcDbEntity
  8
00_COMPONENTS_1
100
AcDbLine
 62
7
  6
CONTINUOUS
 10
55.2608894702
 20
107.3860431655
 11
53.1608894702
 21
107.3860431655
  0
LINE
  5
281
100
AcDbEntity
  8
00_COMPONENTS_1
100
AcDbLine
 62
7
  6
CONTINUOUS
 10
50.0608894702
 20
107.3860431655
 11
47.9608894702
 21
107.3860431655
  0
LINE
  5
282
100
AcDbEntity
  8
00_COMPONENTS_1
100
AcDbLine
 62
7
  6
CONTINUOUS
 10
44.8608894702
 20
107.3860431655
 11
42.7608894702
 21
107.3860431655
  0
LINE
  5
283
100
AcDbEntity
  8
00_COMPONENTS_1
100
AcDbLine
 62
7
  6
CONTINUOUS
 10
39.6608894702
 20
107.3860431655
 11
37.5608894702
 21
107.3860431655
  0
LINE
  5
284
100
AcDbEntity
  8
00_COMPONENTS_1
100
AcDbLine
 62
7
  6
CONTINUOUS
 10
37.5608894702
 20
108.2860431655
 11
39.6608894702
 21
108.2860431655
  0
LINE
  5
285
100
AcDbEntity
  8
00_COMPONENTS_1
100
AcDbLine
 62
7
  6
CONTINUOUS
 10
42.7608894702
 20
108.2860431655
 11
44.8608894702
 21
108.2860431655
  0
LINE
  5
286
100
AcDbEntity
  8
00_COMPONENTS_1
100
AcDbLine
 62
7
  6
CONTINUOUS
 10
47.9608894702
 20
108.2860431655
 11
50.0608894702
 21
108.2860431655
  0
LINE
  5
287
100
AcDbEntity
  8
00_COMPONENTS_1
100
AcDbLine
 62
7
  6
CONTINUOUS
 10
53.1608894702
 20
108.2860431655
 11
55.2608894702
 21
108.2860431655
  0
LINE
  5
288
100
AcDbEntity
  8
00_COMPONENTS_1
100
AcDbLine
 62
7
  6
CONTINUOUS
 10
58.3608894702
 20
108.2860431655
 11
60.4608894702
 21
108.2860431655
  0
LINE
  5
289
100
AcDbEntity
  8
00_COMPONENTS_1
100
AcDbLine
 62
7
  6
CONTINUOUS
 10
63.5608894702
 20
108.2860431655
 11
65.6608894702
 21
108.2860431655
  0
LINE
  5
28A
100
AcDbEntity
  8
00_COMPONENTS_1
100
AcDbLine
 62
7
  6
CONTINUOUS
 10
68.7608894702
 20
108.2860431655
 11
70.8608894702
 21
108.2860431655
  0
LINE
  5
28B
100
AcDbEntity
  8
00_COMPONENTS_1
100
AcDbLine
 62
7
  6
CONTINUOUS
 10
70.8608894702
 20
109.0360431655
 11
68.7608894702
 21
109.0360431655
  0
LINE
  5
28C
100
AcDbEntity
  8
00_COMPONENTS_1
100
AcDbLine
 62
7
  6
CONTINUOUS
 10
65.6608894702
 20
109.0360431655
 11
63.5608894702
 21
109.0360431655
  0
LINE
  5
28D
100
AcDbEntity
  8
00_COMPONENTS_1
100
AcDbLine
 62
7
  6
CONTINUOUS
 10
60.4608894702
 20
109.0360431655
 11
58.3608894702
 21
109.0360431655
  0
LINE
  5
28E
100
AcDbEntity
  8
00_COMPONENTS_1
100
AcDbLine
 62
7
  6
CONTINUOUS
 10
55.2608894702
 20
109.0360431655
 11
53.1608894702
 21
109.0360431655
  0
LINE
  5
28F
100
AcDbEntity
  8
00_COMPONENTS_1
100
AcDbLine
 62
7
  6
CONTINUOUS
 10
50.0608894702
 20
109.0360431655
 11
47.9608894702
 21
109.0360431655
  0
LINE
  5
290
100
AcDbEntity
  8
00_COMPONENTS_1
100
AcDbLine
 62
7
  6
CONTINUOUS
 10
44.8608894702
 20
109.0360431655
 11
42.7608894702
 21
109.0360431655
  0
LINE
  5
291
100
AcDbEntity
  8
00_COMPONENTS_1
100
AcDbLine
 62
7
  6
CONTINUOUS
 10
39.6608894702
 20
109.0360431655
 11
37.5608894702
 21
109.0360431655
  0
LINE
  5
292
100
AcDbEntity
  8
00_COMPONENTS_1
100
AcDbLine
 62
7
  6
CONTINUOUS
 10
37.5608894702
 20
109.9360431655
 11
39.6608894702
 21
109.9360431655
  0
LINE
  5
293
100
AcDbEntity
  8
00_COMPONENTS_1
100
AcDbLine
 62
7
  6
CONTINUOUS
 10
42.7608894702
 20
109.9360431655
 11
44.8608894702
 21
109.9360431655
  0
LINE
  5
294
100
AcDbEntity
  8
00_COMPONENTS_1
100
AcDbLine
 62
7
  6
CONTINUOUS
 10
47.9608894702
 20
109.9360431655
 11
50.0608894702
 21
109.9360431655
  0
LINE
  5
295
100
AcDbEntity
  8
00_COMPONENTS_1
100
AcDbLine
 62
7
  6
CONTINUOUS
 10
53.1608894702
 20
109.9360431655
 11
55.2608894702
 21
109.9360431655
  0
LINE
  5
296
100
AcDbEntity
  8
00_COMPONENTS_1
100
AcDbLine
 62
7
  6
CONTINUOUS
 10
58.3608894702
 20
109.9360431655
 11
60.4608894702
 21
109.9360431655
  0
LINE
  5
297
100
AcDbEntity
  8
00_COMPONENTS_1
100
AcDbLine
 62
7
  6
CONTINUOUS
 10
63.5608894702
 20
109.9360431655
 11
65.6608894702
 21
109.9360431655
  0
LINE
  5
298
100
AcDbEntity
  8
00_COMPONENTS_1
100
AcDbLine
 62
7
  6
CONTINUOUS
 10
68.7608894702
 20
109.9360431655
 11
70.8608894702
 21
109.9360431655
  0
LINE
  5
299
100
AcDbEntity
  8
00_COMPONENTS_1
100
AcDbLine
 62
7
  6
CONTINUOUS
 10
70.8608894702
 20
110.6860431655
 11
68.7608894702
 21
110.6860431655
  0
LINE
  5
29A
100
AcDbEntity
  8
00_COMPONENTS_1
100
AcDbLine
 62
7
  6
CONTINUOUS
 10
65.6608894702
 20
110.6860431655
 11
63.5608894702
 21
110.6860431655
  0
LINE
  5
29B
100
AcDbEntity
  8
00_COMPONENTS_1
100
AcDbLine
 62
7
  6
CONTINUOUS
 10
60.4608894702
 20
110.6860431655
 11
58.3608894702
 21
110.6860431655
  0
LINE
  5
29C
100
AcDbEntity
  8
00_COMPONENTS_1
100
AcDbLine
 62
7
  6
CONTINUOUS
 10
55.2608894702
 20
110.6860431655
 11
53.1608894702
 21
110.6860431655
  0
LINE
  5
29D
100
AcDbEntity
  8
00_COMPONENTS_1
100
AcDbLine
 62
7
  6
CONTINUOUS
 10
50.0608894702
 20
110.6860431655
 11
47.9608894702
 21
110.6860431655
  0
LINE
  5
29E
100
AcDbEntity
  8
00_COMPONENTS_1
100
AcDbLine
 62
7
  6
CONTINUOUS
 10
44.8608894702
 20
110.6860431655
 11
42.7608894702
 21
110.6860431655
  0
LINE
  5
29F
100
AcDbEntity
  8
00_COMPONENTS_1
100
AcDbLine
 62
7
  6
CONTINUOUS
 10
39.6608894702
 20
110.6860431655
 11
37.5608894702
 21
110.6860431655
  0
LINE
  5
2A0
100
AcDbEntity
  8
00_COMPONENTS_1
100
AcDbLine
 62
7
  6
CONTINUOUS
 10
58.720290547
 20
133.9360431655
 11
57.5655900086
 21
135.9360431655
  0
LINE
  5
2A1
100
AcDbEntity
  8
00_COMPONENTS_1
100
AcDbLine
 62
7
  6
CONTINUOUS
 10
37.5608894702
 20
111.5860431655
 11
39.6608894702
 21
111.5860431655
  0
LINE
  5
2A2
100
AcDbEntity
  8
00_COMPONENTS_1
100
AcDbLine
 62
7
  6
CONTINUOUS
 10
42.7608894702
 20
111.5860431655
 11
44.8608894702
 21
111.5860431655
  0
LINE
  5
2A3
100
AcDbEntity
  8
00_COMPONENTS_1
100
AcDbLine
 62
7
  6
CONTINUOUS
 10
47.9608894702
 20
111.5860431655
 11
50.0608894702
 21
111.5860431655
  0
LINE
  5
2A4
100
AcDbEntity
  8
00_COMPONENTS_1
100
AcDbLine
 62
7
  6
CONTINUOUS
 10
53.1608894702
 20
111.5860431655
 11
55.2608894702
 21
111.5860431655
  0
LINE
  5
2A5
100
AcDbEntity
  8
00_COMPONENTS_1
100
AcDbLine
 62
7
  6
CONTINUOUS
 10
58.3608894702
 20
111.5860431655
 11
60.4608894702
 21
111.5860431655
  0
LINE
  5
2A6
100
AcDbEntity
  8
00_COMPONENTS_1
100
AcDbLine
 62
7
  6
CONTINUOUS
 10
63.5608894702
 20
111.5860431655
 11
65.6608894702
 21
111.5860431655
  0
LINE
  5
2A7
100
AcDbEntity
  8
00_COMPONENTS_1
100
AcDbLine
 62
7
  6
CONTINUOUS
 10
68.7608894702
 20
111.5860431655
 11
70.8608894702
 21
111.5860431655
  0
LINE
  5
2A8
100
AcDbEntity
  8
00_COMPONENTS_1
100
AcDbLine
 62
7
  6
CONTINUOUS
 10
29.0108894702
 20
113.5860431655
 11
83.8108894702
 21
113.5860431655
  0
LINE
  5
2A9
100
AcDbEntity
  8
00_COMPONENTS_1
100
AcDbLine
 62
7
  6
CONTINUOUS
 10
72.7561889319
 20
22.6360431655
 11
71.6014883935
 21
20.6360431655
  0
LINE
  5
2AA
100
AcDbEntity
  8
00_COMPONENTS_1
100
AcDbLine
 62
7
  6
CONTINUOUS
 10
71.6014883935
 20
133.9360431655
 11
72.7561889319
 21
131.9360431655
  0
LINE
  5
2AB
100
AcDbEntity
  8
00_COMPONENTS_1
100
AcDbLine
 62
7
  6
CONTINUOUS
 10
75.0655900086
 20
18.6360431655
 11
76.220290547
 21
20.6360431655
  0
LINE
  5
2AC
100
AcDbEntity
  8
00_COMPONENTS_1
100
AcDbLine
 62
7
  6
CONTINUOUS
 10
76.220290547
 20
133.9360431655
 11
75.0655900086
 21
135.9360431655
  0
LINE
  5
2AD
100
AcDbEntity
  8
00_COMPONENTS_1
100
AcDbLine
 62
7
  6
CONTINUOUS
 10
75.0655900086
 20
131.9360431655
 11
72.7561889319
 21
131.9360431655
  0
LINE
  5
2AE
100
AcDbEntity
  8
00_COMPONENTS_1
100
AcDbLine
 62
7
  6
CONTINUOUS
 10
57.5655900086
 20
131.9360431655
 11
55.2561889319
 21
131.9360431655
  0
LINE
  5
2AF
100
AcDbEntity
  8
00_COMPONENTS_1
100
AcDbLine
 62
7
  6
CONTINUOUS
 10
40.0655900086
 20
131.9360431655
 11
37.7561889319
 21
131.9360431655
  0
LINE
  5
2B0
100
AcDbEntity
  8
00_COMPONENTS_1
100
AcDbLine
 62
7
  6
CONTINUOUS
 10
37.7561889319
 20
135.9360431655
 11
40.0655900086
 21
135.9360431655
  0
LINE
  5
2B1
100
AcDbEntity
  8
00_COMPONENTS_1
100
AcDbLine
 62
7
  6
CONTINUOUS
 10
55.2561889319
 20
135.9360431655
 11
57.5655900086
 21
135.9360431655
  0
LINE
  5
2B2
100
AcDbEntity
  8
00_COMPONENTS_1
100
AcDbLine
 62
7
  6
CONTINUOUS
 10
72.7561889319
 20
135.9360431655
 11
75.0655900086
 21
135.9360431655
  0
LINE
  5
2B3
100
AcDbEntity
  8
00_COMPONENTS_1
100
AcDbLine
 62
7
  6
CONTINUOUS
 10
83.8108894702
 20
141.9360431655
 11
68.2630735668
 21
141.9360431655
  0
LINE
  5
2B4
100
AcDbEntity
  8
00_COMPONENTS_1
100
AcDbLine
 62
7
  6
CONTINUOUS
 10
62.0587049566
 20
141.9360431655
 11
50.7630731133
 21
141.9360431655
  0
LINE
  5
2B5
100
AcDbEntity
  8
00_COMPONENTS_1
100
AcDbLine
 62
7
  6
CONTINUOUS
 10
44.5587053737
 20
141.9360431655
 11
29.0108894702
 21
141.9360431655
  0
LINE
  5
2B6
100
AcDbEntity
  8
00_COMPONENTS_1
100
AcDbLine
 62
7
  6
CONTINUOUS
 10
83.8108894702
 20
143.4360431655
 11
29.0108894702
 21
143.4360431655
  0
ARC
  5
2B7
100
AcDbEntity
  8
00_COMPONENTS_1
100
AcDbCircle
 62
7
  6
CONTINUOUS
 10
33.0108894702
 20
57.0860431655
 40
4.0
100
AcDbArc
 50
180.0
 51
270.0
  0
CIRCLE
  5
2B8
100
AcDbEntity
  8
00_COMPONENTS_1
100
AcDbCircle
 62
7
  6
CONTINUOUS
 10
38.9108894702
 20
20.6360431655
 40
3.9
  0
ARC
  5
2B9
100
AcDbEntity
  8
00_COMPONENTS_1
100
AcDbCircle
 62
7
  6
CONTINUOUS
 10
51.4108894702
 20
59.6360431655
 40
2.1
100
AcDbArc
 50
313.5776803758
 51
44.4916934478
  0
ARC
  5
2BA
100
AcDbEntity
  8
00_COMPONENTS_1
100
AcDbCircle
 62
7
  6
CONTINUOUS
 10
50.274316595
 20
72.5860431655
 40
2.0
100
AcDbArc
 50
90.0
 51
135.0000000006
  0
ARC
  5
2BB
100
AcDbEntity
  8
00_COMPONENTS_1
100
AcDbCircle
 62
7
  6
CONTINUOUS
 10
51.4108894702
 20
59.6360431655
 40
1.9
100
AcDbArc
 50
321.2745531974
 51
39.6290197629
  0
ARC
  5
2BC
100
AcDbEntity
  8
00_COMPONENTS_1
100
AcDbCircle
 62
7
  6
CONTINUOUS
 10
33.0108894702
 20
94.0860431655
 40
4.0
100
AcDbArc
 50
90.0
 51
180.0
  0
CIRCLE
  5
2BD
100
AcDbEntity
  8
00_COMPONENTS_1
100
AcDbCircle
 62
7
  6
CONTINUOUS
 10
38.9108894702
 20
133.9360431655
 40
3.9
  0
ARC
  5
2BE
100
AcDbEntity
  8
00_COMPONENTS_1
100
AcDbCircle
 62
7
  6
CONTINUOUS
 10
39.6608894702
 20
107.8360431655
 40
0.45
100
AcDbArc
 50
270.0
 51
90.0
  0
ARC
  5
2BF
100
AcDbEntity
  8
00_COMPONENTS_1
100
AcDbCircle
 62
7
  6
CONTINUOUS
 10
37.5608894702
 20
107.8360431655
 40
0.45
100
AcDbArc
 50
90.0
 51
270.0
  0
ARC
  5
2C0
100
AcDbEntity
  8
00_COMPONENTS_1
100
AcDbCircle
 62
7
  6
CONTINUOUS
 10
37.5608894702
 20
109.4860431655
 40
0.45
100
AcDbArc
 50
90.0
 51
270.0
  0
ARC
  5
2C1
100
AcDbEntity
  8
00_COMPONENTS_1
100
AcDbCircle
 62
7
  6
CONTINUOUS
 10
39.6608894702
 20
109.4860431655
 40
0.45
100
AcDbArc
 50
270.0
 51
90.0
  0
ARC
  5
2C2
100
AcDbEntity
  8
00_COMPONENTS_1
100
AcDbCircle
 62
7
  6
CONTINUOUS
 10
42.7608894702
 20
109.4860431655
 40
0.45
100
AcDbArc
 50
90.0
 51
270.0
  0
ARC
  5
2C3
100
AcDbEntity
  8
00_COMPONENTS_1
100
AcDbCircle
 62
7
  6
CONTINUOUS
 10
42.7608894702
 20
107.8360431655
 40
0.45
100
AcDbArc
 50
90.0
 51
270.0
  0
ARC
  5
2C4
100
AcDbEntity
  8
00_COMPONENTS_1
100
AcDbCircle
 62
7
  6
CONTINUOUS
 10
42.7608894702
 20
111.1360431655
 40
0.45
100
AcDbArc
 50
90.0
 51
270.0
  0
ARC
  5
2C5
100
AcDbEntity
  8
00_COMPONENTS_1
100
AcDbCircle
 62
7
  6
CONTINUOUS
 10
39.6608894702
 20
111.1360431655
 40
0.45
100
AcDbArc
 50
270.0
 51
90.0
  0
ARC
  5
2C6
100
AcDbEntity
  8
00_COMPONENTS_1
100
AcDbCircle
 62
7
  6
CONTINUOUS
 10
37.5608894702
 20
111.1360431655
 40
0.45
100
AcDbArc
 50
90.0
 51
270.0
  0
ARC
  5
2C7
100
AcDbEntity
  8
00_COMPONENTS_1
100
AcDbCircle
 62
7
  6
CONTINUOUS
 10
50.274316595
 20
78.5860431655
 40
2.0
100
AcDbArc
 50
224.9999999992
 51
270.0
  0
ARC
  5
2C8
100
AcDbEntity
  8
00_COMPONENTS_1
100
AcDbCircle
 62
7
  6
CONTINUOUS
 10
44.8608894702
 20
109.4860431655
 40
0.45
100
AcDbArc
 50
270.0
 51
90.0
  0
ARC
  5
2C9
100
AcDbEntity
  8
00_COMPONENTS_1
100
AcDbCircle
 62
7
  6
CONTINUOUS
 10
44.8608894702
 20
107.8360431655
 40
0.45
100
AcDbArc
 50
270.0
 51
90.0
  0
ARC
  5
2CA
100
AcDbEntity
  8
00_COMPONENTS_1
100
AcDbCircle
 62
7
  6
CONTINUOUS
 10
50.0608894702
 20
107.8360431655
 40
0.45
100
AcDbArc
 50
270.0
 51
90.0
  0
ARC
  5
2CB
100
AcDbEntity
  8
00_COMPONENTS_1
100
AcDbCircle
 62
7
  6
CONTINUOUS
 10
47.9608894702
 20
107.8360431655
 40
0.45
100
AcDbArc
 50
90.0
 51
270.0
  0
ARC
  5
2CC
100
AcDbEntity
  8
00_COMPONENTS_1
100
AcDbCircle
 62
7
  6
CONTINUOUS
 10
47.9608894702
 20
109.4860431655
 40
0.45
100
AcDbArc
 50
90.0
 51
270.0
  0
ARC
  5
2CD
100
AcDbEntity
  8
00_COMPONENTS_1
100
AcDbCircle
 62
7
  6
CONTINUOUS
 10
50.0608894702
 20
109.4860431655
 40
0.45
100
AcDbArc
 50
270.0
 51
90.0
  0
ARC
  5
2CE
100
AcDbEntity
  8
00_COMPONENTS_1
100
AcDbCircle
 62
7
  6
CONTINUOUS
 10
55.2608894702
 20
109.4860431655
 40
0.45
100
AcDbArc
 50
270.0
 51
90.0
  0
ARC
  5
2CF
100
AcDbEntity
  8
00_COMPONENTS_1
100
AcDbCircle
 62
7
  6
CONTINUOUS
 10
53.1608894702
 20
109.4860431655
 40
0.45
100
AcDbArc
 50
90.0
 51
270.0
  0
ARC
  5
2D0
100
AcDbEntity
  8
00_COMPONENTS_1
100
AcDbCircle
 62
7
  6
CONTINUOUS
 10
53.1608894702
 20
107.8360431655
 40
0.45
100
AcDbArc
 50
90.0
 51
270.0
  0
ARC
  5
2D1
100
AcDbEntity
  8
00_COMPONENTS_1
100
AcDbCircle
 62
7
  6
CONTINUOUS
 10
55.2608894702
 20
107.8360431655
 40
0.45
100
AcDbArc
 50
270.0
 51
90.0
  0
ARC
  5
2D2
100
AcDbEntity
  8
00_COMPONENTS_1
100
AcDbCircle
 62
7
  6
CONTINUOUS
 10
55.2608894702
 20
111.1360431655
 40
0.45
100
AcDbArc
 50
270.0
 51
90.0
  0
ARC
  5
2D3
100
AcDbEntity
  8
00_COMPONENTS_1
100
AcDbCircle
 62
7
  6
CONTINUOUS
 10
53.1608894702
 20
111.1360431655
 40
0.45
100
AcDbArc
 50
90.0
 51
270.0
  0
ARC
  5
2D4
100
AcDbEntity
  8
00_COMPONENTS_1
100
AcDbCircle
 62
7
  6
CONTINUOUS
 10
50.0608894702
 20
111.1360431655
 40
0.45
100
AcDbArc
 50
270.0
 51
90.0
  0
ARC
  5
2D5
100
AcDbEntity
  8
00_COMPONENTS_1
100
AcDbCircle
 62
7
  6
CONTINUOUS
 10
47.9608894702
 20
111.1360431655
 40
0.45
100
AcDbArc
 50
90.0
 51
270.0
  0
ARC
  5
2D6
100
AcDbEntity
  8
00_COMPONENTS_1
100
AcDbCircle
 62
7
  6
CONTINUOUS
 10
44.8608894702
 20
111.1360431655
 40
0.45
100
AcDbArc
 50
270.0
 51
90.0
  0
ARC
  5
2D7
100
AcDbEntity
  8
00_COMPONENTS_1
100
AcDbCircle
 62
7
  6
CONTINUOUS
 10
56.4708894702
 20
-90.5093800936
 40
163.0237310622
100
AcDbArc
 50
86.1130304821
 51
90.0000000006
  0
ARC
  5
2D8
100
AcDbEntity
  8
00_COMPONENTS_1
100
AcDbCircle
 62
7
  6
CONTINUOUS
 10
79.8108894702
 20
57.0860431655
 40
4.0
100
AcDbArc
 50
270.0
 51
360.0
  0
CIRCLE
  5
2D9
100
AcDbEntity
  8
00_COMPONENTS_1
100
AcDbCircle
 62
7
  6
CONTINUOUS
 10
56.4108894702
 20
20.6360431655
 40
3.9
  0
CIRCLE
  5
2DA
100
AcDbEntity
  8
00_COMPONENTS_1
100
AcDbCircle
 62
7
  6
CONTINUOUS
 10
73.9108894702
 20
20.6360431655
 40
3.9
  0
ARC
  5
2DB
100
AcDbEntity
  8
00_COMPONENTS_1
100
AcDbCircle
 62
7
  6
CONTINUOUS
 10
56.4708894702
 20
75.5860431655
 40
14.506131654
100
AcDbArc
 50
181.2092371955
 51
255.564913594
  0
ARC
  5
2DC
100
AcDbEntity
  8
00_COMPONENTS_1
100
AcDbCircle
 62
7
  6
CONTINUOUS
 10
56.4708894702
 20
75.5860431655
 40
14.2
100
AcDbArc
 50
189.404931189
 51
256.5204322852
  0
ARC
  5
2DD
100
AcDbEntity
  8
00_COMPONENTS_1
100
AcDbCircle
 62
7
  6
CONTINUOUS
 10
56.4708894702
 20
75.5860431655
 40
14.2
100
AcDbArc
 50
180.0
 51
187.5965432792
  0
ARC
  5
2DE
100
AcDbEntity
  8
00_COMPONENTS_1
100
AcDbCircle
 62
7
  6
CONTINUOUS
 10
56.4708894702
 20
75.5860431655
 40
14.1674979742
100
AcDbArc
 50
185.4097994744
 51
174.5902005314
  0
ARC
  5
2DF
100
AcDbEntity
  8
00_COMPONENTS_1
100
AcDbCircle
 62
7
  6
CONTINUOUS
 10
56.4708894702
 20
75.5860431633
 40
12.9499999998
100
AcDbArc
 50
344.5644747219
 51
15.4355252781
  0
ARC
  5
2E0
100
AcDbEntity
  8
00_COMPONENTS_1
100
AcDbCircle
 62
7
  6
CONTINUOUS
 10
56.4708894702
 20
75.5860431655
 40
12.7458470894
100
AcDbArc
 50
163.7109354633
 51
196.2890645367
  0
CIRCLE
  5
2E1
100
AcDbEntity
  8
00_COMPONENTS_1
100
AcDbCircle
 62
7
  6
CONTINUOUS
 10
56.4108894702
 20
133.9360431655
 40
3.9
  0
ARC
  5
2E2
100
AcDbEntity
  8
00_COMPONENTS_1
100
AcDbCircle
 62
7
  6
CONTINUOUS
 10
60.4608894702
 20
109.4860431655
 40
0.45
100
AcDbArc
 50
270.0
 51
90.0
  0
ARC
  5
2E3
100
AcDbEntity
  8
00_COMPONENTS_1
100
AcDbCircle
 62
7
  6
CONTINUOUS
 10
58.3608894702
 20
109.4860431655
 40
0.45
100
AcDbArc
 50
90.0
 51
270.0
  0
ARC
  5
2E4
100
AcDbEntity
  8
00_COMPONENTS_1
100
AcDbCircle
 62
7
  6
CONTINUOUS
 10
58.3608894702
 20
107.8360431655
 40
0.45
100
AcDbArc
 50
90.0
 51
270.0
  0
ARC
  5
2E5
100
AcDbEntity
  8
00_COMPONENTS_1
100
AcDbCircle
 62
7
  6
CONTINUOUS
 10
60.4608894702
 20
107.8360431655
 40
0.45
100
AcDbArc
 50
270.0
 51
90.0
  0
ARC
  5
2E6
100
AcDbEntity
  8
00_COMPONENTS_1
100
AcDbCircle
 62
7
  6
CONTINUOUS
 10
60.4608894702
 20
111.1360431655
 40
0.45
100
AcDbArc
 50
269.9999999999
 51
90.0
  0
ARC
  5
2E7
100
AcDbEntity
  8
00_COMPONENTS_1
100
AcDbCircle
 62
7
  6
CONTINUOUS
 10
58.3608894702
 20
111.1360431655
 40
0.45
100
AcDbArc
 50
90.0
 51
270.0000000001
  0
ARC
  5
2E8
100
AcDbEntity
  8
00_COMPONENTS_1
100
AcDbCircle
 62
7
  6
CONTINUOUS
 10
65.6608894702
 20
109.4860431655
 40
0.45
100
AcDbArc
 50
270.0
 51
90.0
  0
ARC
  5
2E9
100
AcDbEntity
  8
00_COMPONENTS_1
100
AcDbCircle
 62
7
  6
CONTINUOUS
 10
63.5608894702
 20
109.4860431655
 40
0.45
100
AcDbArc
 50
90.0
 51
270.0
  0
ARC
  5
2EA
100
AcDbEntity
  8
00_COMPONENTS_1
100
AcDbCircle
 62
7
  6
CONTINUOUS
 10
63.5608894702
 20
107.8360431655
 40
0.45
100
AcDbArc
 50
90.0
 51
270.0
  0
ARC
  5
2EB
100
AcDbEntity
  8
00_COMPONENTS_1
100
AcDbCircle
 62
7
  6
CONTINUOUS
 10
65.6608894702
 20
107.8360431655
 40
0.45
100
AcDbArc
 50
270.0
 51
90.0
  0
ARC
  5
2EC
100
AcDbEntity
  8
00_COMPONENTS_1
100
AcDbCircle
 62
7
  6
CONTINUOUS
 10
65.6608894702
 20
111.1360431655
 40
0.45
100
AcDbArc
 50
270.0
 51
90.0
  0
ARC
  5
2ED
100
AcDbEntity
  8
00_COMPONENTS_1
100
AcDbCircle
 62
7
  6
CONTINUOUS
 10
63.5608894702
 20
111.1360431655
 40
0.45
100
AcDbArc
 50
90.0
 51
270.0
  0
ARC
  5
2EE
100
AcDbEntity
  8
00_COMPONENTS_1
100
AcDbCircle
 62
7
  6
CONTINUOUS
 10
56.4708894702
 20
241.6814664203
 40
163.0237310622
100
AcDbArc
 50
270.0000000006
 51
273.8869695182
  0
ARC
  5
2EF
100
AcDbEntity
  8
00_COMPONENTS_1
100
AcDbCircle
 62
7
  6
CONTINUOUS
 10
79.8108894702
 20
94.0860431655
 40
4.0
100
AcDbArc
 50
0.0
 51
90.0
  0
CIRCLE
  5
2F0
100
AcDbEntity
  8
00_COMPONENTS_1
100
AcDbCircle
 62
7
  6
CONTINUOUS
 10
73.9108894702
 20
133.9360431655
 40
3.9
  0
ARC
  5
2F1
100
AcDbEntity
  8
00_COMPONENTS_1
100
AcDbCircle
 62
7
  6
CONTINUOUS
 10
70.8608894702
 20
107.8360431655
 40
0.45
100
AcDbArc
 50
270.0
 51
90.0
  0
ARC
  5
2F2
100
AcDbEntity
  8
00_COMPONENTS_1
100
AcDbCircle
 62
7
  6
CONTINUOUS
 10
68.7608894702
 20
107.8360431655
 40
0.45
100
AcDbArc
 50
90.0
 51
270.0
  0
ARC
  5
2F3
100
AcDbEntity
  8
00_COMPONENTS_1
100
AcDbCircle
 62
7
  6
CONTINUOUS
 10
70.8608894702
 20
109.4860431655
 40
0.45
100
AcDbArc
 50
270.0
 51
90.0
  0
ARC
  5
2F4
100
AcDbEntity
  8
00_COMPONENTS_1
100
AcDbCircle
 62
7
  6
CONTINUOUS
 10
68.7608894702
 20
109.4860431655
 40
0.45
100
AcDbArc
 50
90.0
 51
270.0
  0
ARC
  5
2F5
100
AcDbEntity
  8
00_COMPONENTS_1
100
AcDbCircle
 62
7
  6
CONTINUOUS
 10
70.8608894702
 20
111.1360431655
 40
0.45
100
AcDbArc
 50
270.0
 51
90.0
  0
ARC
  5
2F6
100
AcDbEntity
  8
00_COMPONENTS_1
100
AcDbCircle
 62
7
  6
CONTINUOUS
 10
68.7608894702
 20
111.1360431655
 40
0.45
100
AcDbArc
 50
90.0
 51
270.0000000001
  0
SPLINE
  5
2F7
100
AcDbEntity
  8
00_COMPONENTS_1
100
AcDbSpline
 62
7
  6
CONTINUOUS
 70
0
 71
3
 72
15
 73
11
 74
0
 42
0.0000001
 43
0.0000001
 44
0.0000000001
 40
0.0
 40
0.0
 40
0.0
 40
0.0
 40
0.1250000433
 40
0.2500000372
 40
0.3750000311
 40
0.500000025
 40
0.6250000188
 40
0.7500000127
 40
0.8750000066
 40
1.0
 40
1.0
 40
1.0
 40
1.0
 10
62.1645232545
 20
140.8622246987
 30
0.0
 10
62.1832431708
 20
140.6722595205
 30
0.0
 10
62.3669483876
 20
140.2960106992
 30
0.0
 10
63.0419367094
 20
139.8230760467
 30
0.0
 10
64.0198507518
 20
139.5092687295
 30
0.0
 10
65.1608891046
 20
139.3994297119
 30
0.0
 10
66.3019274567
 20
139.5092687363
 30
0.0
 10
67.2798414972
 20
139.8230760593
 30
0.0
 10
67.9548297263
 20
140.2960106529
 30
0.0
 10
68.1385349574
 20
140.6722593879
 30
0.0
 10
68.1572549235
 20
140.8622244888
 30
0.0
  0
SPLINE
  5
2F8
100
AcDbEntity
  8
00_COMPONENTS_1
100
AcDbSpline
 62
7
  6
CONTINUOUS
 70
0
 71
3
 72
15
 73
11
 74
0
 42
0.0000001
 43
0.0000001
 44
0.0000000001
 40
0.0
 40
0.0
 40
0.0
 40
0.0
 40
0.1250000433
 40
0.2500000372
 40
0.375000031
 40
0.5000000249
 40
0.6250000188
 40
0.7500000127
 40
0.8750000066
 40
1.0
 40
1.0
 40
1.0
 40
1.0
 10
44.6645236704
 20
140.8622247107
 30
0.0
 10
44.683243584
 20
140.6722595602
 30
0.0
 10
44.8669487741
 20
140.2960107935
 30
0.0
 10
45.5419369979
 20
139.8230762092
 30
0.0
 10
46.5198508985
 20
139.5092689372
 30
0.0
 10
47.6608890858
 20
139.3994299352
 30
0.0
 10
48.8019272726
 20
139.5092689433
 30
0.0
 10
49.7798411716
 20
139.8230762205
 30
0.0
 10
50.454829303
 20
140.2960107454
 30
0.0
 10
50.6385345076
 20
140.672259426
 30
0.0
 10
50.657254471
 20
140.8622244994
 30
0.0
  0
SPLINE
  5
2F9
100
AcDbEntity
  8
00_COMPONENTS_1
100
AcDbSpline
 62
7
  6
CONTINUOUS
 70
0
 71
3
 72
15
 73
11
 74
0
 42
0.0000001
 43
0.0000001
 44
0.0000000001
 40
0.0
 40
0.0
 40
0.0
 40
0.0
 40
0.1250000017
 40
0.2500000024
 40
0.3750000032
 40
0.5000000039
 40
0.6250000047
 40
0.7500000054
 40
0.8750000062
 40
1.0
 40
1.0
 40
1.0
 40
1.0
 10
50.6572550592
 20
13.7098618454
 30
0.0
 10
50.6385350954
 20
13.8998269226
 30
0.0
 10
50.4548298864
 20
14.2760756077
 30
0.0
 10
49.7798417419
 20
14.7490101334
 30
0.0
 10
48.8019278307
 20
15.0628174057
 30
0.0
 10
47.6608896318
 20
15.1726564054
 30
0.0
 10
46.5198514341
 20
15.062817393
 30
0.0
 10
45.5419375264
 20
14.7490101098
 30
0.0
 10
44.8669494013
 20
14.2760755863
 30
0.0
 10
44.6832441938
 20
13.8998269129
 30
0.0
 10
44.6645242242
 20
13.7098618476
 30
0.0
  0
SPLINE
  5
2FA
100
AcDbEntity
  8
00_COMPONENTS_1
100
AcDbSpline
 62
7
  6
CONTINUOUS
 70
0
 71
3
 72
15
 73
11
 74
0
 42
0.0000001
 43
0.0000001
 44
0.0000000001
 40
0.0
 40
0.0
 40
0.0
 40
0.0
 40
0.1250000015
 40
0.2500000022
 40
0.375000003
 40
0.5000000037
 40
0.6250000045
 40
0.7500000052
 40
0.875000006
 40
1.0
 40
1.0
 40
1.0
 40
1.0
 10
68.1572550259
 20
13.7098618429
 30
0.0
 10
68.1385350621
 20
13.8998269199
 30
0.0
 10
67.9548298534
 20
14.2760756048
 30
0.0
 10
67.2798417098
 20
14.7490101311
 30
0.0
 10
66.3019277989
 20
15.0628174044
 30
0.0
 10
65.1608896001
 20
15.1726564054
 30
0.0
 10
64.0198514023
 20
15.0628173942
 30
0.0
 10
63.0419374943
 20
14.7490101121
 30
0.0
 10
62.3669493683
 20
14.2760755892
 30
0.0
 10
62.1832441605
 20
13.8998269156
 30
0.0
 10
62.1645241908
 20
13.70986185
 30
0.0
  0
ENDSEC
  0
SECTION
  2
OBJECTS
  0
DICTIONARY
  5
C
100
AcDbDictionary
280
0
281
1
  3
ACAD_GROUP
350
D
  3
ACAD_MLINESTYLE
350
17
  3
ACAD_LAYOUT
350
1A
  3
ACAD_PLOTSETTINGS
350
19
  3
ACAD_PLOTSTYLENAME
350
E
  0
DICTIONARY
  5
D
102
{ACAD_REACTORS
330
C
102
}
100
AcDbDictionary
280
0
281
1
  0
ACDBDICTIONARYWDFLT
  5
E
102
{ACAD_REACTORS
330
C
102
}
100
AcDbDictionary
281
1
  3
Normal
350
F
100
AcDbDictionaryWithDefault
340
F
  0
DICTIONARY
  5
17
102
{ACAD_REACTORS
330
C
102
}
100
AcDbDictionary
280
0
281
1
  3
Standard
350
18
  0
DICTIONARY
  5
19
102
{ACAD_REACTORS
330
C
102
}
100
AcDbDictionary
281
1
  0
DICTIONARY
  5
1A
102
{ACAD_REACTORS
330
C
102
}
100
AcDbDictionary
281
1
  3
Model
350
2FB
  3
Layout1
350
2FC
  0
ACDBPLACEHOLDER
  5
F
102
{ACAD_REACTORS
330
E
102
}
  0
MLINESTYLE
  5
18
102
{ACAD_REACTORS
330
17
102
}
100
AcDbMlineStyle
  2
STANDARD
 70
0
  3

 62
256
 51
90.0
 52
90.0
 71
2
 49
0.5
 62
256
  6
BYLAYER
 49
-0.5
 62
256
  6
BYLAYER
  0
LAYOUT
  5
2FB
102
{ACAD_REACTORS
330
1A
102
}
100
AcDbPlotSettings
  1

  2
none_device
  4

  6

 40
0.0
 41
0.0
 42
0.0
 43
0.0
 44
210.0
 45
297.0
 46
0.0
 47
0.0
 48
0.0
 49
0.0
140
0.0
141
0.0
142
1.0
143
1.0
 70
1024
 72
1
 73
0
 74
0
  7

 75
0
147
1.0
148
0.0
149
0.0
100
AcDbLayout
  1
Model
 70
0
 71
0
 10
0.0
 20
0.0
 11
210.0
 21
297.0
 12
0.0
 22
0.0
 32
0.0
 14
0.0
 24
0.0
 34
0.0
 15
0.0
 25
0.0
 35
0.0
146
0.0
 13
0.0
 23
0.0
 33
0.0
 16
1.0
 26
0.0
 36
0.0
 17
0.0
 27
1.0
 37
0.0
 76
0
330
212
345
0
346
0
  0
LAYOUT
  5
2FC
102
{ACAD_REACTORS
330
1A
102
}
100
AcDbPlotSettings
  1

  2
none_device
  4

  6

 40
0.0
 41
0.0
 42
0.0
 43
0.0
 44
210.0
 45
297.0
 46
0.0
 47
0.0
 48
0.0
 49
0.0
140
0.0
141
0.0
142
1.0
143
1.0
 70
0
 72
1
 73
0
 74
0
  7

 75
0
147
1.0
148
0.0
149
0.0
100
AcDbLayout
  1
Layout1
 70
0
 71
1
 10
0.0
 20
0.0
 11
210.0
 21
297.0
 12
0.0
 22
0.0
 32
0.0
 14
0.0
 24
0.0
 34
0.0
 15
0.0
 25
0.0
 35
0.0
146
0.0
 13
0.0
 23
0.0
 33
0.0
 16
1.0
 26
0.0
 36
0.0
 17
0.0
 27
1.0
 37
0.0
 76
0
330
213
345
0
346
0
  0
ENDSEC
  0
EOF
