999
DXF file: C:\Users\sesa63760\Dev\_Creo\CAD\MCADID0005867_3D-CAD\mcadid0005867_3d-simplified_7.dxf
999
Pro/ENGINEER 2019471 by Parametric Technology Corporation
  0
SECTION
  2
HEADER
  9
$ACADVER
  1
AC1024
  9
$DWGCODEPAGE
  3
ANSI_1252
  9
$EXTMAX
 10
97.9537081781
 20
138.5345301377
 30
0.0
  9
$EXTMIN
 10
0.0
 20
0.0
 30
0.0
  9
$LIMMIN
 10
0.0
 20
0.0
  9
$LIMMAX
 10
97.9537081781
 20
138.5345301377
  9
$VIEWCTR
 10
48.9768540891
 20
69.2672650688
  9
$VIEWSIZE
 40
138.5345301377
  9
$CLAYER
  8
0
  9
$LTSCALE
 40
9.0303990016
  9
$CELTYPE
  6
BYLAYER
  9
$DIMSCALE
 40
1.0
  9
$DIMASZ
 40
1.1661155735
  9
$DIMEXO
 40
1.0
  9
$DIMDLI
 40
6.2391847647
  9
$DIMEXE
 40
1.0
  9
$DIMCEN
 40
1.4777016548
  9
$DIMLFAC
 40
1.0
  9
$DIMBLK
  1
_FILLED
  9
$DIMALT
 70
0
  9
$DIMALTF
 40
0.0393700787
  9
$DIMTXT
 40
1.632561803
  9
$DIMTOL
 70
1
  9
$DIMLIM
 70
0
  9
$DIMTFAC
 40
1.0
  9
$DIMTP
 40
0.01
  9
$DIMTM
 40
0.01
  9
$DIMGAP
 40
0.625
  9
$DIMDSEP
 70
46
  9
$AUNITS
 70
0
  9
$PDMODE
 70
3
  9
$PDSIZE
 40
0.3125
  9
$HANDSEED
  5
299
  9
$TILEMODE
 70
1
  9
$MEASUREMENT
 70
1
  9
$INSUNITS
 70
4
  0
ENDSEC
  0
SECTION
  2
CLASSES
  0
CLASS
  1
ACDBDICTIONARYWDFLT
  2
AcDbDictionaryWithDefault
  3
AutoCAD 2000
 90
0
 91
1
280
0
281
0
  0
CLASS
  1
ACDBPLACEHOLDER
  2
AcDbPlaceHolder
  3
AutoCAD 2000
 90
0
 91
1
280
0
281
0
  0
CLASS
  1
LAYOUT
  2
AcDbLayout
  3
AutoCAD 2000
 90
0
 91
0
280
0
281
0
  0
ENDSEC
  0
SECTION
  2
TABLES
  0
TABLE
  2
VPORT
  5
8
100
AcDbSymbolTable
 70
2
  0
VPORT
  5
1F4
100
AcDbSymbolTableRecord
100
AcDbViewportTableRecord
  2
*ACTIVE
 70
0
 10
0.0
 20
0.0
 11
1.0
 21
1.0
 12
48.9768540891
 22
69.2672650688
 13
0.0
 23
0.0
 14
1.0
 24
1.0
 15
0.0
 25
0.0
 16
0.0
 26
0.0
 36
1.0
 17
0.0
 27
0.0
 37
0.0
 40
138.5345301377
 41
0.7070707071
 42
50.0
 43
0.0
 44
0.0
 50
0.0
 51
0.0
 71
0
 72
100
 73
1
 74
1
 75
0
 76
0
 77
0
 78
0
  0
ENDTAB
  0
TABLE
  2
LTYPE
  5
5
100
AcDbSymbolTable
 70
6
  0
LTYPE
  5
14
100
AcDbSymbolTableRecord
100
AcDbLinetypeTableRecord
  2
BYBLOCK
 70
0
  3

 72
65
 73
0
 40
0.0
  0
LTYPE
  5
15
100
AcDbSymbolTableRecord
100
AcDbLinetypeTableRecord
  2
BYLAYER
 70
0
  3

 72
65
 73
0
 40
0.0
  0
LTYPE
  5
16
100
AcDbSymbolTableRecord
100
AcDbLinetypeTableRecord
  2
CONTINUOUS
 70
64
  3
Solid line
 72
65
 73
0
 40
0.0
  0
LTYPE
  5
1F5
100
AcDbSymbolTableRecord
100
AcDbLinetypeTableRecord
  2
CENTER
 70
64
  3
____ _ ____ _ ____ _ ____ _ ____ _ ____ _ ____
 72
65
 73
4
 40
0.6
 49
0.375
 74
0
 49
-0.075
 74
0
 49
0.075
 74
0
 49
-0.075
 74
0
  0
LTYPE
  5
1F6
100
AcDbSymbolTableRecord
100
AcDbLinetypeTableRecord
  2
HIDDEN
 70
64
  3
- - - - - - - - - - - - - - - - - - - -
 72
65
 73
2
 40
0.2
 49
0.1
 74
0
 49
-0.1
 74
0
  0
LTYPE
  5
1F7
100
AcDbSymbolTableRecord
100
AcDbLinetypeTableRecord
  2
PHANTOM
 70
64
  3
_____ _ _ _____ _ _ _____ _ _ _____
 72
65
 73
6
 40
0.8
 49
0.45
 74
0
 49
-0.05
 74
0
 49
0.1
 74
0
 49
-0.05
 74
0
 49
0.1
 74
0
 49
-0.05
 74
0
  0
LTYPE
  5
1F8
100
AcDbSymbolTableRecord
100
AcDbLinetypeTableRecord
  2
DOT
 70
64
  3
. . . . . . . . . . . . . . . . . . . .
 72
65
 73
2
 40
0.2
 49
0.1
 74
0
 49
-0.1
 74
0
  0
LTYPE
  5
1F9
100
AcDbSymbolTableRecord
100
AcDbLinetypeTableRecord
  2
DASHED
 70
64
  3
- - - - - - - - - - - - - - - - - - - -
 72
65
 73
2
 40
0.2
 49
0.1
 74
0
 49
-0.1
 74
0
  0
ENDTAB
  0
TABLE
  2
LAYER
  5
2
100
AcDbSymbolTable
 70
36
  0
LAYER
  5
10
100
AcDbSymbolTableRecord
100
AcDbLayerTableRecord
  2
0
 70
0
 62
7
  6
CONTINUOUS
370
-3
390
F
  0
LAYER
  5
1FA
100
AcDbSymbolTableRecord
100
AcDbLayerTableRecord
  2
DEFAULT_1
 70
0
 62
7
  6
CENTER
370
-3
390
F
  0
LAYER
  5
1FB
100
AcDbSymbolTableRecord
100
AcDbLayerTableRecord
  2
DEFAULT_2
 70
0
 62
7
  6
HIDDEN
370
-3
390
F
  0
LAYER
  5
1FC
100
AcDbSymbolTableRecord
100
AcDbLayerTableRecord
  2
DEFAULT_3
 70
0
 62
7
  6
PHANTOM
370
-3
390
F
  0
LAYER
  5
1FD
100
AcDbSymbolTableRecord
100
AcDbLayerTableRecord
  2
00_COMPONENTS
 70
0
 62
7
  6
CONTINUOUS
370
-3
390
F
  0
LAYER
  5
1FE
100
AcDbSymbolTableRecord
100
AcDbLayerTableRecord
  2
01_1_DEFAULT_DATUMS
 70
0
 62
7
  6
CONTINUOUS
370
-3
390
F
  0
LAYER
  5
1FF
100
AcDbSymbolTableRecord
100
AcDbLayerTableRecord
  2
01_PLANES
 70
0
 62
7
  6
CONTINUOUS
370
-3
390
F
  0
LAYER
  5
200
100
AcDbSymbolTableRecord
100
AcDbLayerTableRecord
  2
02_COORD_SYS
 70
0
 62
7
  6
CONTINUOUS
370
-3
390
F
  0
LAYER
  5
201
100
AcDbSymbolTableRecord
100
AcDbLayerTableRecord
  2
03_AXES
 70
0
 62
7
  6
CONTINUOUS
370
-3
390
F
  0
LAYER
  5
202
100
AcDbSymbolTableRecord
100
AcDbLayerTableRecord
  2
04_POINTS
 70
0
 62
7
  6
CONTINUOUS
370
-3
390
F
  0
LAYER
  5
203
100
AcDbSymbolTableRecord
100
AcDbLayerTableRecord
  2
05_CURVES
 70
0
 62
7
  6
CONTINUOUS
370
-3
390
F
  0
LAYER
  5
204
100
AcDbSymbolTableRecord
100
AcDbLayerTableRecord
  2
06_SURFS
 70
0
 62
7
  6
CONTINUOUS
370
-3
390
F
  0
LAYER
  5
205
100
AcDbSymbolTableRecord
100
AcDbLayerTableRecord
  2
07_COSMETICS
 70
0
 62
7
  6
CONTINUOUS
370
-3
390
F
  0
LAYER
  5
206
100
AcDbSymbolTableRecord
100
AcDbLayerTableRecord
  2
10_NOTES
 70
0
 62
7
  6
CONTINUOUS
370
-3
390
F
  0
LAYER
  5
207
100
AcDbSymbolTableRecord
100
AcDbLayerTableRecord
  2
11_NOTES_PUB
 70
0
 62
7
  6
CONTINUOUS
370
-3
390
F
  0
LAYER
  5
208
100
AcDbSymbolTableRecord
100
AcDbLayerTableRecord
  2
13_REF_GTOL
 70
0
 62
7
  6
CONTINUOUS
370
-3
390
F
  0
LAYER
  5
209
100
AcDbSymbolTableRecord
100
AcDbLayerTableRecord
  2
16_MISC
 70
0
 62
7
  6
CONTINUOUS
370
-3
390
F
  0
LAYER
  5
20A
100
AcDbSymbolTableRecord
100
AcDbLayerTableRecord
  2
17_NO_PRINT
 70
0
 62
7
  6
CONTINUOUS
370
-3
390
F
  0
LAYER
  5
20B
100
AcDbSymbolTableRecord
100
AcDbLayerTableRecord
  2
18_DATUM_CAMS_JOINTS
 70
0
 62
7
  6
CONTINUOUS
370
-3
390
F
  0
LAYER
  5
20C
100
AcDbSymbolTableRecord
100
AcDbLayerTableRecord
  2
19_DATUM_FUNCTIONAL
 70
0
 62
7
  6
CONTINUOUS
370
-3
390
F
  0
LAYER
  5
20D
100
AcDbSymbolTableRecord
100
AcDbLayerTableRecord
  2
20_DATUM_KINEMATIC_SCHEME
 70
0
 62
7
  6
CONTINUOUS
370
-3
390
F
  0
ENDTAB
  0
TABLE
  2
STYLE
  5
3
100
AcDbSymbolTable
 70
1
  0
STYLE
  5
11
100
AcDbSymbolTableRecord
100
AcDbTextStyleTableRecord
  2
STANDARD
 70
0
 40
0.0
 41
1.0
 50
0.0
 71
0
 42
0.2
  3
ARIAL.TTF
  4

  0
STYLE
  5
20E
100
AcDbSymbolTableRecord
100
AcDbTextStyleTableRecord
  2
TEXTSTYLE_1
 70
0
 40
0.0
 41
0.8
 50
0.0
 71
0
 42
0.2
  3
gdt
  4

  0
ENDTAB
  0
TABLE
  2
VIEW
  5
6
100
AcDbSymbolTable
 70
0
  0
ENDTAB
  0
TABLE
  2
UCS
  5
7
100
AcDbSymbolTable
 70
0
  0
ENDTAB
  0
TABLE
  2
APPID
  5
9
100
AcDbSymbolTable
 70
1
  0
APPID
  5
20F
100
AcDbSymbolTableRecord
100
AcDbRegAppTableRecord
  2
ACAD
 70
0
  0
ENDTAB
  0
TABLE
  2
BLOCK_RECORD
  5
1
100
AcDbSymbolTable
 70
0
  0
BLOCK_RECORD
  5
210
100
AcDbSymbolTableRecord
100
AcDbBlockTableRecord
  2
*Model_Space
  0
BLOCK_RECORD
  5
211
100
AcDbSymbolTableRecord
100
AcDbBlockTableRecord
  2
*Paper_Space
  0
BLOCK_RECORD
  5
212
100
AcDbSymbolTableRecord
100
AcDbBlockTableRecord
  2
_FILLED
  0
ENDTAB
  0
TABLE
  2
DIMSTYLE
  5
A
100
AcDbSymbolTable
 70
1
100
AcDbDimStyleTable
 71
0
  0
DIMSTYLE
105
213
100
AcDbSymbolTableRecord
100
AcDbDimStyleTableRecord
  2
STANDARD
 70
0
  3

  4

 40
1.0
 41
1.1661155735
 42
1.0
 43
0.38
 44
1.0
 45
0.0
 46
0.0
 47
0.01
 48
0.01
140
1.632561803
141
0.09
142
0.0
143
25.4
144
1.0
145
0.0
146
1.0
147
0.625
 71
1
 72
0
 73
0
 74
0
 75
0
 76
0
 77
1
 78
8
 79
2
170
0
171
1
172
0
173
0
174
0
175
0
176
0
177
0
178
0
270
2
179
2
271
2
272
2
273
2
274
2
275
0
280
0
281
0
282
0
283
1
284
8
285
0
286
0
287
3
288
0
340
11
278
46
341
212
342
212
343
212
344
212
  0
ENDTAB
  0
ENDSEC
  0
SECTION
  2
BLOCKS
  0
BLOCK
  5
20
100
AcDbEntity
  8
0
100
AcDbBlockBegin
  2
*Model_Space
 70
0
 10
0.0
 20
0.0
 30
0.0
  3
*Model_Space
  1

  0
ENDBLK
  5
21
100
AcDbEntity
  8
0
100
AcDbBlockEnd
  0
BLOCK
  5
1C
100
AcDbEntity
  8
0
100
AcDbBlockBegin
  2
*Paper_Space
 70
0
 10
0.0
 20
0.0
 30
0.0
  3
*Paper_Space
  1

  0
ENDBLK
  5
1D
100
AcDbEntity
  8
0
100
AcDbBlockEnd
  0
BLOCK
  5
214
100
AcDbEntity
  8
0
100
AcDbBlockBegin
  2
_FILLED
 70
64
 10
0.0
 20
0.0
  3
_FILLED
  1

  0
SOLID
  5
215
100
AcDbEntity
  8
0
  6
BYBLOCK
 62
0
100
AcDbTrace
 10
0.0
 20
0.0
 11
-1.0
 21
0.25
 12
-1.0
 22
-0.25
 13
-1.0
 23
-0.25
  0
ENDBLK
  5
216
100
AcDbEntity
  8
0
  6
BYBLOCK
 62
0
100
AcDbBlockEnd
  0
ENDSEC
  0
SECTION
  2
ENTITIES
  0
LINE
  5
217
100
AcDbEntity
  8
0
100
AcDbLine
 62
7
  6
BYLAYER
 10
10.4008374351
 20
64.4598100614
 11
10.4008374351
 21
74.7529797097
  0
LINE
  5
218
100
AcDbEntity
  8
0
100
AcDbLine
 62
7
  6
BYLAYER
 10
10.5024147671
 20
64.3582327294
 11
10.5024147671
 21
74.8545570418
  0
LINE
  5
219
100
AcDbEntity
  8
0
100
AcDbLine
 62
7
  6
BYLAYER
 10
10.9011998485
 20
74.8545570418
 11
10.9011998485
 21
64.3582327294
  0
LINE
  5
21A
100
AcDbEntity
  8
0
100
AcDbLine
 62
7
  6
BYLAYER
 10
11.649862407
 20
63.6095701709
 11
11.649862407
 21
75.6032196003
  0
LINE
  5
21B
100
AcDbEntity
  8
0
100
AcDbLine
 62
7
  6
BYLAYER
 10
19.3008374351
 20
75.6032082866
 11
19.3008374351
 21
63.6095814845
  0
LINE
  5
21C
100
AcDbEntity
  8
0
100
AcDbLine
 62
7
  6
BYLAYER
 10
10.9011998485
 20
74.8545570418
 11
11.649862407
 21
75.6032196003
  0
LINE
  5
21D
100
AcDbEntity
  8
0
100
AcDbLine
 62
7
  6
BYLAYER
 10
10.9011998485
 20
64.3582327294
 11
11.649862407
 21
63.6095701709
  0
LINE
  5
21E
100
AcDbEntity
  8
0
100
AcDbLine
 62
7
  6
BYLAYER
 10
20.0499778377
 20
63.6095701709
 11
20.0499778377
 21
75.6032196003
  0
LINE
  5
21F
100
AcDbEntity
  8
0
100
AcDbLine
 62
7
  6
BYLAYER
 10
22.558965431
 20
62.7252168528
 11
22.558965431
 21
76.4875729957
  0
LINE
  5
220
100
AcDbEntity
  8
0
100
AcDbLine
 62
7
  6
BYLAYER
 10
24.7256907499
 20
74.356949795
 11
24.7256907499
 21
64.8558399761
  0
LINE
  5
221
100
AcDbEntity
  8
0
100
AcDbLine
 62
7
  6
BYLAYER
 10
19.3008374351
 20
74.8540791977
 11
20.0499778377
 21
75.6032196003
  0
LINE
  5
222
100
AcDbEntity
  8
0
100
AcDbLine
 62
7
  6
BYLAYER
 10
19.3008374351
 20
64.3587105735
 11
20.0499778377
 21
63.6095701709
  0
LINE
  5
223
100
AcDbEntity
  8
0
100
AcDbLine
 62
7
  6
BYLAYER
 10
27.6829775147
 20
77.5012108603
 11
27.6829775147
 21
74.3610202359
  0
LINE
  5
224
100
AcDbEntity
  8
0
100
AcDbLine
 62
7
  6
BYLAYER
 10
27.6829775147
 20
64.8517695352
 11
27.6829775147
 21
61.7115789108
  0
LINE
  5
225
100
AcDbEntity
  8
0
100
AcDbLine
 62
7
  6
BYLAYER
 10
28.8677886237
 20
74.0756058782
 11
28.8677886237
 21
65.1371838929
  0
LINE
  5
226
100
AcDbEntity
  8
0
100
AcDbLine
 62
7
  6
BYLAYER
 10
32.8897563134
 20
61.3619166098
 11
32.8897563134
 21
77.8508731614
  0
LINE
  5
227
100
AcDbEntity
  8
0
100
AcDbLine
 62
7
  6
BYLAYER
 10
33.8641462765
 20
77.8508731614
 11
33.8641462765
 21
61.3619166098
  0
LINE
  5
228
100
AcDbEntity
  8
0
100
AcDbLine
 62
7
  6
BYLAYER
 10
34.1651161492
 20
61.3619166098
 11
34.1651161492
 21
77.8508731614
  0
LINE
  5
229
100
AcDbEntity
  8
0
100
AcDbLine
 62
7
  6
BYLAYER
 10
40.1581787405
 20
77.8510883374
 11
40.906841299
 21
78.5997508959
  0
LINE
  5
22A
100
AcDbEntity
  8
0
100
AcDbLine
 62
7
  6
BYLAYER
 10
52.5920005598
 20
57.6013948856
 11
55.5920005598
 21
57.6013948856
  0
LINE
  5
22B
100
AcDbEntity
  8
0
100
AcDbLine
 62
7
  6
BYLAYER
 10
72.4920005598
 20
57.6013948856
 11
75.4920005598
 21
57.6013948856
  0
LINE
  5
22C
100
AcDbEntity
  8
0
100
AcDbLine
 62
7
  6
BYLAYER
 10
74.6288619074
 20
58.2562335977
 11
73.3551392123
 21
58.2562335977
  0
LINE
  5
22D
100
AcDbEntity
  8
0
100
AcDbLine
 62
7
  6
BYLAYER
 10
54.7288619074
 20
58.2562335977
 11
53.4551392123
 21
58.2562335977
  0
LINE
  5
22E
100
AcDbEntity
  8
0
100
AcDbLine
 62
7
  6
BYLAYER
 10
22.558965431
 20
62.7250366513
 11
27.6829775147
 21
61.7115789108
  0
LINE
  5
22F
100
AcDbEntity
  8
0
100
AcDbLine
 62
7
  6
BYLAYER
 10
40.1581787405
 20
61.3617014337
 11
40.906841299
 21
60.6130388752
  0
LINE
  5
230
100
AcDbEntity
  8
0
100
AcDbLine
 62
7
  6
BYLAYER
 10
40.1581787405
 20
77.8510883374
 11
40.1581787405
 21
61.3617014337
  0
LINE
  5
231
100
AcDbEntity
  8
0
100
AcDbLine
 62
7
  6
BYLAYER
 10
40.906841299
 20
60.6130388752
 11
40.906841299
 21
78.5997508959
  0
LINE
  5
232
100
AcDbEntity
  8
0
100
AcDbLine
 62
7
  6
BYLAYER
 10
82.9974780041
 20
60.6130388752
 11
75.4920005598
 21
60.6130388752
  0
LINE
  5
233
100
AcDbEntity
  8
0
100
AcDbLine
 62
7
  6
BYLAYER
 10
71.7933585068
 20
60.6130388752
 11
56.2906426128
 21
60.6130388752
  0
LINE
  5
234
100
AcDbEntity
  8
0
100
AcDbLine
 62
7
  6
BYLAYER
 10
52.5920005598
 20
60.6130388752
 11
40.906841299
 21
60.6130388752
  0
LINE
  5
235
100
AcDbEntity
  8
0
100
AcDbLine
 62
7
  6
BYLAYER
 10
86.6956453156
 20
61.3127938294
 11
84.7957729938
 21
61.3127938294
  0
LINE
  5
236
100
AcDbEntity
  8
0
100
AcDbLine
 62
7
  6
BYLAYER
 10
84.5963804531
 20
61.3127938294
 11
83.5994177496
 21
61.3127938294
  0
LINE
  5
237
100
AcDbEntity
  8
0
100
AcDbLine
 62
7
  6
BYLAYER
 10
40.1581787405
 20
61.3617014337
 11
34.1651161492
 21
61.3617014337
  0
LINE
  5
238
100
AcDbEntity
  8
0
100
AcDbLine
 62
7
  6
BYLAYER
 10
33.8641462765
 20
61.3617014337
 11
32.8897563134
 21
61.3617014337
  0
LINE
  5
239
100
AcDbEntity
  8
0
100
AcDbLine
 62
7
  6
BYLAYER
 10
84.7957729938
 20
61.5121863701
 11
84.5963804531
 21
61.5121863701
  0
LINE
  5
23A
100
AcDbEntity
  8
0
100
AcDbLine
 62
7
  6
BYLAYER
 10
27.6829775147
 20
61.7115789108
 11
32.8897563134
 21
61.3715135321
  0
LINE
  5
23B
100
AcDbEntity
  8
0
100
AcDbLine
 62
7
  6
BYLAYER
 10
34.1651161492
 20
62.1630337199
 11
33.8641462765
 21
62.1630337199
  0
LINE
  5
23C
100
AcDbEntity
  8
0
100
AcDbLine
 62
7
  6
BYLAYER
 10
22.558965431
 20
63.6095701709
 11
20.0499778377
 21
63.6095701709
  0
LINE
  5
23D
100
AcDbEntity
  8
0
100
AcDbLine
 62
7
  6
BYLAYER
 10
19.3008374351
 20
63.6095701709
 11
11.649862407
 21
63.6095701709
  0
LINE
  5
23E
100
AcDbEntity
  8
0
100
AcDbLine
 62
7
  6
BYLAYER
 10
10.9011998485
 20
64.3582327294
 11
10.5024147671
 21
64.3582327294
  0
LINE
  5
23F
100
AcDbEntity
  8
0
100
AcDbLine
 62
7
  6
BYLAYER
 10
71.7933585068
 20
80.655230614
 11
72.4920005598
 21
80.9068229389
  0
LINE
  5
240
100
AcDbEntity
  8
0
100
AcDbLine
 62
7
  6
BYLAYER
 10
71.7933585068
 20
58.5575591571
 11
72.4920005598
 21
58.3059668323
  0
LINE
  5
241
100
AcDbEntity
  8
0
100
AcDbLine
 62
7
  6
BYLAYER
 10
53.4551392123
 20
68.9515561735
 11
54.7288619074
 21
68.9515561735
  0
LINE
  5
242
100
AcDbEntity
  8
0
100
AcDbLine
 62
7
  6
BYLAYER
 10
73.3551392123
 20
68.9515561735
 11
74.6288619074
 21
68.9515561735
  0
LINE
  5
243
100
AcDbEntity
  8
0
100
AcDbLine
 62
7
  6
BYLAYER
 10
74.6288619074
 20
70.2612335977
 11
73.3551392123
 21
70.2612335977
  0
LINE
  5
244
100
AcDbEntity
  8
0
100
AcDbLine
 62
7
  6
BYLAYER
 10
54.7288619074
 20
70.2612335977
 11
53.4551392123
 21
70.2612335977
  0
LINE
  5
245
100
AcDbEntity
  8
0
100
AcDbLine
 62
7
  6
BYLAYER
 10
52.5920005598
 20
57.6013948856
 11
52.5920005598
 21
81.6113948856
  0
LINE
  5
246
100
AcDbEntity
  8
0
100
AcDbLine
 62
7
  6
BYLAYER
 10
53.4551392123
 20
57.6013948856
 11
53.4551392123
 21
58.2562335977
  0
LINE
  5
247
100
AcDbEntity
  8
0
100
AcDbLine
 62
7
  6
BYLAYER
 10
53.4551392123
 20
68.9515561735
 11
53.4551392123
 21
70.2612335977
  0
LINE
  5
248
100
AcDbEntity
  8
0
100
AcDbLine
 62
7
  6
BYLAYER
 10
53.4551392123
 20
80.9565561735
 11
53.4551392123
 21
81.6113948856
  0
LINE
  5
249
100
AcDbEntity
  8
0
100
AcDbLine
 62
7
  6
BYLAYER
 10
54.7288619074
 20
81.6113948856
 11
54.7288619074
 21
80.9565561735
  0
LINE
  5
24A
100
AcDbEntity
  8
0
100
AcDbLine
 62
7
  6
BYLAYER
 10
54.7288619074
 20
70.2612335977
 11
54.7288619074
 21
68.9515561735
  0
LINE
  5
24B
100
AcDbEntity
  8
0
100
AcDbLine
 62
7
  6
BYLAYER
 10
54.7288619074
 20
58.2562335977
 11
54.7288619074
 21
57.6013948856
  0
LINE
  5
24C
100
AcDbEntity
  8
0
100
AcDbLine
 62
7
  6
BYLAYER
 10
10.9011998485
 20
74.8545570418
 11
10.5024147671
 21
74.8545570418
  0
LINE
  5
24D
100
AcDbEntity
  8
0
100
AcDbLine
 62
7
  6
BYLAYER
 10
55.5920005598
 20
81.6113948856
 11
55.5920005598
 21
57.6013948856
  0
LINE
  5
24E
100
AcDbEntity
  8
0
100
AcDbLine
 62
7
  6
BYLAYER
 10
56.2906426128
 20
80.6552244747
 11
56.2906426128
 21
58.5575652964
  0
LINE
  5
24F
100
AcDbEntity
  8
0
100
AcDbLine
 62
7
  6
BYLAYER
 10
22.558965431
 20
75.6032196003
 11
20.0499778377
 21
75.6032196003
  0
LINE
  5
250
100
AcDbEntity
  8
0
100
AcDbLine
 62
7
  6
BYLAYER
 10
19.3008374351
 20
75.6032196003
 11
11.649862407
 21
75.6032196003
  0
LINE
  5
251
100
AcDbEntity
  8
0
100
AcDbLine
 62
7
  6
BYLAYER
 10
34.1651161492
 20
77.0497560512
 11
33.8641462765
 21
77.0497560512
  0
LINE
  5
252
100
AcDbEntity
  8
0
100
AcDbLine
 62
7
  6
BYLAYER
 10
84.7957729938
 20
77.700603401
 11
84.5963804531
 21
77.700603401
  0
LINE
  5
253
100
AcDbEntity
  8
0
100
AcDbLine
 62
7
  6
BYLAYER
 10
40.1581787405
 20
77.8510883374
 11
34.1651161492
 21
77.8510883374
  0
LINE
  5
254
100
AcDbEntity
  8
0
100
AcDbLine
 62
7
  6
BYLAYER
 10
33.8641462765
 20
77.8510883374
 11
32.8897563134
 21
77.8510883374
  0
LINE
  5
255
100
AcDbEntity
  8
0
100
AcDbLine
 62
7
  6
BYLAYER
 10
86.6956453156
 20
77.8999959417
 11
84.7957729938
 21
77.8999959417
  0
LINE
  5
256
100
AcDbEntity
  8
0
100
AcDbLine
 62
7
  6
BYLAYER
 10
84.5963804531
 20
77.8999959417
 11
83.5994177496
 21
77.8999959417
  0
LINE
  5
257
100
AcDbEntity
  8
0
100
AcDbLine
 62
7
  6
BYLAYER
 10
27.6829775147
 20
77.5012108603
 11
32.8897563134
 21
77.8412762391
  0
LINE
  5
258
100
AcDbEntity
  8
0
100
AcDbLine
 62
7
  6
BYLAYER
 10
82.9974780041
 20
78.5997508959
 11
75.4920005598
 21
78.5997508959
  0
LINE
  5
259
100
AcDbEntity
  8
0
100
AcDbLine
 62
7
  6
BYLAYER
 10
71.7933585068
 20
78.5997508959
 11
56.2906426128
 21
78.5997508959
  0
LINE
  5
25A
100
AcDbEntity
  8
0
100
AcDbLine
 62
7
  6
BYLAYER
 10
52.5920005598
 20
78.5997508959
 11
40.906841299
 21
78.5997508959
  0
LINE
  5
25B
100
AcDbEntity
  8
0
100
AcDbLine
 62
7
  6
BYLAYER
 10
56.2906426128
 20
58.5575591571
 11
55.5920005598
 21
58.3059668323
  0
LINE
  5
25C
100
AcDbEntity
  8
0
100
AcDbLine
 62
7
  6
BYLAYER
 10
22.558965431
 20
76.4877531198
 11
27.6829775147
 21
77.5012108603
  0
LINE
  5
25D
100
AcDbEntity
  8
0
100
AcDbLine
 62
7
  6
BYLAYER
 10
53.4551392123
 20
80.9565561735
 11
54.7288619074
 21
80.9565561735
  0
LINE
  5
25E
100
AcDbEntity
  8
0
100
AcDbLine
 62
7
  6
BYLAYER
 10
73.3551392123
 20
80.9565561735
 11
74.6288619074
 21
80.9565561735
  0
LINE
  5
25F
100
AcDbEntity
  8
0
100
AcDbLine
 62
7
  6
BYLAYER
 10
75.4920005598
 20
81.6113948856
 11
72.4920005598
 21
81.6113948856
  0
LINE
  5
260
100
AcDbEntity
  8
0
100
AcDbLine
 62
7
  6
BYLAYER
 10
55.5920005598
 20
81.6113948856
 11
52.5920005598
 21
81.6113948856
  0
LINE
  5
261
100
AcDbEntity
  8
0
100
AcDbLine
 62
7
  6
BYLAYER
 10
56.2906426128
 20
80.655230614
 11
55.5920005598
 21
80.9068229389
  0
LINE
  5
262
100
AcDbEntity
  8
0
100
AcDbLine
 62
7
  6
BYLAYER
 10
87.7452777468
 20
62.2570868052
 11
87.0425429235
 21
61.9655266125
  0
LINE
  5
263
100
AcDbEntity
  8
0
100
AcDbLine
 62
7
  6
BYLAYER
 10
87.7452777468
 20
76.955702966
 11
87.0425429235
 21
77.2472631586
  0
LINE
  5
264
100
AcDbEntity
  8
0
100
AcDbLine
 62
7
  6
BYLAYER
 10
71.7933585068
 20
58.5575652964
 11
71.7933585068
 21
80.6552244747
  0
LINE
  5
265
100
AcDbEntity
  8
0
100
AcDbLine
 62
7
  6
BYLAYER
 10
72.4920005598
 20
57.6013948856
 11
72.4920005598
 21
81.6113948856
  0
LINE
  5
266
100
AcDbEntity
  8
0
100
AcDbLine
 62
7
  6
BYLAYER
 10
73.3551392123
 20
57.6013948856
 11
73.3551392123
 21
58.2562335977
  0
LINE
  5
267
100
AcDbEntity
  8
0
100
AcDbLine
 62
7
  6
BYLAYER
 10
73.3551392123
 20
68.9515561735
 11
73.3551392123
 21
70.2612335977
  0
LINE
  5
268
100
AcDbEntity
  8
0
100
AcDbLine
 62
7
  6
BYLAYER
 10
73.3551392123
 20
80.9565561735
 11
73.3551392123
 21
81.6113948856
  0
LINE
  5
269
100
AcDbEntity
  8
0
100
AcDbLine
 62
7
  6
BYLAYER
 10
74.6288619074
 20
81.6113948856
 11
74.6288619074
 21
80.9565561735
  0
LINE
  5
26A
100
AcDbEntity
  8
0
100
AcDbLine
 62
7
  6
BYLAYER
 10
74.6288619074
 20
70.2612335977
 11
74.6288619074
 21
68.9515561735
  0
LINE
  5
26B
100
AcDbEntity
  8
0
100
AcDbLine
 62
7
  6
BYLAYER
 10
74.6288619074
 20
58.2562335977
 11
74.6288619074
 21
57.6013948856
  0
LINE
  5
26C
100
AcDbEntity
  8
0
100
AcDbLine
 62
7
  6
BYLAYER
 10
75.4920005598
 20
81.6113948856
 11
75.4920005598
 21
57.6013948856
  0
LINE
  5
26D
100
AcDbEntity
  8
0
100
AcDbLine
 62
7
  6
BYLAYER
 10
83.5994177496
 20
61.2112164973
 11
82.9974780041
 21
60.6130388752
  0
LINE
  5
26E
100
AcDbEntity
  8
0
100
AcDbLine
 62
7
  6
BYLAYER
 10
83.5994177496
 20
78.0015732738
 11
82.9974780041
 21
78.5997508959
  0
LINE
  5
26F
100
AcDbEntity
  8
0
100
AcDbLine
 62
7
  6
BYLAYER
 10
82.9974780041
 20
78.5997508959
 11
82.9974780041
 21
60.6130388752
  0
LINE
  5
270
100
AcDbEntity
  8
0
100
AcDbLine
 62
7
  6
BYLAYER
 10
83.5994177496
 20
78.0013531808
 11
83.5994177496
 21
61.2114365903
  0
LINE
  5
271
100
AcDbEntity
  8
0
100
AcDbLine
 62
7
  6
BYLAYER
 10
84.5963804531
 20
77.8997792004
 11
84.5963804531
 21
61.3130105707
  0
LINE
  5
272
100
AcDbEntity
  8
0
100
AcDbLine
 62
7
  6
BYLAYER
 10
84.7957729938
 20
61.3130105707
 11
84.7957729938
 21
77.8997792004
  0
LINE
  5
273
100
AcDbEntity
  8
0
100
AcDbLine
 62
7
  6
BYLAYER
 10
86.6956453156
 20
77.8999959417
 11
86.6956453156
 21
61.3127938294
  0
LINE
  5
274
100
AcDbEntity
  8
0
100
AcDbLine
 62
7
  6
BYLAYER
 10
86.8950378563
 20
77.700603401
 11
86.8950378563
 21
61.5121863701
  0
LINE
  5
275
100
AcDbEntity
  8
0
100
AcDbLine
 62
7
  6
BYLAYER
 10
87.0425429235
 20
77.2472631586
 11
87.0425429235
 21
61.9655266125
  0
LINE
  5
276
100
AcDbEntity
  8
0
100
AcDbLine
 62
7
  6
BYLAYER
 10
87.7452777468
 20
76.955702966
 11
87.7452777468
 21
62.2570868052
  0
LINE
  5
277
100
AcDbEntity
  8
0
100
AcDbLine
 62
7
  6
BYLAYER
 10
87.8920005598
 20
76.6020497588
 11
87.8920005598
 21
62.6107400123
  0
LINE
  5
278
100
AcDbEntity
  8
0
100
AcDbLine
 62
7
  6
BYLAYER
 10
87.0425429235
 20
61.9655266125
 11
86.8950378563
 21
61.6100015788
  0
LINE
  5
279
100
AcDbEntity
  8
0
100
AcDbLine
 62
7
  6
BYLAYER
 10
87.8920005598
 20
62.6107264057
 11
87.7452777468
 21
62.2570868052
  0
LINE
  5
27A
100
AcDbEntity
  8
0
100
AcDbLine
 62
7
  6
BYLAYER
 10
87.0425429235
 20
77.2472631586
 11
86.8950378563
 21
77.6027881924
  0
LINE
  5
27B
100
AcDbEntity
  8
0
100
AcDbLine
 62
7
  6
BYLAYER
 10
87.8920005598
 20
76.6020633655
 11
87.7452777468
 21
76.955702966
  0
ARC
  5
27C
100
AcDbEntity
  8
0
100
AcDbCircle
 62
7
  6
BYLAYER
 10
86.6959873268
 20
77.7009454123
 40
0.1990508233
100
AcDbArc
 50
359.9015537403
 51
90.0984462597
  0
ARC
  5
27D
100
AcDbEntity
  8
0
100
AcDbCircle
 62
7
  6
BYLAYER
 10
86.6959873268
 20
61.5118443589
 40
0.1990508233
100
AcDbArc
 50
269.9015537403
 51
0.0984462597
  0
ARC
  5
27E
100
AcDbEntity
  8
0
100
AcDbCircle
 62
7
  6
BYLAYER
 10
10.5036118064
 20
64.4610071007
 40
0.1027813422
100
AcDbArc
 50
180.6673083558
 51
269.3326916441
  0
ARC
  5
27F
100
AcDbEntity
  8
0
100
AcDbCircle
 62
7
  6
BYLAYER
 10
10.5036118064
 20
74.7517826705
 40
0.1027813422
100
AcDbArc
 50
90.6673083559
 51
179.3326916442
  0
SPLINE
  5
280
100
AcDbEntity
  8
0
100
AcDbSpline
 62
7
  6
BYLAYER
 70
0
 71
3
 72
11
 73
7
 74
0
 42
0.0000001
 43
0.0000001
 44
0.0000000001
 40
0.0
 40
0.0
 40
0.0
 40
0.0
 40
0.249047688
 40
0.4985365606
 40
0.7487968618
 40
1.0
 40
1.0
 40
1.0
 40
1.0
 10
72.4920005598
 20
75.6088948856
 30
0.0
 10
72.4920005598
 20
76.0601617116
 30
0.0
 10
72.5313929956
 20
76.9639713528
 30
0.0
 10
72.7048801076
 20
78.3110462401
 30
0.0
 10
72.9805517617
 20
79.6446741252
 30
0.0
 10
73.2223762498
 20
80.521175946
 30
0.0
 10
73.3551392123
 20
80.9565561735
 30
0.0
  0
SPLINE
  5
281
100
AcDbEntity
  8
0
100
AcDbSpline
 62
7
  6
BYLAYER
 70
0
 71
3
 72
11
 73
7
 74
0
 42
0.0000001
 43
0.0000001
 44
0.0000000001
 40
0.0
 40
0.0
 40
0.0
 40
0.0
 40
0.2511976629
 40
0.5014566469
 40
0.750949112
 40
1.0
 40
1.0
 40
1.0
 40
1.0
 10
74.6288619074
 20
68.9515561735
 30
0.0
 10
74.7616219672
 20
68.5161854648
 30
0.0
 10
75.00336542
 20
67.6396763695
 30
0.0
 10
75.2791785402
 20
66.3060840259
 30
0.0
 10
75.4525908848
 20
64.9589865328
 30
0.0
 10
75.4920005598
 20
64.0551674798
 30
0.0
 10
75.4920005598
 20
63.6038948856
 30
0.0
  0
SPLINE
  5
282
100
AcDbEntity
  8
0
100
AcDbSpline
 62
7
  6
BYLAYER
 70
0
 71
3
 72
11
 73
7
 74
0
 42
0.0000001
 43
0.0000001
 44
0.0000000001
 40
0.0
 40
0.0
 40
0.0
 40
0.0
 40
0.249047688
 40
0.4985365606
 40
0.7487968618
 40
1.0
 40
1.0
 40
1.0
 40
1.0
 10
75.4920005598
 20
75.6088948856
 30
0.0
 10
75.4920005598
 20
75.1576280596
 30
0.0
 10
75.452608124
 20
74.2538184183
 30
0.0
 10
75.279121012
 20
72.906743531
 30
0.0
 10
75.0034493579
 20
71.5731156459
 30
0.0
 10
74.7616248698
 20
70.6966138252
 30
0.0
 10
74.6288619074
 20
70.2612335977
 30
0.0
  0
SPLINE
  5
283
100
AcDbEntity
  8
0
100
AcDbSpline
 62
7
  6
BYLAYER
 70
0
 71
3
 72
11
 73
7
 74
0
 42
0.0000001
 43
0.0000001
 44
0.0000000001
 40
0.0
 40
0.0
 40
0.0
 40
0.0
 40
0.2511976629
 40
0.5014566469
 40
0.750949112
 40
1.0
 40
1.0
 40
1.0
 40
1.0
 10
73.3551392123
 20
58.2562335977
 30
0.0
 10
73.2223791524
 20
58.6916043064
 30
0.0
 10
72.9806356996
 20
59.5681134016
 30
0.0
 10
72.7048225794
 20
60.9017057452
 30
0.0
 10
72.5314102348
 20
62.2488032383
 30
0.0
 10
72.4920005598
 20
63.1526222913
 30
0.0
 10
72.4920005598
 20
63.6038948856
 30
0.0
  0
SPLINE
  5
284
100
AcDbEntity
  8
0
100
AcDbSpline
 62
7
  6
BYLAYER
 70
0
 71
3
 72
11
 73
7
 74
0
 42
0.0000001
 43
0.0000001
 44
0.0000000001
 40
0.0
 40
0.0
 40
0.0
 40
0.0
 40
0.249047688
 40
0.4985365606
 40
0.7487968618
 40
1.0
 40
1.0
 40
1.0
 40
1.0
 10
75.4920005598
 20
63.6038948856
 30
0.0
 10
75.4920005598
 20
63.1526280596
 30
0.0
 10
75.452608124
 20
62.2488184183
 30
0.0
 10
75.279121012
 20
60.901743531
 30
0.0
 10
75.0034493579
 20
59.5681156459
 30
0.0
 10
74.7616248698
 20
58.6916138252
 30
0.0
 10
74.6288619074
 20
58.2562335977
 30
0.0
  0
SPLINE
  5
285
100
AcDbEntity
  8
0
100
AcDbSpline
 62
7
  6
BYLAYER
 70
0
 71
3
 72
11
 73
7
 74
0
 42
0.0000001
 43
0.0000001
 44
0.0000000001
 40
0.0
 40
0.0
 40
0.0
 40
0.0
 40
0.2511976629
 40
0.5014566469
 40
0.750949112
 40
1.0
 40
1.0
 40
1.0
 40
1.0
 10
74.6288619074
 20
80.9565561735
 30
0.0
 10
74.7616219672
 20
80.5211854648
 30
0.0
 10
75.00336542
 20
79.6446763695
 30
0.0
 10
75.2791785402
 20
78.3110840259
 30
0.0
 10
75.4525908848
 20
76.9639865328
 30
0.0
 10
75.4920005598
 20
76.0601674798
 30
0.0
 10
75.4920005598
 20
75.6088948856
 30
0.0
  0
SPLINE
  5
286
100
AcDbEntity
  8
0
100
AcDbSpline
 62
7
  6
BYLAYER
 70
0
 71
3
 72
11
 73
7
 74
0
 42
0.0000001
 43
0.0000001
 44
0.0000000001
 40
0.0
 40
0.0
 40
0.0
 40
0.0
 40
0.249047688
 40
0.4985365606
 40
0.7487968618
 40
1.0
 40
1.0
 40
1.0
 40
1.0
 10
72.4920005598
 20
63.6038948856
 30
0.0
 10
72.4920005598
 20
64.0551617116
 30
0.0
 10
72.5313929956
 20
64.9589713528
 30
0.0
 10
72.7048801076
 20
66.3060462401
 30
0.0
 10
72.9805517617
 20
67.6396741252
 30
0.0
 10
73.2223762498
 20
68.516175946
 30
0.0
 10
73.3551392123
 20
68.9515561735
 30
0.0
  0
SPLINE
  5
287
100
AcDbEntity
  8
0
100
AcDbSpline
 62
7
  6
BYLAYER
 70
0
 71
3
 72
11
 73
7
 74
0
 42
0.0000001
 43
0.0000001
 44
0.0000000001
 40
0.0
 40
0.0
 40
0.0
 40
0.0
 40
0.2511976629
 40
0.5014566469
 40
0.750949112
 40
1.0
 40
1.0
 40
1.0
 40
1.0
 10
73.3551392123
 20
70.2612335977
 30
0.0
 10
73.2223791524
 20
70.6966043064
 30
0.0
 10
72.9806356996
 20
71.5731134016
 30
0.0
 10
72.7048225794
 20
72.9067057452
 30
0.0
 10
72.5314102348
 20
74.2538032383
 30
0.0
 10
72.4920005598
 20
75.1576222913
 30
0.0
 10
72.4920005598
 20
75.6088948856
 30
0.0
  0
SPLINE
  5
288
100
AcDbEntity
  8
0
100
AcDbSpline
 62
7
  6
BYLAYER
 70
0
 71
3
 72
11
 73
7
 74
0
 42
0.0000001
 43
0.0000001
 44
0.0000000001
 40
0.0
 40
0.0
 40
0.0
 40
0.0
 40
0.249047688
 40
0.4985365606
 40
0.7487968618
 40
1.0
 40
1.0
 40
1.0
 40
1.0
 10
55.5920005598
 20
63.6038948856
 30
0.0
 10
55.5920005598
 20
63.1526280596
 30
0.0
 10
55.552608124
 20
62.2488184183
 30
0.0
 10
55.379121012
 20
60.901743531
 30
0.0
 10
55.1034493579
 20
59.5681156459
 30
0.0
 10
54.8616248698
 20
58.6916138252
 30
0.0
 10
54.7288619074
 20
58.2562335977
 30
0.0
  0
SPLINE
  5
289
100
AcDbEntity
  8
0
100
AcDbSpline
 62
7
  6
BYLAYER
 70
0
 71
3
 72
11
 73
7
 74
0
 42
0.0000001
 43
0.0000001
 44
0.0000000001
 40
0.0
 40
0.0
 40
0.0
 40
0.0
 40
0.2511976629
 40
0.5014566469
 40
0.750949112
 40
1.0
 40
1.0
 40
1.0
 40
1.0
 10
53.4551392123
 20
70.2612335977
 30
0.0
 10
53.3223791524
 20
70.6966043064
 30
0.0
 10
53.0806356996
 20
71.5731134016
 30
0.0
 10
52.8048225794
 20
72.9067057452
 30
0.0
 10
52.6314102348
 20
74.2538032383
 30
0.0
 10
52.5920005598
 20
75.1576222913
 30
0.0
 10
52.5920005598
 20
75.6088948856
 30
0.0
  0
SPLINE
  5
28A
100
AcDbEntity
  8
0
100
AcDbSpline
 62
7
  6
BYLAYER
 70
0
 71
3
 72
11
 73
7
 74
0
 42
0.0000001
 43
0.0000001
 44
0.0000000001
 40
0.0
 40
0.0
 40
0.0
 40
0.0
 40
0.249047688
 40
0.4985365606
 40
0.7487968618
 40
1.0
 40
1.0
 40
1.0
 40
1.0
 10
52.5920005598
 20
63.6038948856
 30
0.0
 10
52.5920005598
 20
64.0551617116
 30
0.0
 10
52.6313929956
 20
64.9589713528
 30
0.0
 10
52.8048801076
 20
66.3060462401
 30
0.0
 10
53.0805517617
 20
67.6396741252
 30
0.0
 10
53.3223762498
 20
68.516175946
 30
0.0
 10
53.4551392123
 20
68.9515561735
 30
0.0
  0
SPLINE
  5
28B
100
AcDbEntity
  8
0
100
AcDbSpline
 62
7
  6
BYLAYER
 70
0
 71
3
 72
11
 73
7
 74
0
 42
0.0000001
 43
0.0000001
 44
0.0000000001
 40
0.0
 40
0.0
 40
0.0
 40
0.0
 40
0.2511976629
 40
0.5014566469
 40
0.750949112
 40
1.0
 40
1.0
 40
1.0
 40
1.0
 10
54.7288619074
 20
80.9565561735
 30
0.0
 10
54.8616219672
 20
80.5211854648
 30
0.0
 10
55.10336542
 20
79.6446763695
 30
0.0
 10
55.3791785402
 20
78.3110840259
 30
0.0
 10
55.5525908848
 20
76.9639865328
 30
0.0
 10
55.5920005598
 20
76.0601674798
 30
0.0
 10
55.5920005598
 20
75.6088948856
 30
0.0
  0
SPLINE
  5
28C
100
AcDbEntity
  8
0
100
AcDbSpline
 62
7
  6
BYLAYER
 70
0
 71
3
 72
11
 73
7
 74
0
 42
0.0000001
 43
0.0000001
 44
0.0000000001
 40
0.0
 40
0.0
 40
0.0
 40
0.0
 40
0.249047688
 40
0.4985365606
 40
0.7487968618
 40
1.0
 40
1.0
 40
1.0
 40
1.0
 10
52.5920005598
 20
75.6088948856
 30
0.0
 10
52.5920005598
 20
76.0601617116
 30
0.0
 10
52.6313929956
 20
76.9639713528
 30
0.0
 10
52.8048801076
 20
78.3110462401
 30
0.0
 10
53.0805517617
 20
79.6446741252
 30
0.0
 10
53.3223762498
 20
80.521175946
 30
0.0
 10
53.4551392123
 20
80.9565561735
 30
0.0
  0
SPLINE
  5
28D
100
AcDbEntity
  8
0
100
AcDbSpline
 62
7
  6
BYLAYER
 70
0
 71
3
 72
11
 73
7
 74
0
 42
0.0000001
 43
0.0000001
 44
0.0000000001
 40
0.0
 40
0.0
 40
0.0
 40
0.0
 40
0.2511976629
 40
0.5014566469
 40
0.750949112
 40
1.0
 40
1.0
 40
1.0
 40
1.0
 10
53.4551392123
 20
58.2562335977
 30
0.0
 10
53.3223791524
 20
58.6916043064
 30
0.0
 10
53.0806356996
 20
59.5681134016
 30
0.0
 10
52.8048225794
 20
60.9017057452
 30
0.0
 10
52.6314102348
 20
62.2488032383
 30
0.0
 10
52.5920005598
 20
63.1526222913
 30
0.0
 10
52.5920005598
 20
63.6038948856
 30
0.0
  0
SPLINE
  5
28E
100
AcDbEntity
  8
0
100
AcDbSpline
 62
7
  6
BYLAYER
 70
0
 71
3
 72
11
 73
7
 74
0
 42
0.0000001
 43
0.0000001
 44
0.0000000001
 40
0.0
 40
0.0
 40
0.0
 40
0.0
 40
0.249047688
 40
0.4985365606
 40
0.7487968618
 40
1.0
 40
1.0
 40
1.0
 40
1.0
 10
55.5920005598
 20
75.6088948856
 30
0.0
 10
55.5920005598
 20
75.1576280596
 30
0.0
 10
55.552608124
 20
74.2538184183
 30
0.0
 10
55.379121012
 20
72.906743531
 30
0.0
 10
55.1034493579
 20
71.5731156459
 30
0.0
 10
54.8616248698
 20
70.6966138252
 30
0.0
 10
54.7288619074
 20
70.2612335977
 30
0.0
  0
SPLINE
  5
28F
100
AcDbEntity
  8
0
100
AcDbSpline
 62
7
  6
BYLAYER
 70
0
 71
3
 72
11
 73
7
 74
0
 42
0.0000001
 43
0.0000001
 44
0.0000000001
 40
0.0
 40
0.0
 40
0.0
 40
0.0
 40
0.2511976629
 40
0.5014566469
 40
0.750949112
 40
1.0
 40
1.0
 40
1.0
 40
1.0
 10
54.7288619074
 20
68.9515561735
 30
0.0
 10
54.8616219672
 20
68.5161854648
 30
0.0
 10
55.10336542
 20
67.6396763695
 30
0.0
 10
55.3791785402
 20
66.3060840259
 30
0.0
 10
55.5525908848
 20
64.9589865328
 30
0.0
 10
55.5920005598
 20
64.0551674798
 30
0.0
 10
55.5920005598
 20
63.6038948856
 30
0.0
  0
SPLINE
  5
290
100
AcDbEntity
  8
0
100
AcDbSpline
 62
7
  6
BYLAYER
 70
0
 71
3
 72
9
 73
5
 74
0
 42
0.0000001
 43
0.0000001
 44
0.0000000001
 40
0.0
 40
0.0
 40
0.0
 40
0.0
 40
0.4999997923
 40
1.0
 40
1.0
 40
1.0
 40
1.0
 10
24.7256907499
 20
64.8558399761
 30
0.0
 10
24.3644906948
 20
64.9216568796
 30
0.0
 10
23.6423259055
 20
65.0545791909
 30
0.0
 10
22.9199993828
 20
65.1866204782
 30
0.0
 10
22.558965431
 20
65.2533441932
 30
0.0
  0
SPLINE
  5
291
100
AcDbEntity
  8
0
100
AcDbSpline
 62
7
  6
BYLAYER
 70
0
 71
3
 72
9
 73
5
 74
0
 42
0.0000001
 43
0.0000001
 44
0.0000000001
 40
0.0
 40
0.0
 40
0.0
 40
0.0
 40
0.5000002077
 40
1.0
 40
1.0
 40
1.0
 40
1.0
 10
22.558965431
 20
73.9594455779
 30
0.0
 10
22.9199993828
 20
74.026169293
 30
0.0
 10
23.6423259055
 20
74.1582105803
 30
0.0
 10
24.3644906948
 20
74.2911328916
 30
0.0
 10
24.7256907499
 20
74.356949795
 30
0.0
  0
ELLIPSE
  5
292
100
AcDbEntity
  8
0
100
AcDbEllipse
 62
7
  6
BYLAYER
 10
15.5510427213
 20
69.6063948856
 30
0.0
 11
17.2815482426
 21
0.0
 31
0.0
 40
0.4057621006
 41
-0.6910519613
 42
0.6910519613
  0
ELLIPSE
  5
293
100
AcDbEntity
  8
0
100
AcDbEllipse
 62
7
  6
BYLAYER
 10
26.4698628643
 20
69.6063948856
 30
0.0
 11
30.3166247375
 21
-0.0
 31
0.0
 40
0.1569579889
 41
-1.6283599818
 42
-1.5307708084
  0
ELLIPSE
  5
294
100
AcDbEntity
  8
0
100
AcDbEllipse
 62
7
  6
BYLAYER
 10
26.4698628643
 20
69.6063948856
 30
0.0
 11
30.3166247375
 21
-0.0
 31
0.0
 40
0.1569579889
 41
1.5307708084
 42
1.6283599818
  0
ELLIPSE
  5
295
100
AcDbEntity
  8
0
100
AcDbEllipse
 62
7
  6
BYLAYER
 10
9.6000476033
 20
69.6063948856
 30
0.0
 11
26.5894779892
 21
-0.0
 31
0.0
 40
0.2439045713
 41
0.7602876579
 42
0.8229267465
  0
ELLIPSE
  5
296
100
AcDbEntity
  8
0
100
AcDbEllipse
 62
7
  6
BYLAYER
 10
9.6000476033
 20
69.6063948856
 30
0.0
 11
26.5894779892
 21
-0.0
 31
0.0
 40
0.2439045713
 41
-0.8229267465
 42
-0.7602876579
  0
ENDSEC
  0
SECTION
  2
OBJECTS
  0
DICTIONARY
  5
C
100
AcDbDictionary
280
0
281
1
  3
ACAD_GROUP
350
D
  3
ACAD_MLINESTYLE
350
17
  3
ACAD_LAYOUT
350
1A
  3
ACAD_PLOTSETTINGS
350
19
  3
ACAD_PLOTSTYLENAME
350
E
  0
DICTIONARY
  5
D
102
{ACAD_REACTORS
330
C
102
}
100
AcDbDictionary
280
0
281
1
  0
ACDBDICTIONARYWDFLT
  5
E
102
{ACAD_REACTORS
330
C
102
}
100
AcDbDictionary
281
1
  3
Normal
350
F
100
AcDbDictionaryWithDefault
340
F
  0
DICTIONARY
  5
17
102
{ACAD_REACTORS
330
C
102
}
100
AcDbDictionary
280
0
281
1
  3
Standard
350
18
  0
DICTIONARY
  5
19
102
{ACAD_REACTORS
330
C
102
}
100
AcDbDictionary
281
1
  0
DICTIONARY
  5
1A
102
{ACAD_REACTORS
330
C
102
}
100
AcDbDictionary
281
1
  3
Model
350
297
  3
Layout1
350
298
  0
ACDBPLACEHOLDER
  5
F
102
{ACAD_REACTORS
330
E
102
}
  0
MLINESTYLE
  5
18
102
{ACAD_REACTORS
330
17
102
}
100
AcDbMlineStyle
  2
STANDARD
 70
0
  3

 62
256
 51
90.0
 52
90.0
 71
2
 49
0.5
 62
256
  6
BYLAYER
 49
-0.5
 62
256
  6
BYLAYER
  0
LAYOUT
  5
297
102
{ACAD_REACTORS
330
1A
102
}
100
AcDbPlotSettings
  1

  2
none_device
  4

  6

 40
0.0
 41
0.0
 42
0.0
 43
0.0
 44
210.0
 45
297.0
 46
0.0
 47
0.0
 48
0.0
 49
0.0
140
0.0
141
0.0
142
1.0
143
1.0
 70
1024
 72
1
 73
0
 74
0
  7

 75
0
147
1.0
148
0.0
149
0.0
100
AcDbLayout
  1
Model
 70
0
 71
0
 10
0.0
 20
0.0
 11
210.0
 21
297.0
 12
0.0
 22
0.0
 32
0.0
 14
0.0
 24
0.0
 34
0.0
 15
0.0
 25
0.0
 35
0.0
146
0.0
 13
0.0
 23
0.0
 33
0.0
 16
1.0
 26
0.0
 36
0.0
 17
0.0
 27
1.0
 37
0.0
 76
0
330
210
345
0
346
0
  0
LAYOUT
  5
298
102
{ACAD_REACTORS
330
1A
102
}
100
AcDbPlotSettings
  1

  2
none_device
  4

  6

 40
0.0
 41
0.0
 42
0.0
 43
0.0
 44
210.0
 45
297.0
 46
0.0
 47
0.0
 48
0.0
 49
0.0
140
0.0
141
0.0
142
1.0
143
1.0
 70
0
 72
1
 73
0
 74
0
  7

 75
0
147
1.0
148
0.0
149
0.0
100
AcDbLayout
  1
Layout1
 70
0
 71
1
 10
0.0
 20
0.0
 11
210.0
 21
297.0
 12
0.0
 22
0.0
 32
0.0
 14
0.0
 24
0.0
 34
0.0
 15
0.0
 25
0.0
 35
0.0
146
0.0
 13
0.0
 23
0.0
 33
0.0
 16
1.0
 26
0.0
 36
0.0
 17
0.0
 27
1.0
 37
0.0
 76
0
330
211
345
0
346
0
  0
ENDSEC
  0
EOF
