999
DXF file: C:\Users\sesa63760\Dev\_Creo\CAD\MCADPD0004173_3D-CAD\drw0001_2.dxf
999
Pro/ENGINEER 2019471 by Parametric Technology Corporation
  0
SECTION
  2
HEADER
  9
$ACADVER
  1
AC1024
  9
$DWGCODEPAGE
  3
ANSI_1252
  9
$EXTMAX
 10
48.8319359169
 20
69.0623093682
 30
0.0
  9
$EXTMIN
 10
0.0
 20
0.0
 30
0.0
  9
$LIMMIN
 10
0.0
 20
0.0
  9
$LIMMAX
 10
48.8319359169
 20
69.0623093682
  9
$VIEWCTR
 10
24.4159679585
 20
34.5311546841
  9
$VIEWSIZE
 40
69.0623093682
  9
$CLAYER
  8
0
  9
$LTSCALE
 40
4.5018394255
  9
$CELTYPE
  6
BYLAYER
  9
$DIMSCALE
 40
1.0
  9
$DIMASZ
 40
0.5813325704
  9
$DIMEXO
 40
1.0
  9
$DIMDLI
 40
3.1103617849
  9
$DIMEXE
 40
1.0
  9
$DIMCEN
 40
0.7366646333
  9
$DIMLFAC
 40
1.0
  9
$DIMBLK
  1
_FILLED
  9
$DIMALT
 70
0
  9
$DIMALTF
 40
0.0393700787
  9
$DIMTXT
 40
0.8138655986
  9
$DIMTOL
 70
1
  9
$DIMLIM
 70
0
  9
$DIMTFAC
 40
1.0
  9
$DIMTP
 40
0.01
  9
$DIMTM
 40
0.01
  9
$DIMGAP
 40
0.625
  9
$DIMDSEP
 70
46
  9
$AUNITS
 70
0
  9
$PDMODE
 70
3
  9
$PDSIZE
 40
0.3125
  9
$HANDSEED
  5
310
  9
$TILEMODE
 70
1
  9
$MEASUREMENT
 70
1
  9
$INSUNITS
 70
4
  0
ENDSEC
  0
SECTION
  2
CLASSES
  0
CLASS
  1
ACDBDICTIONARYWDFLT
  2
AcDbDictionaryWithDefault
  3
AutoCAD 2000
 90
0
 91
1
280
0
281
0
  0
CLASS
  1
ACDBPLACEHOLDER
  2
AcDbPlaceHolder
  3
AutoCAD 2000
 90
0
 91
1
280
0
281
0
  0
CLASS
  1
LAYOUT
  2
AcDbLayout
  3
AutoCAD 2000
 90
0
 91
0
280
0
281
0
  0
ENDSEC
  0
SECTION
  2
TABLES
  0
TABLE
  2
VPORT
  5
8
100
AcDbSymbolTable
 70
2
  0
VPORT
  5
1F4
100
AcDbSymbolTableRecord
100
AcDbViewportTableRecord
  2
*ACTIVE
 70
0
 10
0.0
 20
0.0
 11
1.0
 21
1.0
 12
24.4159679585
 22
34.5311546841
 13
0.0
 23
0.0
 14
1.0
 24
1.0
 15
0.0
 25
0.0
 16
0.0
 26
0.0
 36
1.0
 17
0.0
 27
0.0
 37
0.0
 40
69.0623093682
 41
0.7070707071
 42
50.0
 43
0.0
 44
0.0
 50
0.0
 51
0.0
 71
0
 72
100
 73
1
 74
1
 75
0
 76
0
 77
0
 78
0
  0
ENDTAB
  0
TABLE
  2
LTYPE
  5
5
100
AcDbSymbolTable
 70
6
  0
LTYPE
  5
14
100
AcDbSymbolTableRecord
100
AcDbLinetypeTableRecord
  2
BYBLOCK
 70
0
  3

 72
65
 73
0
 40
0.0
  0
LTYPE
  5
15
100
AcDbSymbolTableRecord
100
AcDbLinetypeTableRecord
  2
BYLAYER
 70
0
  3

 72
65
 73
0
 40
0.0
  0
LTYPE
  5
16
100
AcDbSymbolTableRecord
100
AcDbLinetypeTableRecord
  2
CONTINUOUS
 70
64
  3
Solid line
 72
65
 73
0
 40
0.0
  0
LTYPE
  5
1F5
100
AcDbSymbolTableRecord
100
AcDbLinetypeTableRecord
  2
CENTER
 70
64
  3
____ _ ____ _ ____ _ ____ _ ____ _ ____ _ ____
 72
65
 73
4
 40
0.6
 49
0.375
 74
0
 49
-0.075
 74
0
 49
0.075
 74
0
 49
-0.075
 74
0
  0
LTYPE
  5
1F6
100
AcDbSymbolTableRecord
100
AcDbLinetypeTableRecord
  2
HIDDEN
 70
64
  3
- - - - - - - - - - - - - - - - - - - -
 72
65
 73
2
 40
0.2
 49
0.1
 74
0
 49
-0.1
 74
0
  0
LTYPE
  5
1F7
100
AcDbSymbolTableRecord
100
AcDbLinetypeTableRecord
  2
PHANTOM
 70
64
  3
_____ _ _ _____ _ _ _____ _ _ _____
 72
65
 73
6
 40
0.8
 49
0.45
 74
0
 49
-0.05
 74
0
 49
0.1
 74
0
 49
-0.05
 74
0
 49
0.1
 74
0
 49
-0.05
 74
0
  0
LTYPE
  5
1F8
100
AcDbSymbolTableRecord
100
AcDbLinetypeTableRecord
  2
DOT
 70
64
  3
. . . . . . . . . . . . . . . . . . . .
 72
65
 73
2
 40
0.2
 49
0.1
 74
0
 49
-0.1
 74
0
  0
LTYPE
  5
1F9
100
AcDbSymbolTableRecord
100
AcDbLinetypeTableRecord
  2
DASHED
 70
64
  3
- - - - - - - - - - - - - - - - - - - -
 72
65
 73
2
 40
0.2
 49
0.1
 74
0
 49
-0.1
 74
0
  0
ENDTAB
  0
TABLE
  2
LAYER
  5
2
100
AcDbSymbolTable
 70
36
  0
LAYER
  5
10
100
AcDbSymbolTableRecord
100
AcDbLayerTableRecord
  2
0
 70
0
 62
7
  6
CONTINUOUS
370
-3
390
F
  0
LAYER
  5
1FA
100
AcDbSymbolTableRecord
100
AcDbLayerTableRecord
  2
DEFAULT_1
 70
0
 62
7
  6
CENTER
370
-3
390
F
  0
LAYER
  5
1FB
100
AcDbSymbolTableRecord
100
AcDbLayerTableRecord
  2
DEFAULT_2
 70
0
 62
7
  6
HIDDEN
370
-3
390
F
  0
LAYER
  5
1FC
100
AcDbSymbolTableRecord
100
AcDbLayerTableRecord
  2
DEFAULT_3
 70
0
 62
7
  6
PHANTOM
370
-3
390
F
  0
LAYER
  5
1FD
100
AcDbSymbolTableRecord
100
AcDbLayerTableRecord
  2
00_COMPONENTS
 70
0
 62
7
  6
CONTINUOUS
370
-3
390
F
  0
LAYER
  5
1FE
100
AcDbSymbolTableRecord
100
AcDbLayerTableRecord
  2
01_1_DEFAULT_DATUMS
 70
0
 62
7
  6
CONTINUOUS
370
-3
390
F
  0
LAYER
  5
1FF
100
AcDbSymbolTableRecord
100
AcDbLayerTableRecord
  2
01_PLANES
 70
0
 62
7
  6
CONTINUOUS
370
-3
390
F
  0
LAYER
  5
200
100
AcDbSymbolTableRecord
100
AcDbLayerTableRecord
  2
02_COORD_SYS
 70
0
 62
7
  6
CONTINUOUS
370
-3
390
F
  0
LAYER
  5
201
100
AcDbSymbolTableRecord
100
AcDbLayerTableRecord
  2
03_AXES
 70
0
 62
7
  6
CONTINUOUS
370
-3
390
F
  0
LAYER
  5
202
100
AcDbSymbolTableRecord
100
AcDbLayerTableRecord
  2
04_POINTS
 70
0
 62
7
  6
CONTINUOUS
370
-3
390
F
  0
LAYER
  5
203
100
AcDbSymbolTableRecord
100
AcDbLayerTableRecord
  2
05_CURVES
 70
0
 62
7
  6
CONTINUOUS
370
-3
390
F
  0
LAYER
  5
204
100
AcDbSymbolTableRecord
100
AcDbLayerTableRecord
  2
06_SURFS
 70
0
 62
7
  6
CONTINUOUS
370
-3
390
F
  0
LAYER
  5
205
100
AcDbSymbolTableRecord
100
AcDbLayerTableRecord
  2
07_COSMETICS
 70
0
 62
7
  6
CONTINUOUS
370
-3
390
F
  0
LAYER
  5
206
100
AcDbSymbolTableRecord
100
AcDbLayerTableRecord
  2
10_NOTES
 70
0
 62
7
  6
CONTINUOUS
370
-3
390
F
  0
LAYER
  5
207
100
AcDbSymbolTableRecord
100
AcDbLayerTableRecord
  2
11_NOTES_PUB
 70
0
 62
7
  6
CONTINUOUS
370
-3
390
F
  0
LAYER
  5
208
100
AcDbSymbolTableRecord
100
AcDbLayerTableRecord
  2
13_REF_GTOL
 70
0
 62
7
  6
CONTINUOUS
370
-3
390
F
  0
LAYER
  5
209
100
AcDbSymbolTableRecord
100
AcDbLayerTableRecord
  2
16_MISC
 70
0
 62
7
  6
CONTINUOUS
370
-3
390
F
  0
LAYER
  5
20A
100
AcDbSymbolTableRecord
100
AcDbLayerTableRecord
  2
17_NO_PRINT
 70
0
 62
7
  6
CONTINUOUS
370
-3
390
F
  0
LAYER
  5
20B
100
AcDbSymbolTableRecord
100
AcDbLayerTableRecord
  2
18_DATUM_CAMS_JOINTS
 70
0
 62
7
  6
CONTINUOUS
370
-3
390
F
  0
LAYER
  5
20C
100
AcDbSymbolTableRecord
100
AcDbLayerTableRecord
  2
19_DATUM_FUNCTIONAL
 70
0
 62
7
  6
CONTINUOUS
370
-3
390
F
  0
LAYER
  5
20D
100
AcDbSymbolTableRecord
100
AcDbLayerTableRecord
  2
20_DATUM_KINEMATIC_SCHEME
 70
0
 62
7
  6
CONTINUOUS
370
-3
390
F
  0
ENDTAB
  0
TABLE
  2
STYLE
  5
3
100
AcDbSymbolTable
 70
1
  0
STYLE
  5
11
100
AcDbSymbolTableRecord
100
AcDbTextStyleTableRecord
  2
STANDARD
 70
0
 40
0.0
 41
1.0
 50
0.0
 71
0
 42
0.2
  3
ARIAL.TTF
  4

  0
STYLE
  5
20E
100
AcDbSymbolTableRecord
100
AcDbTextStyleTableRecord
  2
TEXTSTYLE_1
 70
0
 40
0.0
 41
0.8
 50
0.0
 71
0
 42
0.2
  3
gdt
  4

  0
ENDTAB
  0
TABLE
  2
VIEW
  5
6
100
AcDbSymbolTable
 70
0
  0
ENDTAB
  0
TABLE
  2
UCS
  5
7
100
AcDbSymbolTable
 70
0
  0
ENDTAB
  0
TABLE
  2
APPID
  5
9
100
AcDbSymbolTable
 70
1
  0
APPID
  5
20F
100
AcDbSymbolTableRecord
100
AcDbRegAppTableRecord
  2
ACAD
 70
0
  0
ENDTAB
  0
TABLE
  2
BLOCK_RECORD
  5
1
100
AcDbSymbolTable
 70
0
  0
BLOCK_RECORD
  5
210
100
AcDbSymbolTableRecord
100
AcDbBlockTableRecord
  2
*Model_Space
  0
BLOCK_RECORD
  5
211
100
AcDbSymbolTableRecord
100
AcDbBlockTableRecord
  2
*Paper_Space
  0
BLOCK_RECORD
  5
212
100
AcDbSymbolTableRecord
100
AcDbBlockTableRecord
  2
_FILLED
  0
ENDTAB
  0
TABLE
  2
DIMSTYLE
  5
A
100
AcDbSymbolTable
 70
1
100
AcDbDimStyleTable
 71
0
  0
DIMSTYLE
105
213
100
AcDbSymbolTableRecord
100
AcDbDimStyleTableRecord
  2
STANDARD
 70
0
  3

  4

 40
1.0
 41
0.5813325704
 42
1.0
 43
0.38
 44
1.0
 45
0.0
 46
0.0
 47
0.01
 48
0.01
140
0.8138655986
141
0.09
142
0.0
143
25.4
144
1.0
145
0.0
146
1.0
147
0.625
 71
1
 72
0
 73
0
 74
0
 75
0
 76
0
 77
1
 78
8
 79
2
170
0
171
1
172
0
173
0
174
0
175
0
176
0
177
0
178
0
270
2
179
2
271
2
272
2
273
2
274
2
275
0
280
0
281
0
282
0
283
1
284
8
285
0
286
0
287
3
288
0
340
11
278
46
341
212
342
212
343
212
344
212
  0
ENDTAB
  0
ENDSEC
  0
SECTION
  2
BLOCKS
  0
BLOCK
  5
20
100
AcDbEntity
  8
0
100
AcDbBlockBegin
  2
*Model_Space
 70
0
 10
0.0
 20
0.0
 30
0.0
  3
*Model_Space
  1

  0
ENDBLK
  5
21
100
AcDbEntity
  8
0
100
AcDbBlockEnd
  0
BLOCK
  5
1C
100
AcDbEntity
  8
0
100
AcDbBlockBegin
  2
*Paper_Space
 70
0
 10
0.0
 20
0.0
 30
0.0
  3
*Paper_Space
  1

  0
ENDBLK
  5
1D
100
AcDbEntity
  8
0
100
AcDbBlockEnd
  0
BLOCK
  5
214
100
AcDbEntity
  8
0
100
AcDbBlockBegin
  2
_FILLED
 70
64
 10
0.0
 20
0.0
  3
_FILLED
  1

  0
SOLID
  5
215
100
AcDbEntity
  8
0
  6
BYBLOCK
 62
0
100
AcDbTrace
 10
0.0
 20
0.0
 11
-1.0
 21
0.25
 12
-1.0
 22
-0.25
 13
-1.0
 23
-0.25
  0
ENDBLK
  5
216
100
AcDbEntity
  8
0
  6
BYBLOCK
 62
0
100
AcDbBlockEnd
  0
ENDSEC
  0
SECTION
  2
ENTITIES
  0
LINE
  5
217
100
AcDbEntity
  8
0
100
AcDbLine
 62
7
  6
BYLAYER
 10
5.3540943201
 20
20.9325626588
 11
5.3540943201
 21
47.7330626401
  0
LINE
  5
218
100
AcDbEntity
  8
0
100
AcDbLine
 62
7
  6
BYLAYER
 10
6.7040943201
 20
15.42022151
 11
6.7040943201
 21
18.0822765309
  0
LINE
  5
219
100
AcDbEntity
  8
0
100
AcDbLine
 62
7
  6
BYLAYER
 10
6.7040943201
 20
18.0829080068
 11
6.7040943201
 21
20.9324858264
  0
LINE
  5
21A
100
AcDbEntity
  8
0
100
AcDbLine
 62
7
  6
BYLAYER
 10
6.7040943201
 20
47.7327280606
 11
6.7040943201
 21
53.3891893964
  0
LINE
  5
21B
100
AcDbEntity
  8
0
100
AcDbLine
 62
7
  6
BYLAYER
 10
6.7040943201
 20
15.42022151
 11
42.7040943201
 21
15.42022151
  0
LINE
  5
21C
100
AcDbEntity
  8
0
100
AcDbLine
 62
7
  6
BYLAYER
 10
26.6040943201
 20
15.9332208574
 11
24.6040943201
 21
15.9332405416
  0
LINE
  5
21D
100
AcDbEntity
  8
0
100
AcDbLine
 62
7
  6
BYLAYER
 10
8.0540943201
 20
18.0823111669
 11
8.0540943201
 21
16.782276289
  0
LINE
  5
21E
100
AcDbEntity
  8
0
100
AcDbLine
 62
7
  6
BYLAYER
 10
8.0540943201
 20
18.0828733704
 11
8.0540943201
 21
20.9323911809
  0
LINE
  5
21F
100
AcDbEntity
  8
0
100
AcDbLine
 62
7
  6
BYLAYER
 10
8.0540943201
 20
47.7327106582
 11
8.0540943201
 21
51.8825558589
  0
LINE
  5
220
100
AcDbEntity
  8
0
100
AcDbLine
 62
7
  6
BYLAYER
 10
8.3892315275
 20
17.5710369621
 11
8.3892315275
 21
19.6810369607
  0
LINE
  5
221
100
AcDbEntity
  8
0
100
AcDbLine
 62
7
  6
BYLAYER
 10
8.3892315275
 20
48.9826066466
 11
8.3892315275
 21
51.0926066549
  0
LINE
  5
222
100
AcDbEntity
  8
0
100
AcDbLine
 62
7
  6
BYLAYER
 10
8.4540943201
 20
53.3578296413
 11
8.4540943201
 21
53.3891894723
  0
LINE
  5
223
100
AcDbEntity
  8
0
100
AcDbLine
 62
7
  6
BYLAYER
 10
8.0540943201
 20
16.782276289
 11
15.6540943201
 21
16.782276289
  0
LINE
  5
224
100
AcDbEntity
  8
0
100
AcDbLine
 62
7
  6
BYLAYER
 10
16.6540943201
 20
16.782276289
 11
24.2540943201
 21
16.782276289
  0
LINE
  5
225
100
AcDbEntity
  8
0
100
AcDbLine
 62
7
  6
BYLAYER
 10
26.6040943201
 20
16.782276289
 11
32.8540943201
 21
16.782276289
  0
LINE
  5
226
100
AcDbEntity
  8
0
100
AcDbLine
 62
7
  6
BYLAYER
 10
33.8540943201
 20
16.782276289
 11
41.4540943201
 21
16.782276289
  0
LINE
  5
227
100
AcDbEntity
  8
0
100
AcDbLine
 62
7
  6
BYLAYER
 10
42.7040943201
 20
18.0829080068
 11
41.4540943201
 21
18.0828733709
  0
LINE
  5
228
100
AcDbEntity
  8
0
100
AcDbLine
 62
7
  6
BYLAYER
 10
15.6540943201
 20
18.0825708231
 11
16.6540943201
 21
18.0825708231
  0
LINE
  5
229
100
AcDbEntity
  8
0
100
AcDbLine
 62
7
  6
BYLAYER
 10
24.2540943201
 20
18.0825708231
 11
24.6040943201
 21
18.0825708231
  0
LINE
  5
22A
100
AcDbEntity
  8
0
100
AcDbLine
 62
7
  6
BYLAYER
 10
32.8540943201
 20
18.0825708231
 11
33.8540943201
 21
18.0825708231
  0
LINE
  5
22B
100
AcDbEntity
  8
0
100
AcDbLine
 62
7
  6
BYLAYER
 10
6.7040943201
 20
18.0829080068
 11
8.0540943201
 21
18.0829080064
  0
LINE
  5
22C
100
AcDbEntity
  8
0
100
AcDbLine
 62
7
  6
BYLAYER
 10
9.1040943201
 20
43.3833655058
 11
9.1040943201
 21
31.5333091655
  0
LINE
  5
22D
100
AcDbEntity
  8
0
100
AcDbLine
 62
7
  6
BYLAYER
 10
11.4877852813
 20
20.2810369602
 11
11.4958625377
 21
16.9510467589
  0
LINE
  5
22E
100
AcDbEntity
  8
0
100
AcDbLine
 62
7
  6
BYLAYER
 10
11.9458559336
 20
16.9610377127
 11
11.9436210005
 21
20.2910015468
  0
LINE
  5
22F
100
AcDbEntity
  8
0
100
AcDbLine
 62
7
  6
BYLAYER
 10
10.7540943201
 20
47.7329645342
 11
10.7540943201
 21
43.3833655058
  0
LINE
  5
230
100
AcDbEntity
  8
0
100
AcDbLine
 62
7
  6
BYLAYER
 10
11.0040943201
 20
40.4333645742
 11
11.0040943201
 21
47.6329609996
  0
LINE
  5
231
100
AcDbEntity
  8
0
100
AcDbLine
 62
7
  6
BYLAYER
 10
11.9436210005
 20
48.3726420604
 11
11.9458559336
 21
51.7026059051
  0
LINE
  5
232
100
AcDbEntity
  8
0
100
AcDbLine
 62
7
  6
BYLAYER
 10
11.4958625377
 20
51.7125968591
 11
11.4877852813
 21
48.3826066484
  0
LINE
  5
233
100
AcDbEntity
  8
0
100
AcDbLine
 62
7
  6
BYLAYER
 10
5.3540943201
 20
20.9325626588
 11
24.6040943201
 21
20.9322645509
  0
LINE
  5
234
100
AcDbEntity
  8
0
100
AcDbLine
 62
7
  6
BYLAYER
 10
24.6040943201
 20
21.3322861141
 11
20.7040943201
 21
21.332270476
  0
LINE
  5
235
100
AcDbEntity
  8
0
100
AcDbLine
 62
7
  6
BYLAYER
 10
44.1540943201
 20
20.9325626588
 11
26.6040943201
 21
20.9322645499
  0
LINE
  5
236
100
AcDbEntity
  8
0
100
AcDbLine
 62
7
  6
BYLAYER
 10
21.2540943201
 20
23.0833408759
 11
24.6040943201
 21
23.0833408759
  0
LINE
  5
237
100
AcDbEntity
  8
0
100
AcDbLine
 62
7
  6
BYLAYER
 10
15.0454472257
 20
51.0926066556
 11
15.0454472257
 21
48.9825101021
  0
LINE
  5
238
100
AcDbEntity
  8
0
100
AcDbLine
 62
7
  6
BYLAYER
 10
15.0454472257
 20
19.6811335628
 11
15.0454472257
 21
17.5710369622
  0
LINE
  5
239
100
AcDbEntity
  8
0
100
AcDbLine
 62
7
  6
BYLAYER
 10
15.1040943201
 20
53.3891895266
 11
15.1040943201
 21
53.3578296413
  0
LINE
  5
23A
100
AcDbEntity
  8
0
100
AcDbLine
 62
7
  6
BYLAYER
 10
15.6540943201
 20
20.9325907545
 11
15.6540943201
 21
18.0825546819
  0
LINE
  5
23B
100
AcDbEntity
  8
0
100
AcDbLine
 62
7
  6
BYLAYER
 10
15.6540943201
 20
18.0822926729
 11
15.6540943201
 21
16.7822762888
  0
LINE
  5
23C
100
AcDbEntity
  8
0
100
AcDbLine
 62
7
  6
BYLAYER
 10
15.6540943201
 20
47.7322056336
 11
15.6540943201
 21
51.8824533732
  0
LINE
  5
23D
100
AcDbEntity
  8
0
100
AcDbLine
 62
7
  6
BYLAYER
 10
26.6040943201
 20
24.6761028761
 11
24.6040943201
 21
24.6761028761
  0
LINE
  5
23E
100
AcDbEntity
  8
0
100
AcDbLine
 62
7
  6
BYLAYER
 10
21.2540943201
 20
24.6761028761
 11
20.7040943201
 21
24.6761028761
  0
LINE
  5
23F
100
AcDbEntity
  8
0
100
AcDbLine
 62
7
  6
BYLAYER
 10
16.6540943201
 20
18.0822926727
 11
16.6540943201
 21
16.782276289
  0
LINE
  5
240
100
AcDbEntity
  8
0
100
AcDbLine
 62
7
  6
BYLAYER
 10
16.6540943201
 20
18.0825546819
 11
16.6540943201
 21
20.9325713009
  0
LINE
  5
241
100
AcDbEntity
  8
0
100
AcDbLine
 62
7
  6
BYLAYER
 10
16.6540943201
 20
47.7322250871
 11
16.6540943201
 21
51.8824533742
  0
LINE
  5
242
100
AcDbEntity
  8
0
100
AcDbLine
 62
7
  6
BYLAYER
 10
17.0054472257
 20
17.5710369621
 11
17.0054472257
 21
19.6811337052
  0
LINE
  5
243
100
AcDbEntity
  8
0
100
AcDbLine
 62
7
  6
BYLAYER
 10
17.0054472257
 20
48.9825098462
 11
17.0054472257
 21
51.0926066549
  0
LINE
  5
244
100
AcDbEntity
  8
0
100
AcDbLine
 62
7
  6
BYLAYER
 10
17.0540943201
 20
53.3578296413
 11
17.0540943201
 21
53.3891895266
  0
LINE
  5
245
100
AcDbEntity
  8
0
100
AcDbLine
 62
7
  6
BYLAYER
 10
27.0040943201
 20
25.7333655195
 11
28.5540943201
 21
25.7333655195
  0
LINE
  5
246
100
AcDbEntity
  8
0
100
AcDbLine
 62
7
  6
BYLAYER
 10
19.0589068282
 20
25.7639552064
 11
20.6040943201
 21
25.7639434233
  0
LINE
  5
247
100
AcDbEntity
  8
0
100
AcDbLine
 62
7
  6
BYLAYER
 10
20.7040943201
 20
25.8340487854
 11
19.1040943201
 21
25.8340487854
  0
LINE
  5
248
100
AcDbEntity
  8
0
100
AcDbLine
 62
7
  6
BYLAYER
 10
28.3040943201
 20
25.9333645854
 11
26.6040943201
 21
25.9333645854
  0
LINE
  5
249
100
AcDbEntity
  8
0
100
AcDbLine
 62
7
  6
BYLAYER
 10
24.6040943201
 20
25.9333645854
 11
21.2540943201
 21
25.9333645854
  0
LINE
  5
24A
100
AcDbEntity
  8
0
100
AcDbLine
 62
7
  6
BYLAYER
 10
20.6040943201
 20
26.6333645849
 11
22.3040943201
 21
26.6333645849
  0
LINE
  5
24B
100
AcDbEntity
  8
0
100
AcDbLine
 62
7
  6
BYLAYER
 10
12.7040943201
 20
26.9378236774
 11
13.3040943201
 21
26.9378236774
  0
LINE
  5
24C
100
AcDbEntity
  8
0
100
AcDbLine
 62
7
  6
BYLAYER
 10
30.0040943201
 20
26.9378236774
 11
30.6040943201
 21
26.9378236774
  0
LINE
  5
24D
100
AcDbEntity
  8
0
100
AcDbLine
 62
7
  6
BYLAYER
 10
19.0540943201
 20
31.5333091655
 11
19.0540943201
 21
37.7833655101
  0
LINE
  5
24E
100
AcDbEntity
  8
0
100
AcDbLine
 62
7
  6
BYLAYER
 10
19.0589068282
 20
30.0744273007
 11
19.0589068282
 21
25.7639552064
  0
LINE
  5
24F
100
AcDbEntity
  8
0
100
AcDbLine
 62
7
  6
BYLAYER
 10
19.1040943201
 20
25.8340487854
 11
19.1040943201
 21
30.0333619815
  0
LINE
  5
250
100
AcDbEntity
  8
0
100
AcDbLine
 62
7
  6
BYLAYER
 10
19.1540943201
 20
46.5833645694
 11
19.1540943201
 21
41.4333645734
  0
LINE
  5
251
100
AcDbEntity
  8
0
100
AcDbLine
 62
7
  6
BYLAYER
 10
30.6040943199
 20
29.0378236758
 11
30.0040943199
 21
29.0378236761
  0
LINE
  5
252
100
AcDbEntity
  8
0
100
AcDbLine
 62
7
  6
BYLAYER
 10
13.3040943201
 20
29.0378236761
 11
12.7040943201
 21
29.0378236761
  0
LINE
  5
253
100
AcDbEntity
  8
0
100
AcDbLine
 62
7
  6
BYLAYER
 10
20.5631091701
 20
48.3826066481
 11
20.5550319136
 21
51.712596859
  0
LINE
  5
254
100
AcDbEntity
  8
0
100
AcDbLine
 62
7
  6
BYLAYER
 10
20.1050385178
 20
51.7026059052
 11
20.1072734507
 21
48.3726421992
  0
LINE
  5
255
100
AcDbEntity
  8
0
100
AcDbLine
 62
7
  6
BYLAYER
 10
20.6040943201
 20
30.0333619815
 11
20.6040943201
 21
26.6333645849
  0
LINE
  5
256
100
AcDbEntity
  8
0
100
AcDbLine
 62
7
  6
BYLAYER
 10
20.6040943201
 20
20.9322645509
 11
20.6040943201
 21
25.7639434243
  0
LINE
  5
257
100
AcDbEntity
  8
0
100
AcDbLine
 62
7
  6
BYLAYER
 10
20.7040943201
 20
25.8340487854
 11
20.7040943201
 21
21.332270476
  0
LINE
  5
258
100
AcDbEntity
  8
0
100
AcDbLine
 62
7
  6
BYLAYER
 10
21.2540943201
 20
23.0833408759
 11
21.2540943201
 21
25.9333645854
  0
LINE
  5
259
100
AcDbEntity
  8
0
100
AcDbLine
 62
7
  6
BYLAYER
 10
20.1072734507
 20
20.2910014106
 11
20.1050385178
 21
16.9610377128
  0
LINE
  5
25A
100
AcDbEntity
  8
0
100
AcDbLine
 62
7
  6
BYLAYER
 10
20.5550319136
 20
16.9510467588
 11
20.5631091701
 21
20.2810369602
  0
LINE
  5
25B
100
AcDbEntity
  8
0
100
AcDbLine
 62
7
  6
BYLAYER
 10
19.1040943201
 20
30.0333619815
 11
20.6040943201
 21
30.0333619815
  0
LINE
  5
25C
100
AcDbEntity
  8
0
100
AcDbLine
 62
7
  6
BYLAYER
 10
22.0540943201
 20
30.0744273007
 11
19.0589068282
 21
30.0744273007
  0
LINE
  5
25D
100
AcDbEntity
  8
0
100
AcDbLine
 62
7
  6
BYLAYER
 10
22.0540943201
 20
37.7833655101
 11
22.0540943201
 21
30.0744273007
  0
LINE
  5
25E
100
AcDbEntity
  8
0
100
AcDbLine
 62
7
  6
BYLAYER
 10
22.3040943201
 20
26.6333645849
 11
22.3040943201
 21
32.7333645802
  0
LINE
  5
25F
100
AcDbEntity
  8
0
100
AcDbLine
 62
7
  6
BYLAYER
 10
22.5540943201
 20
36.3333645774
 11
22.5540943201
 21
38.8333645754
  0
LINE
  5
260
100
AcDbEntity
  8
0
100
AcDbLine
 62
7
  6
BYLAYER
 10
9.1040943201
 20
31.5333091655
 11
19.0540943201
 21
31.5333091655
  0
LINE
  5
261
100
AcDbEntity
  8
0
100
AcDbLine
 62
7
  6
BYLAYER
 10
22.3040943201
 20
32.7333645802
 11
29.1540943201
 21
32.7333645802
  0
LINE
  5
262
100
AcDbEntity
  8
0
100
AcDbLine
 62
7
  6
BYLAYER
 10
23.3040943201
 20
41.4333645734
 11
23.3040943201
 21
46.5833645694
  0
LINE
  5
263
100
AcDbEntity
  8
0
100
AcDbLine
 62
7
  6
BYLAYER
 10
23.6616629238
 20
51.0926066556
 11
23.6616629238
 21
48.9826066479
  0
LINE
  5
264
100
AcDbEntity
  8
0
100
AcDbLine
 62
7
  6
BYLAYER
 10
23.6616629238
 20
19.681036961
 11
23.6616629238
 21
17.5710369622
  0
LINE
  5
265
100
AcDbEntity
  8
0
100
AcDbLine
 62
7
  6
BYLAYER
 10
23.7040943201
 20
53.3891895266
 11
23.7040943201
 21
53.3578296413
  0
LINE
  5
266
100
AcDbEntity
  8
0
100
AcDbLine
 62
7
  6
BYLAYER
 10
24.2540943201
 20
20.9325713009
 11
24.2540943201
 21
18.0825546819
  0
LINE
  5
267
100
AcDbEntity
  8
0
100
AcDbLine
 62
7
  6
BYLAYER
 10
24.2540943201
 20
18.0822926729
 11
24.2540943201
 21
16.7822762888
  0
LINE
  5
268
100
AcDbEntity
  8
0
100
AcDbLine
 62
7
  6
BYLAYER
 10
24.2540943201
 20
47.7322250871
 11
24.2540943201
 21
51.8824533732
  0
LINE
  5
269
100
AcDbEntity
  8
0
100
AcDbLine
 62
7
  6
BYLAYER
 10
24.6040943201
 20
25.9333645854
 11
24.6040943201
 21
23.0833408759
  0
LINE
  5
26A
100
AcDbEntity
  8
0
100
AcDbLine
 62
7
  6
BYLAYER
 10
24.6040943201
 20
21.3322861141
 11
24.6040943201
 21
15.9332405416
  0
LINE
  5
26B
100
AcDbEntity
  8
0
100
AcDbLine
 62
7
  6
BYLAYER
 10
24.9790943201
 20
53.0332493481
 11
24.9790943201
 21
47.6329417033
  0
LINE
  5
26C
100
AcDbEntity
  8
0
100
AcDbLine
 62
7
  6
BYLAYER
 10
34.3790943201
 20
40.4333645742
 11
31.607813028
 21
38.8333645754
  0
LINE
  5
26D
100
AcDbEntity
  8
0
100
AcDbLine
 62
7
  6
BYLAYER
 10
25.6540943201
 20
53.3578296413
 11
25.6540943201
 21
53.3891895266
  0
LINE
  5
26E
100
AcDbEntity
  8
0
100
AcDbLine
 62
7
  6
BYLAYER
 10
26.6040943201
 20
15.9332208574
 11
26.6040943201
 21
25.9333645854
  0
LINE
  5
26F
100
AcDbEntity
  8
0
100
AcDbLine
 62
7
  6
BYLAYER
 10
29.4040943201
 20
36.3333645774
 11
22.5540943201
 21
36.3333645774
  0
LINE
  5
270
100
AcDbEntity
  8
0
100
AcDbLine
 62
7
  6
BYLAYER
 10
20.3503756122
 20
38.8333645754
 11
17.5790943201
 21
40.4333645742
  0
LINE
  5
271
100
AcDbEntity
  8
0
100
AcDbLine
 62
7
  6
BYLAYER
 10
26.9790943201
 20
47.6329417032
 11
26.9790943201
 21
53.0332493481
  0
LINE
  5
272
100
AcDbEntity
  8
0
100
AcDbLine
 62
7
  6
BYLAYER
 10
27.0040943201
 20
20.9322848751
 11
27.0040943201
 21
25.7333655195
  0
LINE
  5
273
100
AcDbEntity
  8
0
100
AcDbLine
 62
7
  6
BYLAYER
 10
28.3040943201
 20
27.4101612374
 11
28.3040943201
 21
25.9333645854
  0
LINE
  5
274
100
AcDbEntity
  8
0
100
AcDbLine
 62
7
  6
BYLAYER
 10
28.5540943201
 20
25.7333655195
 11
28.5540943201
 21
27.7333655179
  0
LINE
  5
275
100
AcDbEntity
  8
0
100
AcDbLine
 62
7
  6
BYLAYER
 10
32.4540943201
 20
36.683365511
 11
42.5540943201
 21
36.683365511
  0
LINE
  5
276
100
AcDbEntity
  8
0
100
AcDbLine
 62
7
  6
BYLAYER
 10
19.0540943201
 20
37.7833655101
 11
22.0540943201
 21
37.7833655101
  0
LINE
  5
277
100
AcDbEntity
  8
0
100
AcDbLine
 62
7
  6
BYLAYER
 10
29.4540943201
 20
37.7833655101
 11
32.4540943201
 21
37.7833655101
  0
LINE
  5
278
100
AcDbEntity
  8
0
100
AcDbLine
 62
7
  6
BYLAYER
 10
28.7202166775
 20
20.2810369602
 11
28.728293934
 21
16.9510467589
  0
LINE
  5
279
100
AcDbEntity
  8
0
100
AcDbLine
 62
7
  6
BYLAYER
 10
29.1782873298
 20
16.9610377127
 11
29.1760523968
 21
20.2910015468
  0
LINE
  5
27A
100
AcDbEntity
  8
0
100
AcDbLine
 62
7
  6
BYLAYER
 10
29.1540943201
 20
32.7333645802
 11
29.1540943201
 21
28.8824044226
  0
LINE
  5
27B
100
AcDbEntity
  8
0
100
AcDbLine
 62
7
  6
BYLAYER
 10
29.4040943201
 20
38.8333645754
 11
29.4040943201
 21
36.3333645774
  0
LINE
  5
27C
100
AcDbEntity
  8
0
100
AcDbLine
 62
7
  6
BYLAYER
 10
29.4540943201
 20
29.2833655167
 11
29.4540943201
 21
37.7833655101
  0
LINE
  5
27D
100
AcDbEntity
  8
0
100
AcDbLine
 62
7
  6
BYLAYER
 10
29.1760523968
 20
48.3726420604
 11
29.1782873298
 21
51.7026059051
  0
LINE
  5
27E
100
AcDbEntity
  8
0
100
AcDbLine
 62
7
  6
BYLAYER
 10
28.728293934
 20
51.7125968591
 11
28.7202166776
 21
48.3826066484
  0
LINE
  5
27F
100
AcDbEntity
  8
0
100
AcDbLine
 62
7
  6
BYLAYER
 10
31.607813028
 20
38.8333645754
 11
29.4040943201
 21
38.8333645754
  0
LINE
  5
280
100
AcDbEntity
  8
0
100
AcDbLine
 62
7
  6
BYLAYER
 10
22.5540943201
 20
38.8333645754
 11
20.3503756122
 21
38.8333645754
  0
LINE
  5
281
100
AcDbEntity
  8
0
100
AcDbLine
 62
7
  6
BYLAYER
 10
29.1540943201
 20
28.8824044226
 11
28.3040943201
 21
27.4101612374
  0
LINE
  5
282
100
AcDbEntity
  8
0
100
AcDbLine
 62
7
  6
BYLAYER
 10
28.5540943201
 20
27.7333655179
 11
29.4540943201
 21
29.2833655167
  0
LINE
  5
283
100
AcDbEntity
  8
0
100
AcDbLine
 62
7
  6
BYLAYER
 10
40.9540943201
 20
40.4333645742
 11
34.3790943201
 21
40.4333645742
  0
LINE
  5
284
100
AcDbEntity
  8
0
100
AcDbLine
 62
7
  6
BYLAYER
 10
17.5790943201
 20
40.4333645742
 11
11.0040943201
 21
40.4333645742
  0
LINE
  5
285
100
AcDbEntity
  8
0
100
AcDbLine
 62
7
  6
BYLAYER
 10
19.1540943201
 20
41.4333645734
 11
23.3040943201
 21
41.4333645734
  0
LINE
  5
286
100
AcDbEntity
  8
0
100
AcDbLine
 62
7
  6
BYLAYER
 10
32.277878622
 20
51.0926066556
 11
32.277878622
 21
48.9825101021
  0
LINE
  5
287
100
AcDbEntity
  8
0
100
AcDbLine
 62
7
  6
BYLAYER
 10
32.277878622
 20
19.6811335628
 11
32.277878622
 21
17.5710369622
  0
LINE
  5
288
100
AcDbEntity
  8
0
100
AcDbLine
 62
7
  6
BYLAYER
 10
32.3040943201
 20
53.3891895266
 11
32.3040943201
 21
53.3578296413
  0
LINE
  5
289
100
AcDbEntity
  8
0
100
AcDbLine
 62
7
  6
BYLAYER
 10
32.4540943201
 20
37.7833655101
 11
32.4540943201
 21
36.683365511
  0
LINE
  5
28A
100
AcDbEntity
  8
0
100
AcDbLine
 62
7
  6
BYLAYER
 10
32.8540943201
 20
20.9325907545
 11
32.8540943201
 21
18.0825546819
  0
LINE
  5
28B
100
AcDbEntity
  8
0
100
AcDbLine
 62
7
  6
BYLAYER
 10
32.8540943201
 20
18.0822926729
 11
32.8540943201
 21
16.7822762888
  0
LINE
  5
28C
100
AcDbEntity
  8
0
100
AcDbLine
 62
7
  6
BYLAYER
 10
32.8540943201
 20
47.7322056336
 11
32.8540943201
 21
51.8824533732
  0
LINE
  5
28D
100
AcDbEntity
  8
0
100
AcDbLine
 62
7
  6
BYLAYER
 10
33.8540943201
 20
18.0822926727
 11
33.8540943201
 21
16.782276289
  0
LINE
  5
28E
100
AcDbEntity
  8
0
100
AcDbLine
 62
7
  6
BYLAYER
 10
33.8540943201
 20
18.0825546819
 11
33.8540943201
 21
20.9325713009
  0
LINE
  5
28F
100
AcDbEntity
  8
0
100
AcDbLine
 62
7
  6
BYLAYER
 10
33.8540943201
 20
47.7322250871
 11
33.8540943201
 21
51.8824533742
  0
LINE
  5
290
100
AcDbEntity
  8
0
100
AcDbLine
 62
7
  6
BYLAYER
 10
22.4540919424
 20
43.0335367284
 11
20.8540966978
 21
43.0335367284
  0
LINE
  5
291
100
AcDbEntity
  8
0
100
AcDbLine
 62
7
  6
BYLAYER
 10
42.5540943201
 20
43.3833655058
 11
41.2040943201
 21
43.3833655058
  0
LINE
  5
292
100
AcDbEntity
  8
0
100
AcDbLine
 62
7
  6
BYLAYER
 10
10.7540943201
 20
43.3833655058
 11
9.1040943201
 21
43.3833655058
  0
LINE
  5
293
100
AcDbEntity
  8
0
100
AcDbLine
 62
7
  6
BYLAYER
 10
34.237878622
 20
17.5710369621
 11
34.237878622
 21
19.6811337052
  0
LINE
  5
294
100
AcDbEntity
  8
0
100
AcDbLine
 62
7
  6
BYLAYER
 10
34.237878622
 20
48.9825098462
 11
34.237878622
 21
51.0926066549
  0
LINE
  5
295
100
AcDbEntity
  8
0
100
AcDbLine
 62
7
  6
BYLAYER
 10
34.2540943201
 20
53.3578296413
 11
34.2540943201
 21
53.3891895266
  0
LINE
  5
296
100
AcDbEntity
  8
0
100
AcDbLine
 62
7
  6
BYLAYER
 10
37.3374699141
 20
51.7026059052
 11
37.339704847
 21
48.3726421993
  0
LINE
  5
297
100
AcDbEntity
  8
0
100
AcDbLine
 62
7
  6
BYLAYER
 10
37.339704847
 20
20.2910014106
 11
37.3374699141
 21
16.9610377128
  0
LINE
  5
298
100
AcDbEntity
  8
0
100
AcDbLine
 62
7
  6
BYLAYER
 10
23.3040943201
 20
46.5833645694
 11
19.1540943201
 21
46.5833645694
  0
LINE
  5
299
100
AcDbEntity
  8
0
100
AcDbLine
 62
7
  6
BYLAYER
 10
37.7955405664
 20
48.3826066481
 11
37.7874633099
 21
51.712596859
  0
LINE
  5
29A
100
AcDbEntity
  8
0
100
AcDbLine
 62
7
  6
BYLAYER
 10
37.7874633099
 20
16.9510467588
 11
37.7955405664
 21
20.2810369602
  0
LINE
  5
29B
100
AcDbEntity
  8
0
100
AcDbLine
 62
7
  6
BYLAYER
 10
40.9540943201
 20
47.6329609996
 11
11.0040943201
 21
47.6329609996
  0
LINE
  5
29C
100
AcDbEntity
  8
0
100
AcDbLine
 62
7
  6
BYLAYER
 10
44.1540943201
 20
47.7329645315
 11
5.3540943201
 21
47.7329645315
  0
LINE
  5
29D
100
AcDbEntity
  8
0
100
AcDbLine
 62
7
  6
BYLAYER
 10
40.8940943201
 20
51.0926066556
 11
40.8940943201
 21
48.9826066479
  0
LINE
  5
29E
100
AcDbEntity
  8
0
100
AcDbLine
 62
7
  6
BYLAYER
 10
40.8940943201
 20
19.681036961
 11
40.8940943201
 21
17.5710369622
  0
LINE
  5
29F
100
AcDbEntity
  8
0
100
AcDbLine
 62
7
  6
BYLAYER
 10
40.9040943201
 20
53.3891894723
 11
40.9040943201
 21
53.3578296413
  0
LINE
  5
2A0
100
AcDbEntity
  8
0
100
AcDbLine
 62
7
  6
BYLAYER
 10
40.9540943201
 20
40.4333645742
 11
40.9540943201
 21
47.6329609996
  0
LINE
  5
2A1
100
AcDbEntity
  8
0
100
AcDbLine
 62
7
  6
BYLAYER
 10
41.2040943201
 20
47.7329645342
 11
41.2040943201
 21
43.3833655058
  0
LINE
  5
2A2
100
AcDbEntity
  8
0
100
AcDbLine
 62
7
  6
BYLAYER
 10
6.7040943201
 20
50.5829079617
 11
8.0540943201
 21
50.5828732849
  0
LINE
  5
2A3
100
AcDbEntity
  8
0
100
AcDbLine
 62
7
  6
BYLAYER
 10
15.6540943201
 20
50.5824886078
 11
16.6540943201
 21
50.5824886082
  0
LINE
  5
2A4
100
AcDbEntity
  8
0
100
AcDbLine
 62
7
  6
BYLAYER
 10
24.2540943201
 20
50.5824886082
 11
24.9790943201
 21
50.5824886079
  0
LINE
  5
2A5
100
AcDbEntity
  8
0
100
AcDbLine
 62
7
  6
BYLAYER
 10
32.8540943201
 20
50.5824886078
 11
33.8540943201
 21
50.5824886082
  0
LINE
  5
2A6
100
AcDbEntity
  8
0
100
AcDbLine
 62
7
  6
BYLAYER
 10
42.7040943201
 20
50.5829079617
 11
41.4540943201
 21
50.5829079621
  0
LINE
  5
2A7
100
AcDbEntity
  8
0
100
AcDbLine
 62
7
  6
BYLAYER
 10
41.4540943201
 20
20.9323797636
 11
41.4540943201
 21
18.0828733704
  0
LINE
  5
2A8
100
AcDbEntity
  8
0
100
AcDbLine
 62
7
  6
BYLAYER
 10
41.4540943201
 20
18.0823111671
 11
41.4540943201
 21
16.7822762888
  0
LINE
  5
2A9
100
AcDbEntity
  8
0
100
AcDbLine
 62
7
  6
BYLAYER
 10
41.4540943201
 20
47.7327220756
 11
41.4540943201
 21
51.8825558587
  0
LINE
  5
2AA
100
AcDbEntity
  8
0
100
AcDbLine
 62
7
  6
BYLAYER
 10
42.5540943201
 20
36.683365511
 11
42.5540943201
 21
43.3833655058
  0
LINE
  5
2AB
100
AcDbEntity
  8
0
100
AcDbLine
 62
7
  6
BYLAYER
 10
42.7040943201
 20
20.9324858264
 11
42.7040943201
 21
18.0829080068
  0
LINE
  5
2AC
100
AcDbEntity
  8
0
100
AcDbLine
 62
7
  6
BYLAYER
 10
42.7040943201
 20
15.42022151
 11
42.7040943201
 21
18.0822765309
  0
LINE
  5
2AD
100
AcDbEntity
  8
0
100
AcDbLine
 62
7
  6
BYLAYER
 10
42.7040943201
 20
47.7327280606
 11
42.7040943201
 21
53.3891893964
  0
LINE
  5
2AE
100
AcDbEntity
  8
0
100
AcDbLine
 62
7
  6
BYLAYER
 10
8.0540943201
 20
51.8824533748
 11
15.6540943201
 21
51.8824533742
  0
LINE
  5
2AF
100
AcDbEntity
  8
0
100
AcDbLine
 62
7
  6
BYLAYER
 10
16.6540943201
 20
51.8824533742
 11
24.2540943201
 21
51.8824533742
  0
LINE
  5
2B0
100
AcDbEntity
  8
0
100
AcDbLine
 62
7
  6
BYLAYER
 10
26.9790943201
 20
51.8824533742
 11
32.8540943201
 21
51.8824533742
  0
LINE
  5
2B1
100
AcDbEntity
  8
0
100
AcDbLine
 62
7
  6
BYLAYER
 10
33.8540943201
 20
51.8824533742
 11
41.4540943201
 21
51.8824533748
  0
LINE
  5
2B2
100
AcDbEntity
  8
0
100
AcDbLine
 62
7
  6
BYLAYER
 10
44.1540943201
 20
20.9325626616
 11
44.1540943201
 21
47.7330626373
  0
LINE
  5
2B3
100
AcDbEntity
  8
0
100
AcDbLine
 62
7
  6
BYLAYER
 10
26.9790943201
 20
53.0332493481
 11
24.9790943201
 21
53.0332493481
  0
LINE
  5
2B4
100
AcDbEntity
  8
0
100
AcDbLine
 62
7
  6
BYLAYER
 10
6.7040943201
 20
53.044230605
 11
14.8519698306
 21
53.044230605
  0
LINE
  5
2B5
100
AcDbEntity
  8
0
100
AcDbLine
 62
7
  6
BYLAYER
 10
17.3062188096
 20
53.044230605
 11
23.4519698306
 21
53.044230605
  0
LINE
  5
2B6
100
AcDbEntity
  8
0
100
AcDbLine
 62
7
  6
BYLAYER
 10
25.9062188096
 20
53.044230605
 11
32.0519698306
 21
53.044230605
  0
LINE
  5
2B7
100
AcDbEntity
  8
0
100
AcDbLine
 62
7
  6
BYLAYER
 10
34.5062188096
 20
53.044230605
 11
42.7040943201
 21
53.044230605
  0
LINE
  5
2B8
100
AcDbEntity
  8
0
100
AcDbLine
 62
7
  6
BYLAYER
 10
14.830098644
 20
53.3317955167
 11
17.3280899324
 21
53.3317955167
  0
LINE
  5
2B9
100
AcDbEntity
  8
0
100
AcDbLine
 62
7
  6
BYLAYER
 10
23.430098644
 20
53.3317955167
 11
25.9280899324
 21
53.3317955167
  0
LINE
  5
2BA
100
AcDbEntity
  8
0
100
AcDbLine
 62
7
  6
BYLAYER
 10
32.030098644
 20
53.3317955167
 11
34.5280899324
 21
53.3317955167
  0
LINE
  5
2BB
100
AcDbEntity
  8
0
100
AcDbLine
 62
7
  6
BYLAYER
 10
40.9040943201
 20
53.3578296413
 11
34.2540943201
 21
53.3578296413
  0
LINE
  5
2BC
100
AcDbEntity
  8
0
100
AcDbLine
 62
7
  6
BYLAYER
 10
32.3040943201
 20
53.3578296413
 11
25.6540943201
 21
53.3578296413
  0
LINE
  5
2BD
100
AcDbEntity
  8
0
100
AcDbLine
 62
7
  6
BYLAYER
 10
23.7040943201
 20
53.3578296413
 11
17.0540943201
 21
53.3578296413
  0
LINE
  5
2BE
100
AcDbEntity
  8
0
100
AcDbLine
 62
7
  6
BYLAYER
 10
15.1040943201
 20
53.3578296413
 11
8.4540943201
 21
53.3578296413
  0
LINE
  5
2BF
100
AcDbEntity
  8
0
100
AcDbLine
 62
7
  6
BYLAYER
 10
6.7040943201
 20
53.3891894507
 11
8.4540943201
 21
53.3891895049
  0
LINE
  5
2C0
100
AcDbEntity
  8
0
100
AcDbLine
 62
7
  6
BYLAYER
 10
15.1040943201
 20
53.3891895266
 11
17.0540943201
 21
53.3891895266
  0
LINE
  5
2C1
100
AcDbEntity
  8
0
100
AcDbLine
 62
7
  6
BYLAYER
 10
23.7040943201
 20
53.3891895266
 11
25.6540943201
 21
53.3891895266
  0
LINE
  5
2C2
100
AcDbEntity
  8
0
100
AcDbLine
 62
7
  6
BYLAYER
 10
32.3040943201
 20
53.3891895266
 11
34.2540943201
 21
53.3891895266
  0
LINE
  5
2C3
100
AcDbEntity
  8
0
100
AcDbLine
 62
7
  6
BYLAYER
 10
40.9040943201
 20
53.3891895049
 11
42.7040943201
 21
53.3891894507
  0
ARC
  5
2C4
100
AcDbEntity
  8
0
100
AcDbCircle
 62
7
  6
BYLAYER
 10
27.4470201336
 20
18.5343072127
 40
2.1662597185
100
AcDbArc
 50
90.0735510622
 51
112.9320896778
  0
ARC
  5
2C5
100
AcDbEntity
  8
0
100
AcDbCircle
 62
7
  6
BYLAYER
 10
18.830784093
 20
50.0219780001
 40
2.1090838068
100
AcDbArc
 50
52.8305449281
 51
61.9170104133
  0
ARC
  5
2C6
100
AcDbEntity
  8
0
100
AcDbCircle
 62
7
  6
BYLAYER
 10
36.0632154893
 20
50.0219780001
 40
2.1090838068
100
AcDbArc
 50
52.830544928
 51
61.917010413
  0
ARC
  5
2C7
100
AcDbEntity
  8
0
100
AcDbCircle
 62
7
  6
BYLAYER
 10
30.4525208591
 20
18.6416330703
 40
2.1090452449
100
AcDbArc
 50
232.8304630261
 51
241.8551081972
  0
ARC
  5
2C8
100
AcDbEntity
  8
0
100
AcDbCircle
 62
7
  6
BYLAYER
 10
13.2200894628
 20
18.6416330703
 40
2.1090452449
100
AcDbArc
 50
232.8304630261
 51
241.8551081972
  0
ARC
  5
2C9
100
AcDbEntity
  8
0
100
AcDbCircle
 62
7
  6
BYLAYER
 10
24.6790943201
 20
53.2820369274
 40
1.25
100
AcDbArc
 50
349.0109970074
 51
359.988994003
  0
ARC
  5
2CA
100
AcDbEntity
  8
0
100
AcDbCircle
 62
7
  6
BYLAYER
 10
24.6790943201
 20
53.2817464106
 40
1.25
100
AcDbArc
 50
359.9976900932
 51
2.2942613256
  0
ARC
  5
2CB
100
AcDbEntity
  8
0
100
AcDbCircle
 62
7
  6
BYLAYER
 10
24.6790943201
 20
53.2817464106
 40
1.25
100
AcDbArc
 50
177.7057386744
 51
180.0023094383
  0
ARC
  5
2CC
100
AcDbEntity
  8
0
100
AcDbCircle
 62
7
  6
BYLAYER
 10
24.6790943201
 20
53.2820369298
 40
1.25
100
AcDbArc
 50
180.0110056367
 51
190.9890502705
  0
ARC
  5
2CD
100
AcDbEntity
  8
0
100
AcDbCircle
 62
7
  6
BYLAYER
 10
33.2790943201
 20
53.2820369274
 40
1.25
100
AcDbArc
 50
349.0109970074
 51
359.988994003
  0
ARC
  5
2CE
100
AcDbEntity
  8
0
100
AcDbCircle
 62
7
  6
BYLAYER
 10
33.2790943201
 20
53.2817464106
 40
1.25
100
AcDbArc
 50
359.9976900932
 51
2.2942613256
  0
ARC
  5
2CF
100
AcDbEntity
  8
0
100
AcDbCircle
 62
7
  6
BYLAYER
 10
33.2790943201
 20
53.2817464106
 40
1.25
100
AcDbArc
 50
177.7057386744
 51
180.0023094383
  0
ARC
  5
2D0
100
AcDbEntity
  8
0
100
AcDbCircle
 62
7
  6
BYLAYER
 10
33.2790943201
 20
53.2820369298
 40
1.25
100
AcDbArc
 50
180.0110056367
 51
190.9890502705
  0
ARC
  5
2D1
100
AcDbEntity
  8
0
100
AcDbCircle
 62
7
  6
BYLAYER
 10
24.6790943201
 20
53.2822757419
 40
1.25
100
AcDbArc
 50
190.9782361381
 51
283.9391622055
  0
ARC
  5
2D2
100
AcDbEntity
  8
0
100
AcDbCircle
 62
7
  6
BYLAYER
 10
16.0790943201
 20
53.2822757419
 40
1.25
100
AcDbArc
 50
190.9782361381
 51
349.0217638619
  0
ARC
  5
2D3
100
AcDbEntity
  8
0
100
AcDbCircle
 62
7
  6
BYLAYER
 10
33.2790943201
 20
53.2822757419
 40
1.25
100
AcDbArc
 50
190.9782361381
 51
349.0217638619
  0
ARC
  5
2D4
100
AcDbEntity
  8
0
100
AcDbCircle
 62
7
  6
BYLAYER
 10
16.0790943201
 20
53.2820369274
 40
1.25
100
AcDbArc
 50
349.0109970074
 51
359.988994003
  0
ARC
  5
2D5
100
AcDbEntity
  8
0
100
AcDbCircle
 62
7
  6
BYLAYER
 10
16.0790943201
 20
53.2817464106
 40
1.25
100
AcDbArc
 50
359.9976900932
 51
2.2942613256
  0
ARC
  5
2D6
100
AcDbEntity
  8
0
100
AcDbCircle
 62
7
  6
BYLAYER
 10
16.0790943201
 20
53.2817464106
 40
1.25
100
AcDbArc
 50
177.7057386744
 51
180.0023094383
  0
ARC
  5
2D7
100
AcDbEntity
  8
0
100
AcDbCircle
 62
7
  6
BYLAYER
 10
16.0790943201
 20
53.2820369298
 40
1.25
100
AcDbArc
 50
180.0110056367
 51
190.9890502705
  0
ARC
  5
2D8
100
AcDbEntity
  8
0
100
AcDbCircle
 62
7
  6
BYLAYER
 10
13.3040943201
 20
27.9878236767
 40
1.05
100
AcDbArc
 50
270.0
 51
90.0
  0
ARC
  5
2D9
100
AcDbEntity
  8
0
100
AcDbCircle
 62
7
  6
BYLAYER
 10
12.7040943201
 20
27.9878236767
 40
1.05
100
AcDbArc
 50
90.0
 51
270.0
  0
ARC
  5
2DA
100
AcDbEntity
  8
0
100
AcDbCircle
 62
7
  6
BYLAYER
 10
30.0040943201
 20
27.9878236767
 40
1.05
100
AcDbArc
 50
90.0000000874
 51
270.0
  0
ARC
  5
2DB
100
AcDbEntity
  8
0
100
AcDbCircle
 62
7
  6
BYLAYER
 10
30.6040943201
 20
27.9878236766
 40
1.0499999998
100
AcDbArc
 50
270.0
 51
90.0000000869
  0
ARC
  5
2DC
100
AcDbEntity
  8
0
100
AcDbCircle
 62
7
  6
BYLAYER
 10
21.6540943201
 20
42.4335335585
 40
1.0
100
AcDbArc
 50
143.1298753196
 51
36.8701246791
  0
SPLINE
  5
2DD
100
AcDbEntity
  8
0
100
AcDbSpline
 62
7
  6
BYLAYER
 70
0
 71
3
 72
8
 73
4
 74
0
 42
0.0000001
 43
0.0000001
 44
0.0000000001
 40
0.0
 40
0.0
 40
0.0
 40
0.0
 40
1.0
 40
1.0
 40
1.0
 40
1.0
 10
17.8287314263
 20
51.8827853874
 30
0.0
 10
17.4881515465
 20
51.7010763685
 30
0.0
 10
17.1997705915
 20
51.4242892724
 30
0.0
 10
17.0054394455
 20
51.0925933774
 30
0.0
  0
SPLINE
  5
2DE
100
AcDbEntity
  8
0
100
AcDbSpline
 62
7
  6
BYLAYER
 70
0
 71
3
 72
8
 73
4
 74
0
 42
0.0000001
 43
0.0000001
 44
0.0000000001
 40
0.0
 40
0.0
 40
0.0
 40
0.0
 40
1.0
 40
1.0
 40
1.0
 40
1.0
 10
23.6616766462
 20
51.0925826471
 30
0.0
 10
23.4738482041
 20
51.4212301874
 30
0.0
 10
23.1960210069
 20
51.6974251357
 30
0.0
 10
22.8668408466
 20
51.8827485555
 30
0.0
  0
SPLINE
  5
2DF
100
AcDbEntity
  8
0
100
AcDbSpline
 62
7
  6
BYLAYER
 70
0
 71
3
 72
9
 73
5
 74
0
 42
0.0000001
 43
0.0000001
 44
0.0000000001
 40
0.0
 40
0.0
 40
0.0
 40
0.0
 40
0.4999999991
 40
1.0
 40
1.0
 40
1.0
 40
1.0
 10
21.8390865586
 20
47.9630784609
 30
0.0
 10
22.2048459428
 20
47.9630784838
 30
0.0
 10
22.9358746831
 20
48.1533046632
 30
0.0
 10
23.4752240252
 20
48.6737133223
 30
0.0
 10
23.6616629253
 20
48.9826066481
 30
0.0
  0
SPLINE
  5
2E0
100
AcDbEntity
  8
0
100
AcDbSpline
 62
7
  6
BYLAYER
 70
0
 71
3
 72
9
 73
5
 74
0
 42
0.0000001
 43
0.0000001
 44
0.0000000001
 40
0.0
 40
0.0
 40
0.0
 40
0.0
 40
0.5000000009
 40
1.0
 40
1.0
 40
1.0
 40
1.0
 10
20.5631091683
 20
48.3826066472
 30
0.0
 10
20.7452936645
 20
48.2476673787
 30
0.0
 10
21.15444723
 20
48.0361227354
 30
0.0
 10
21.6108589719
 20
47.9630784459
 30
0.0
 10
21.8390865586
 20
47.9630784602
 30
0.0
  0
SPLINE
  5
2E1
100
AcDbEntity
  8
0
100
AcDbSpline
 62
7
  6
BYLAYER
 70
0
 71
3
 72
9
 73
5
 74
0
 42
0.0000001
 43
0.0000001
 44
0.0000000001
 40
0.0
 40
0.0
 40
0.0
 40
0.0
 40
0.4999857024
 40
1.0
 40
1.0
 40
1.0
 40
1.0
 10
18.8261847175
 20
47.9397661491
 30
0.0
 10
19.0556707257
 20
47.9397696951
 30
0.0
 10
19.5146091507
 20
48.0152055186
 30
0.0
 10
19.9250361332
 20
48.233503077
 30
0.0
 10
20.10729432
 20
48.3726225571
 30
0.0
  0
SPLINE
  5
2E2
100
AcDbEntity
  8
0
100
AcDbSpline
 62
7
  6
BYLAYER
 70
0
 71
3
 72
9
 73
5
 74
0
 42
0.0000001
 43
0.0000001
 44
0.0000000001
 40
0.0
 40
0.0
 40
0.0
 40
0.0
 40
0.4999615896
 40
1.0
 40
1.0
 40
1.0
 40
1.0
 10
17.0055582601
 20
48.9824169071
 30
0.0
 10
17.1901968967
 20
48.6669407302
 30
0.0
 10
17.7279074571
 20
48.1345884945
 30
0.0
 10
18.4599065593
 20
47.9397604103
 30
0.0
 10
18.8261847175
 20
47.9397661496
 30
0.0
  0
SPLINE
  5
2E3
100
AcDbEntity
  8
0
100
AcDbSpline
 62
7
  6
BYLAYER
 70
0
 71
3
 72
9
 73
5
 74
0
 42
0.0000001
 43
0.0000001
 44
0.0000000001
 40
0.0
 40
0.0
 40
0.0
 40
0.0
 40
0.4999374413
 40
1.0
 40
1.0
 40
1.0
 40
1.0
 10
32.2777914075
 20
19.6811859996
 30
0.0
 10
32.0931521789
 20
19.9966797932
 30
0.0
 10
31.5553971322
 20
20.529087646
 30
0.0
 10
30.8233181838
 20
20.7239101631
 30
0.0
 10
30.4569890419
 20
20.7238774493
 30
0.0
  0
SPLINE
  5
2E4
100
AcDbEntity
  8
0
100
AcDbSpline
 62
7
  6
BYLAYER
 70
0
 71
3
 72
9
 73
5
 74
0
 42
0.0000001
 43
0.0000001
 44
0.0000000001
 40
0.0
 40
0.0
 40
0.0
 40
0.0
 40
0.4999312678
 40
1.0
 40
1.0
 40
1.0
 40
1.0
 10
30.4569890419
 20
20.7238774496
 30
0.0
 10
30.2275533846
 20
20.7238572456
 30
0.0
 10
29.7686710303
 20
20.6484138609
 30
0.0
 10
29.3582894719
 20
20.4301403327
 30
0.0
 10
29.1760315795
 20
20.2910210891
 30
0.0
  0
SPLINE
  5
2E5
100
AcDbEntity
  8
0
100
AcDbSpline
 62
7
  6
BYLAYER
 70
0
 71
3
 72
9
 73
5
 74
0
 42
0.0000001
 43
0.0000001
 44
0.0000000001
 40
0.0
 40
0.0
 40
0.0
 40
0.0
 40
0.5000000001
 40
1.0
 40
1.0
 40
1.0
 40
1.0
 10
28.7202166777
 20
20.2810369607
 30
0.0
 10
28.5380321819
 20
20.4159762286
 30
0.0
 10
28.1288786169
 20
20.6275208713
 30
0.0
 10
27.6724668758
 20
20.7005651607
 30
0.0
 10
27.444239289
 20
20.7005651465
 30
0.0
  0
SPLINE
  5
2E6
100
AcDbEntity
  8
0
100
AcDbSpline
 62
7
  6
BYLAYER
 70
0
 71
3
 72
9
 73
5
 74
0
 42
0.0000001
 43
0.0000001
 44
0.0000000001
 40
0.0
 40
0.0
 40
0.0
 40
0.0
 40
0.4999374413
 40
1.0
 40
1.0
 40
1.0
 40
1.0
 10
15.0453600111
 20
19.6811859997
 30
0.0
 10
14.8607207826
 20
19.9966797933
 30
0.0
 10
14.3229657359
 20
20.5290876459
 30
0.0
 10
13.5908867878
 20
20.723910163
 30
0.0
 10
13.224557646
 20
20.7238774493
 30
0.0
  0
SPLINE
  5
2E7
100
AcDbEntity
  8
0
100
AcDbSpline
 62
7
  6
BYLAYER
 70
0
 71
3
 72
9
 73
5
 74
0
 42
0.0000001
 43
0.0000001
 44
0.0000000001
 40
0.0
 40
0.0
 40
0.0
 40
0.0
 40
0.4999312679
 40
1.0
 40
1.0
 40
1.0
 40
1.0
 10
13.2245576459
 20
20.7238774496
 30
0.0
 10
12.9951219885
 20
20.7238572456
 30
0.0
 10
12.5362396341
 20
20.6484138609
 30
0.0
 10
12.1258580756
 20
20.4301403327
 30
0.0
 10
11.9436001832
 20
20.2910210891
 30
0.0
  0
SPLINE
  5
2E8
100
AcDbEntity
  8
0
100
AcDbSpline
 62
7
  6
BYLAYER
 70
0
 71
3
 72
9
 73
5
 74
0
 42
0.0000001
 43
0.0000001
 44
0.0000000001
 40
0.0
 40
0.0
 40
0.0
 40
0.0
 40
0.5000000001
 40
1.0
 40
1.0
 40
1.0
 40
1.0
 10
11.4877852814
 20
20.2810369607
 30
0.0
 10
11.3056007856
 20
20.4159762286
 30
0.0
 10
10.8964472206
 20
20.6275208713
 30
0.0
 10
10.4400354795
 20
20.7005651607
 30
0.0
 10
10.2118078927
 20
20.7005651465
 30
0.0
  0
SPLINE
  5
2E9
100
AcDbEntity
  8
0
100
AcDbSpline
 62
7
  6
BYLAYER
 70
0
 71
3
 72
9
 73
5
 74
0
 42
0.0000001
 43
0.0000001
 44
0.0000000001
 40
0.0
 40
0.0
 40
0.0
 40
0.0
 40
0.4999999999
 40
1.0
 40
1.0
 40
1.0
 40
1.0
 10
10.2118078927
 20
20.7005651463
 30
0.0
 10
9.8460485083
 20
20.7005651234
 30
0.0
 10
9.1150197688
 20
20.5103389441
 30
0.0
 10
8.5756704272
 20
19.9899302859
 30
0.0
 10
8.3892315273
 20
19.6810369611
 30
0.0
  0
SPLINE
  5
2EA
100
AcDbEntity
  8
0
100
AcDbSpline
 62
7
  6
BYLAYER
 70
0
 71
3
 72
8
 73
4
 74
0
 42
0.0000001
 43
0.0000001
 44
0.0000000001
 40
0.0
 40
0.0
 40
0.0
 40
0.0
 40
1.0
 40
1.0
 40
1.0
 40
1.0
 10
8.3892315273
 20
17.5710369618
 30
0.0
 10
8.5766980777
 20
17.2430328358
 30
0.0
 10
8.8538057024
 20
16.967270992
 30
0.0
 10
9.1821524983
 20
16.7819666601
 30
0.0
  0
SPLINE
  5
2EB
100
AcDbEntity
  8
0
100
AcDbSpline
 62
7
  6
BYLAYER
 70
0
 71
3
 72
9
 73
5
 74
0
 42
0.0000001
 43
0.0000001
 44
0.0000000001
 40
0.0
 40
0.0
 40
0.0
 40
0.0
 40
0.4999615896
 40
1.0
 40
1.0
 40
1.0
 40
1.0
 10
34.2379896564
 20
48.9824169071
 30
0.0
 10
34.422628293
 20
48.6669407302
 30
0.0
 10
34.9603388533
 20
48.1345884945
 30
0.0
 10
35.6923379556
 20
47.9397604103
 30
0.0
 10
36.0586161137
 20
47.9397661496
 30
0.0
  0
SPLINE
  5
2EC
100
AcDbEntity
  8
0
100
AcDbSpline
 62
7
  6
BYLAYER
 70
0
 71
3
 72
9
 73
5
 74
0
 42
0.0000001
 43
0.0000001
 44
0.0000000001
 40
0.0
 40
0.0
 40
0.0
 40
0.0
 40
0.4999862487
 40
1.0
 40
1.0
 40
1.0
 40
1.0
 10
36.0586161138
 20
47.9397661491
 30
0.0
 10
36.2881023728
 20
47.9397696951
 30
0.0
 10
36.7470407976
 20
48.0152056025
 30
0.0
 10
37.1574677278
 20
48.2335032303
 30
0.0
 10
37.3397257163
 20
48.3726225571
 30
0.0
  0
SPLINE
  5
2ED
100
AcDbEntity
  8
0
100
AcDbSpline
 62
7
  6
BYLAYER
 70
0
 71
3
 72
9
 73
5
 74
0
 42
0.0000001
 43
0.0000001
 44
0.0000000001
 40
0.0
 40
0.0
 40
0.0
 40
0.0
 40
0.5000000009
 40
1.0
 40
1.0
 40
1.0
 40
1.0
 10
37.7955405645
 20
48.3826066472
 30
0.0
 10
37.9777250608
 20
48.2476673787
 30
0.0
 10
38.3868786263
 20
48.0361227354
 30
0.0
 10
38.8432903682
 20
47.9630784459
 30
0.0
 10
39.0715179549
 20
47.9630784602
 30
0.0
  0
SPLINE
  5
2EE
100
AcDbEntity
  8
0
100
AcDbSpline
 62
7
  6
BYLAYER
 70
0
 71
3
 72
9
 73
5
 74
0
 42
0.0000001
 43
0.0000001
 44
0.0000000001
 40
0.0
 40
0.0
 40
0.0
 40
0.0
 40
0.4999999991
 40
1.0
 40
1.0
 40
1.0
 40
1.0
 10
39.0715179549
 20
47.9630784609
 30
0.0
 10
39.4372773391
 20
47.9630784838
 30
0.0
 10
40.1683060794
 20
48.1533046632
 30
0.0
 10
40.7076554215
 20
48.6737133223
 30
0.0
 10
40.8940943216
 20
48.9826066481
 30
0.0
  0
SPLINE
  5
2EF
100
AcDbEntity
  8
0
100
AcDbSpline
 62
7
  6
BYLAYER
 70
0
 71
3
 72
8
 73
4
 74
0
 42
0.0000001
 43
0.0000001
 44
0.0000000001
 40
0.0
 40
0.0
 40
0.0
 40
0.0
 40
1.0
 40
1.0
 40
1.0
 40
1.0
 10
40.8941080425
 20
51.0925826471
 30
0.0
 10
40.7062796002
 20
51.4212301877
 30
0.0
 10
40.4284524027
 20
51.6974251362
 30
0.0
 10
40.099272242
 20
51.8827485561
 30
0.0
  0
SPLINE
  5
2F0
100
AcDbEntity
  8
0
100
AcDbSpline
 62
7
  6
BYLAYER
 70
0
 71
3
 72
8
 73
4
 74
0
 42
0.0000001
 43
0.0000001
 44
0.0000000001
 40
0.0
 40
0.0
 40
0.0
 40
0.0
 40
1.0
 40
1.0
 40
1.0
 40
1.0
 10
35.0611628226
 20
51.8827853874
 30
0.0
 10
34.7205829428
 20
51.7010763685
 30
0.0
 10
34.4322019878
 20
51.4242892724
 30
0.0
 10
34.2378708418
 20
51.0925933774
 30
0.0
  0
ELLIPSE
  5
2F1
100
AcDbEntity
  8
0
100
AcDbEllipse
 62
7
  6
BYLAYER
 10
13.2247420995
 20
50.0426066604
 30
0.0
 11
2.1059488668
 21
-0.0
 31
0.0
 40
0.9921330564
 41
2.0642184023
 42
2.223420187
  0
ELLIPSE
  5
2F2
100
AcDbEntity
  8
0
100
AcDbEllipse
 62
7
  6
BYLAYER
 10
10.2118080278
 20
50.0426066604
 30
0.0
 11
0.0
 21
2.1097032863
 31
0.0
 40
0.9960255397
 41
-0.6574127635
 42
-0.5110537888
  0
ELLIPSE
  5
2F3
100
AcDbEntity
  8
0
100
AcDbEllipse
 62
7
  6
BYLAYER
 10
10.2118080278
 20
50.0426066434
 30
0.0
 11
2.1184526716
 21
0.0
 31
0.0
 40
0.9816259816
 41
-2.6067205487
 42
-0.9243974705
  0
ELLIPSE
  5
2F4
100
AcDbEntity
  8
0
100
AcDbEllipse
 62
7
  6
BYLAYER
 10
10.2118080278
 20
50.0426066591
 30
0.0
 11
-0.0
 21
2.1097032863
 31
0.0
 40
0.9960255397
 41
0.5110455114
 42
1.0498509632
  0
ELLIPSE
  5
2F5
100
AcDbEntity
  8
0
100
AcDbEllipse
 62
7
  6
BYLAYER
 10
13.2247420995
 20
50.0426066591
 30
0.0
 11
2.1059488668
 21
0.0
 31
0.0
 40
0.9921330564
 41
0.5265354409
 42
1.0773665395
  0
ELLIPSE
  5
2F6
100
AcDbEntity
  8
0
100
AcDbEllipse
 62
7
  6
BYLAYER
 10
13.2247420995
 20
50.0426066424
 30
0.0
 11
2.1081347042
 21
-0.0
 31
0.0
 40
0.9974886758
 41
-2.2239644239
 42
-0.5283346091
  0
ELLIPSE
  5
2F7
100
AcDbEntity
  8
0
100
AcDbEllipse
 62
7
  6
BYLAYER
 10
36.0585837481
 20
18.6210369632
 30
0.0
 11
2.1081347042
 21
-0.0
 31
0.0
 40
0.9974886758
 41
7.2008135273
 42
8.896443317
  0
ELLIPSE
  5
2F8
100
AcDbEntity
  8
0
100
AcDbEllipse
 62
7
  6
BYLAYER
 10
36.0585837481
 20
18.6210369599
 30
0.0
 11
2.1059488668
 21
0.0
 31
0.0
 40
0.9921330564
 41
-2.6150572143
 42
-2.0653125401
  0
ELLIPSE
  5
2F9
100
AcDbEntity
  8
0
100
AcDbEllipse
 62
7
  6
BYLAYER
 10
39.0715178198
 20
18.6210369599
 30
0.0
 11
0.0
 21
2.1097032863
 31
0.0
 40
0.9960255397
 41
-2.6294961319
 42
-2.0917416888
  0
ELLIPSE
  5
2FA
100
AcDbEntity
  8
0
100
AcDbEllipse
 62
7
  6
BYLAYER
 10
39.0715178198
 20
18.6210369634
 30
0.0
 11
2.1184526716
 21
0.0
 31
0.0
 40
0.9816259816
 41
6.8180574094
 42
8.5003804909
  0
ELLIPSE
  5
2FB
100
AcDbEntity
  8
0
100
AcDbEllipse
 62
7
  6
BYLAYER
 10
39.0715178198
 20
18.6210369597
 30
0.0
 11
-0.0
 21
2.1097032863
 31
0.0
 40
0.9960255397
 41
-3.7990054173
 42
-3.6536874443
  0
ELLIPSE
  5
2FC
100
AcDbEntity
  8
0
100
AcDbEllipse
 62
7
  6
BYLAYER
 10
36.0585837481
 20
18.6210369597
 30
0.0
 11
2.1059488668
 21
-0.0
 31
0.0
 40
0.9921330564
 41
-1.0762784999
 42
-0.9181724664
  0
ELLIPSE
  5
2FD
100
AcDbEntity
  8
0
100
AcDbEllipse
 62
7
  6
BYLAYER
 10
21.8390864235
 20
50.0426066519
 30
0.0
 11
0.0
 21
2.1097032965
 31
0.0
 40
0.9960255349
 41
0.5110455138
 42
0.6574127637
  0
ELLIPSE
  5
2FE
100
AcDbEntity
  8
0
100
AcDbEllipse
 62
7
  6
BYLAYER
 10
27.4442394241
 20
18.6210369614
 30
0.0
 11
0.0
 21
2.1097032885
 31
0.0
 40
0.9960255387
 41
-2.6294961319
 42
-2.4841798899
  0
ELLIPSE
  5
2FF
100
AcDbEntity
  8
0
100
AcDbEllipse
 62
7
  6
BYLAYER
 10
30.4571734958
 20
18.6210369614
 30
0.0
 11
2.1059488668
 21
-0.0
 31
0.0
 40
0.9921330574
 41
-1.0762784998
 42
-0.5265354393
  0
ELLIPSE
  5
300
100
AcDbEntity
  8
0
100
AcDbEllipse
 62
7
  6
BYLAYER
 10
30.4571734958
 20
50.0426066604
 30
0.0
 11
2.1059488668
 21
0.0
 31
0.0
 40
0.9921330564
 41
2.0642184023
 42
2.223420187
  0
ELLIPSE
  5
301
100
AcDbEntity
  8
0
100
AcDbEllipse
 62
7
  6
BYLAYER
 10
27.4442394241
 20
50.0426066604
 30
0.0
 11
0.0
 21
2.1097032863
 31
0.0
 40
0.9960255397
 41
-0.6574127635
 42
-0.5110537888
  0
ELLIPSE
  5
302
100
AcDbEntity
  8
0
100
AcDbEllipse
 62
7
  6
BYLAYER
 10
27.4442394241
 20
50.0426066434
 30
0.0
 11
2.1184526716
 21
0.0
 31
0.0
 40
0.9816259816
 41
-1.7995851713
 42
-0.9243974706
  0
ELLIPSE
  5
303
100
AcDbEntity
  8
0
100
AcDbEllipse
 62
7
  6
BYLAYER
 10
30.4571734958
 20
50.0426066591
 30
0.0
 11
2.1059488668
 21
-0.0
 31
0.0
 40
0.9921330564
 41
0.5265354409
 42
1.0773665395
  0
ELLIPSE
  5
304
100
AcDbEntity
  8
0
100
AcDbEllipse
 62
7
  6
BYLAYER
 10
30.4571734958
 20
50.0426066424
 30
0.0
 11
2.1081347042
 21
0.0
 31
0.0
 40
0.9974886758
 41
-2.2239644239
 42
-0.5283346091
  0
ELLIPSE
  5
305
100
AcDbEntity
  8
0
100
AcDbEllipse
 62
7
  6
BYLAYER
 10
18.8261523518
 20
18.6210369632
 30
0.0
 11
2.1081347042
 21
0.0
 31
0.0
 40
0.9974886758
 41
7.2008135273
 42
8.896443317
  0
ELLIPSE
  5
306
100
AcDbEntity
  8
0
100
AcDbEllipse
 62
7
  6
BYLAYER
 10
18.8261523518
 20
18.6210369599
 30
0.0
 11
2.1059488668
 21
-0.0
 31
0.0
 40
0.9921330564
 41
-2.6150572143
 42
-2.0653125401
  0
ELLIPSE
  5
307
100
AcDbEntity
  8
0
100
AcDbEllipse
 62
7
  6
BYLAYER
 10
21.8390864235
 20
18.6210369599
 30
0.0
 11
-0.0
 21
2.1097032863
 31
0.0
 40
0.9960255397
 41
-2.6294961319
 42
-2.0917416888
  0
ELLIPSE
  5
308
100
AcDbEntity
  8
0
100
AcDbEllipse
 62
7
  6
BYLAYER
 10
21.8390864235
 20
18.6210369634
 30
0.0
 11
2.1184526716
 21
0.0
 31
0.0
 40
0.9816259816
 41
6.8180574094
 42
8.5003804909
  0
ELLIPSE
  5
309
100
AcDbEntity
  8
0
100
AcDbEllipse
 62
7
  6
BYLAYER
 10
21.8390864235
 20
18.6210369597
 30
0.0
 11
0.0
 21
2.1097032863
 31
0.0
 40
0.9960255397
 41
-3.7990054173
 42
-3.6536874443
  0
ELLIPSE
  5
30A
100
AcDbEntity
  8
0
100
AcDbEllipse
 62
7
  6
BYLAYER
 10
18.8261523518
 20
18.6210369597
 30
0.0
 11
2.1059488668
 21
-0.0
 31
0.0
 40
0.9921330564
 41
-1.0762784999
 42
-0.9181724664
  0
ELLIPSE
  5
30B
100
AcDbEntity
  8
0
100
AcDbEllipse
 62
7
  6
BYLAYER
 10
10.2118080278
 20
18.6210369614
 30
0.0
 11
0.0
 21
2.1097032885
 31
0.0
 40
0.9960255387
 41
-2.6294961319
 42
-2.4841798899
  0
ELLIPSE
  5
30C
100
AcDbEntity
  8
0
100
AcDbEllipse
 62
7
  6
BYLAYER
 10
13.2247420995
 20
18.6210369614
 30
0.0
 11
2.1059488668
 21
0.0
 31
0.0
 40
0.9921330574
 41
-1.0762784998
 42
-0.5265354393
  0
ELLIPSE
  5
30D
100
AcDbEntity
  8
0
100
AcDbEllipse
 62
7
  6
BYLAYER
 10
39.0715178198
 20
50.0426066519
 30
0.0
 11
-0.0
 21
2.1097032965
 31
0.0
 40
0.9960255349
 41
0.5110455138
 42
0.6574127637
  0
ENDSEC
  0
SECTION
  2
OBJECTS
  0
DICTIONARY
  5
C
100
AcDbDictionary
280
0
281
1
  3
ACAD_GROUP
350
D
  3
ACAD_MLINESTYLE
350
17
  3
ACAD_LAYOUT
350
1A
  3
ACAD_PLOTSETTINGS
350
19
  3
ACAD_PLOTSTYLENAME
350
E
  0
DICTIONARY
  5
D
102
{ACAD_REACTORS
330
C
102
}
100
AcDbDictionary
280
0
281
1
  0
ACDBDICTIONARYWDFLT
  5
E
102
{ACAD_REACTORS
330
C
102
}
100
AcDbDictionary
281
1
  3
Normal
350
F
100
AcDbDictionaryWithDefault
340
F
  0
DICTIONARY
  5
17
102
{ACAD_REACTORS
330
C
102
}
100
AcDbDictionary
280
0
281
1
  3
Standard
350
18
  0
DICTIONARY
  5
19
102
{ACAD_REACTORS
330
C
102
}
100
AcDbDictionary
281
1
  0
DICTIONARY
  5
1A
102
{ACAD_REACTORS
330
C
102
}
100
AcDbDictionary
281
1
  3
Model
350
30E
  3
Layout1
350
30F
  0
ACDBPLACEHOLDER
  5
F
102
{ACAD_REACTORS
330
E
102
}
  0
MLINESTYLE
  5
18
102
{ACAD_REACTORS
330
17
102
}
100
AcDbMlineStyle
  2
STANDARD
 70
0
  3

 62
256
 51
90.0
 52
90.0
 71
2
 49
0.5
 62
256
  6
BYLAYER
 49
-0.5
 62
256
  6
BYLAYER
  0
LAYOUT
  5
30E
102
{ACAD_REACTORS
330
1A
102
}
100
AcDbPlotSettings
  1

  2
none_device
  4

  6

 40
0.0
 41
0.0
 42
0.0
 43
0.0
 44
210.0
 45
297.0
 46
0.0
 47
0.0
 48
0.0
 49
0.0
140
0.0
141
0.0
142
1.0
143
1.0
 70
1024
 72
1
 73
0
 74
0
  7

 75
0
147
1.0
148
0.0
149
0.0
100
AcDbLayout
  1
Model
 70
0
 71
0
 10
0.0
 20
0.0
 11
210.0
 21
297.0
 12
0.0
 22
0.0
 32
0.0
 14
0.0
 24
0.0
 34
0.0
 15
0.0
 25
0.0
 35
0.0
146
0.0
 13
0.0
 23
0.0
 33
0.0
 16
1.0
 26
0.0
 36
0.0
 17
0.0
 27
1.0
 37
0.0
 76
0
330
210
345
0
346
0
  0
LAYOUT
  5
30F
102
{ACAD_REACTORS
330
1A
102
}
100
AcDbPlotSettings
  1

  2
none_device
  4

  6

 40
0.0
 41
0.0
 42
0.0
 43
0.0
 44
210.0
 45
297.0
 46
0.0
 47
0.0
 48
0.0
 49
0.0
140
0.0
141
0.0
142
1.0
143
1.0
 70
0
 72
1
 73
0
 74
0
  7

 75
0
147
1.0
148
0.0
149
0.0
100
AcDbLayout
  1
Layout1
 70
0
 71
1
 10
0.0
 20
0.0
 11
210.0
 21
297.0
 12
0.0
 22
0.0
 32
0.0
 14
0.0
 24
0.0
 34
0.0
 15
0.0
 25
0.0
 35
0.0
146
0.0
 13
0.0
 23
0.0
 33
0.0
 16
1.0
 26
0.0
 36
0.0
 17
0.0
 27
1.0
 37
0.0
 76
0
330
211
345
0
346
0
  0
ENDSEC
  0
EOF
