999
DXF file: C:\Users\sesa63760\Dev\_Creo\CAD\MCADID0000491_3D-CAD\drw0001_6.dxf
999
Pro/ENGINEER 2019471 by Parametric Technology Corporation
  0
SECTION
  2
HEADER
  9
$ACADVER
  1
AC1024
  9
$DWGCODEPAGE
  3
ANSI_1252
  9
$EXTMAX
 10
223.6168132942
 20
316.2580645161
 30
0.0
  9
$EXTMIN
 10
0.0
 20
0.0
 30
0.0
  9
$LIMMIN
 10
0.0
 20
0.0
  9
$LIMMAX
 10
223.6168132942
 20
316.2580645161
  9
$VIEWCTR
 10
111.8084066471
 20
158.1290322581
  9
$VIEWSIZE
 40
316.2580645161
  9
$CLAYER
  8
0
  9
$LTSCALE
 40
20.6153405018
  9
$CELTYPE
  6
BYLAYER
  9
$DIMSCALE
 40
1.0
  9
$DIMASZ
 40
2.6621049202
  9
$DIMEXO
 40
1.0
  9
$DIMDLI
 40
14.2433261649
  9
$DIMEXE
 40
1.0
  9
$DIMCEN
 40
3.3734193548
  9
$DIMLFAC
 40
1.0
  9
$DIMBLK
  1
_FILLED
  9
$DIMALT
 70
0
  9
$DIMALTF
 40
0.0393700787
  9
$DIMTXT
 40
3.7269468882
  9
$DIMTOL
 70
1
  9
$DIMLIM
 70
0
  9
$DIMTFAC
 40
1.0
  9
$DIMTP
 40
0.01
  9
$DIMTM
 40
0.01
  9
$DIMGAP
 40
0.625
  9
$DIMDSEP
 70
46
  9
$AUNITS
 70
0
  9
$PDMODE
 70
3
  9
$PDSIZE
 40
0.3125
  9
$HANDSEED
  5
2AD
  9
$TILEMODE
 70
1
  9
$MEASUREMENT
 70
1
  9
$INSUNITS
 70
4
  0
ENDSEC
  0
SECTION
  2
CLASSES
  0
CLASS
  1
ACDBDICTIONARYWDFLT
  2
AcDbDictionaryWithDefault
  3
AutoCAD 2000
 90
0
 91
1
280
0
281
0
  0
CLASS
  1
ACDBPLACEHOLDER
  2
AcDbPlaceHolder
  3
AutoCAD 2000
 90
0
 91
1
280
0
281
0
  0
CLASS
  1
LAYOUT
  2
AcDbLayout
  3
AutoCAD 2000
 90
0
 91
0
280
0
281
0
  0
ENDSEC
  0
SECTION
  2
TABLES
  0
TABLE
  2
VPORT
  5
8
100
AcDbSymbolTable
 70
2
  0
VPORT
  5
1F4
100
AcDbSymbolTableRecord
100
AcDbViewportTableRecord
  2
*ACTIVE
 70
0
 10
0.0
 20
0.0
 11
1.0
 21
1.0
 12
111.8084066471
 22
158.1290322581
 13
0.0
 23
0.0
 14
1.0
 24
1.0
 15
0.0
 25
0.0
 16
0.0
 26
0.0
 36
1.0
 17
0.0
 27
0.0
 37
0.0
 40
316.2580645161
 41
0.7070707071
 42
50.0
 43
0.0
 44
0.0
 50
0.0
 51
0.0
 71
0
 72
100
 73
1
 74
1
 75
0
 76
0
 77
0
 78
0
  0
ENDTAB
  0
TABLE
  2
LTYPE
  5
5
100
AcDbSymbolTable
 70
6
  0
LTYPE
  5
14
100
AcDbSymbolTableRecord
100
AcDbLinetypeTableRecord
  2
BYBLOCK
 70
0
  3

 72
65
 73
0
 40
0.0
  0
LTYPE
  5
15
100
AcDbSymbolTableRecord
100
AcDbLinetypeTableRecord
  2
BYLAYER
 70
0
  3

 72
65
 73
0
 40
0.0
  0
LTYPE
  5
16
100
AcDbSymbolTableRecord
100
AcDbLinetypeTableRecord
  2
CONTINUOUS
 70
64
  3
Solid line
 72
65
 73
0
 40
0.0
  0
LTYPE
  5
1F5
100
AcDbSymbolTableRecord
100
AcDbLinetypeTableRecord
  2
CENTER
 70
64
  3
____ _ ____ _ ____ _ ____ _ ____ _ ____ _ ____
 72
65
 73
4
 40
0.6
 49
0.375
 74
0
 49
-0.075
 74
0
 49
0.075
 74
0
 49
-0.075
 74
0
  0
LTYPE
  5
1F6
100
AcDbSymbolTableRecord
100
AcDbLinetypeTableRecord
  2
HIDDEN
 70
64
  3
- - - - - - - - - - - - - - - - - - - -
 72
65
 73
2
 40
0.2
 49
0.1
 74
0
 49
-0.1
 74
0
  0
LTYPE
  5
1F7
100
AcDbSymbolTableRecord
100
AcDbLinetypeTableRecord
  2
PHANTOM
 70
64
  3
_____ _ _ _____ _ _ _____ _ _ _____
 72
65
 73
6
 40
0.8
 49
0.45
 74
0
 49
-0.05
 74
0
 49
0.1
 74
0
 49
-0.05
 74
0
 49
0.1
 74
0
 49
-0.05
 74
0
  0
LTYPE
  5
1F8
100
AcDbSymbolTableRecord
100
AcDbLinetypeTableRecord
  2
DOT
 70
64
  3
. . . . . . . . . . . . . . . . . . . .
 72
65
 73
2
 40
0.2
 49
0.1
 74
0
 49
-0.1
 74
0
  0
LTYPE
  5
1F9
100
AcDbSymbolTableRecord
100
AcDbLinetypeTableRecord
  2
DASHED
 70
64
  3
- - - - - - - - - - - - - - - - - - - -
 72
65
 73
2
 40
0.2
 49
0.1
 74
0
 49
-0.1
 74
0
  0
ENDTAB
  0
TABLE
  2
LAYER
  5
2
100
AcDbSymbolTable
 70
36
  0
LAYER
  5
10
100
AcDbSymbolTableRecord
100
AcDbLayerTableRecord
  2
0
 70
0
 62
7
  6
CONTINUOUS
370
-3
390
F
  0
LAYER
  5
1FA
100
AcDbSymbolTableRecord
100
AcDbLayerTableRecord
  2
DEFAULT_1
 70
0
 62
7
  6
CENTER
370
-3
390
F
  0
LAYER
  5
1FB
100
AcDbSymbolTableRecord
100
AcDbLayerTableRecord
  2
DEFAULT_2
 70
0
 62
8
  6
HIDDEN
370
-3
390
F
  0
LAYER
  5
1FC
100
AcDbSymbolTableRecord
100
AcDbLayerTableRecord
  2
DEFAULT_3
 70
0
 62
7
  6
PHANTOM
370
-3
390
F
  0
LAYER
  5
1FD
100
AcDbSymbolTableRecord
100
AcDbLayerTableRecord
  2
00_COMPONENTS
 70
0
 62
7
  6
CONTINUOUS
370
-3
390
F
  0
LAYER
  5
1FE
100
AcDbSymbolTableRecord
100
AcDbLayerTableRecord
  2
01_1_DEFAULT_DATUMS
 70
0
 62
7
  6
CONTINUOUS
370
-3
390
F
  0
LAYER
  5
1FF
100
AcDbSymbolTableRecord
100
AcDbLayerTableRecord
  2
01_PLANES
 70
0
 62
7
  6
CONTINUOUS
370
-3
390
F
  0
LAYER
  5
200
100
AcDbSymbolTableRecord
100
AcDbLayerTableRecord
  2
02_COORD_SYS
 70
0
 62
7
  6
CONTINUOUS
370
-3
390
F
  0
LAYER
  5
201
100
AcDbSymbolTableRecord
100
AcDbLayerTableRecord
  2
03_AXES
 70
0
 62
7
  6
CONTINUOUS
370
-3
390
F
  0
LAYER
  5
202
100
AcDbSymbolTableRecord
100
AcDbLayerTableRecord
  2
04_POINTS
 70
0
 62
7
  6
CONTINUOUS
370
-3
390
F
  0
LAYER
  5
203
100
AcDbSymbolTableRecord
100
AcDbLayerTableRecord
  2
05_CURVES
 70
0
 62
7
  6
CONTINUOUS
370
-3
390
F
  0
LAYER
  5
204
100
AcDbSymbolTableRecord
100
AcDbLayerTableRecord
  2
06_SURFS
 70
0
 62
7
  6
CONTINUOUS
370
-3
390
F
  0
LAYER
  5
205
100
AcDbSymbolTableRecord
100
AcDbLayerTableRecord
  2
07_COSMETICS
 70
0
 62
7
  6
CONTINUOUS
370
-3
390
F
  0
LAYER
  5
206
100
AcDbSymbolTableRecord
100
AcDbLayerTableRecord
  2
10_NOTES
 70
0
 62
7
  6
CONTINUOUS
370
-3
390
F
  0
LAYER
  5
207
100
AcDbSymbolTableRecord
100
AcDbLayerTableRecord
  2
11_NOTES_PUB
 70
0
 62
7
  6
CONTINUOUS
370
-3
390
F
  0
LAYER
  5
208
100
AcDbSymbolTableRecord
100
AcDbLayerTableRecord
  2
13_REF_GTOL
 70
0
 62
7
  6
CONTINUOUS
370
-3
390
F
  0
LAYER
  5
209
100
AcDbSymbolTableRecord
100
AcDbLayerTableRecord
  2
16_MISC
 70
0
 62
7
  6
CONTINUOUS
370
-3
390
F
  0
LAYER
  5
20A
100
AcDbSymbolTableRecord
100
AcDbLayerTableRecord
  2
17_NO_PRINT
 70
0
 62
7
  6
CONTINUOUS
370
-3
390
F
  0
LAYER
  5
20B
100
AcDbSymbolTableRecord
100
AcDbLayerTableRecord
  2
18_DATUM_CAMS_JOINTS
 70
0
 62
7
  6
CONTINUOUS
370
-3
390
F
  0
LAYER
  5
20C
100
AcDbSymbolTableRecord
100
AcDbLayerTableRecord
  2
19_DATUM_FUNCTIONAL
 70
0
 62
7
  6
CONTINUOUS
370
-3
390
F
  0
LAYER
  5
20D
100
AcDbSymbolTableRecord
100
AcDbLayerTableRecord
  2
20_DATUM_KINEMATIC_SCHEME
 70
0
 62
7
  6
CONTINUOUS
370
-3
390
F
  0
ENDTAB
  0
TABLE
  2
STYLE
  5
3
100
AcDbSymbolTable
 70
1
  0
STYLE
  5
11
100
AcDbSymbolTableRecord
100
AcDbTextStyleTableRecord
  2
STANDARD
 70
0
 40
0.0
 41
0.8
 50
0.0
 71
0
 42
0.2
  3
txt
  4

  0
STYLE
  5
20E
100
AcDbSymbolTableRecord
100
AcDbTextStyleTableRecord
  2
TEXTSTYLE_1
 70
0
 40
0.0
 41
0.8
 50
0.0
 71
0
 42
0.2
  3
gdt
  4

  0
ENDTAB
  0
TABLE
  2
VIEW
  5
6
100
AcDbSymbolTable
 70
0
  0
ENDTAB
  0
TABLE
  2
UCS
  5
7
100
AcDbSymbolTable
 70
0
  0
ENDTAB
  0
TABLE
  2
APPID
  5
9
100
AcDbSymbolTable
 70
1
  0
APPID
  5
20F
100
AcDbSymbolTableRecord
100
AcDbRegAppTableRecord
  2
ACAD
 70
0
  0
ENDTAB
  0
TABLE
  2
BLOCK_RECORD
  5
1
100
AcDbSymbolTable
 70
0
  0
BLOCK_RECORD
  5
210
100
AcDbSymbolTableRecord
100
AcDbBlockTableRecord
  2
*Model_Space
  0
BLOCK_RECORD
  5
211
100
AcDbSymbolTableRecord
100
AcDbBlockTableRecord
  2
*Paper_Space
  0
BLOCK_RECORD
  5
212
100
AcDbSymbolTableRecord
100
AcDbBlockTableRecord
  2
_FILLED
  0
ENDTAB
  0
TABLE
  2
DIMSTYLE
  5
A
100
AcDbSymbolTable
 70
1
100
AcDbDimStyleTable
 71
0
  0
DIMSTYLE
105
213
100
AcDbSymbolTableRecord
100
AcDbDimStyleTableRecord
  2
STANDARD
 70
0
  3

  4

 40
1.0
 41
2.6621049202
 42
1.0
 43
0.38
 44
1.0
 45
0.0
 46
0.0
 47
0.01
 48
0.01
140
3.7269468882
141
0.09
142
0.0
143
25.4
144
1.0
145
0.0
146
1.0
147
0.625
 71
1
 72
0
 73
0
 74
0
 75
0
 76
0
 77
1
 78
8
 79
2
170
0
171
1
172
0
173
0
174
0
175
0
176
0
177
0
178
0
270
2
179
2
271
2
272
2
273
2
274
2
275
0
280
0
281
0
282
0
283
1
284
8
285
0
286
0
287
3
288
0
340
11
278
46
341
212
342
212
343
212
344
212
  0
ENDTAB
  0
ENDSEC
  0
SECTION
  2
BLOCKS
  0
BLOCK
  5
20
100
AcDbEntity
  8
0
100
AcDbBlockBegin
  2
*Model_Space
 70
0
 10
0.0
 20
0.0
 30
0.0
  3
*Model_Space
  1

  0
ENDBLK
  5
21
100
AcDbEntity
  8
0
100
AcDbBlockEnd
  0
BLOCK
  5
1C
100
AcDbEntity
  8
0
100
AcDbBlockBegin
  2
*Paper_Space
 70
0
 10
0.0
 20
0.0
 30
0.0
  3
*Paper_Space
  1

  0
ENDBLK
  5
1D
100
AcDbEntity
  8
0
100
AcDbBlockEnd
  0
BLOCK
  5
214
100
AcDbEntity
  8
0
100
AcDbBlockBegin
  2
_FILLED
 70
64
 10
0.0
 20
0.0
  3
_FILLED
  1

  0
SOLID
  5
215
100
AcDbEntity
  8
0
  6
BYBLOCK
 62
0
100
AcDbTrace
 10
0.0
 20
0.0
 11
-1.0
 21
0.25
 12
-1.0
 22
-0.25
 13
-1.0
 23
-0.25
  0
ENDBLK
  5
216
100
AcDbEntity
  8
0
  6
BYBLOCK
 62
0
100
AcDbBlockEnd
  0
ENDSEC
  0
SECTION
  2
ENTITIES
  0
LINE
  5
217
100
AcDbEntity
  8
0
100
AcDbLine
 62
7
  6
CONTINUOUS
 10
80.7203058149
 20
26.6992335989
 11
87.2377369634
 21
26.1290322581
  0
LINE
  5
218
100
AcDbEntity
  8
0
100
AcDbLine
 62
7
  6
CONTINUOUS
 10
120.5751327631
 20
34.4796797046
 11
121.0257808443
 21
34.6052620473
  0
LINE
  5
219
100
AcDbEntity
  8
0
100
AcDbLine
 62
7
  6
CONTINUOUS
 10
79.7496338322
 20
28.4587091911
 11
80.4338905181
 21
28.6063329963
  0
LWPOLYLINE
  5
21A
100
AcDbEntity
  8
0
100
AcDbPolyline
 62
7
  6
CONTINUOUS
 90
3
 70
0
 10
120.5726668583
 20
34.4796014954
 10
120.8173190258
 20
34.5197943756
 10
121.1906892514
 20
34.7242698906
  0
LINE
  5
21B
100
AcDbEntity
  8
0
100
AcDbLine
 62
7
  6
CONTINUOUS
 10
110.5377369634
 20
32.5290322581
 11
112.5377369634
 21
32.598873797
  0
LINE
  5
21C
100
AcDbEntity
  8
0
100
AcDbLine
 62
7
  6
CONTINUOUS
 10
120.5687900148
 20
34.4794586725
 11
110.5377369634
 21
34.1291665811
  0
LINE
  5
21D
100
AcDbEntity
  8
0
100
AcDbLine
 62
7
  6
CONTINUOUS
 10
110.5377369634
 20
37.6270344757
 11
120.5726364601
 21
37.9774608879
  0
LINE
  5
21E
100
AcDbEntity
  8
0
100
AcDbLine
 62
7
  6
CONTINUOUS
 10
110.5377369634
 20
33.8290322581
 11
87.2377369634
 21
33.3290322581
  0
LINE
  5
21F
100
AcDbEntity
  8
0
100
AcDbLine
 62
7
  6
CONTINUOUS
 10
87.2377369634
 20
36.828226664
 11
110.5377369634
 21
37.328226664
  0
LINE
  5
220
100
AcDbEntity
  8
0
100
AcDbLine
 62
7
  6
CONTINUOUS
 10
120.5726364601
 20
37.9767495964
 11
121.5377369634
 21
37.9773265654
  0
LINE
  5
221
100
AcDbEntity
  8
0
100
AcDbLine
 62
7
  6
CONTINUOUS
 10
96.1377369634
 20
33.3790322581
 11
106.1377369634
 21
33.3790322581
  0
LINE
  5
222
100
AcDbEntity
  8
0
100
AcDbLine
 62
7
  6
CONTINUOUS
 10
106.1377369634
 20
33.4790322581
 11
110.5377369634
 21
33.4790322581
  0
LINE
  5
223
100
AcDbEntity
  8
0
100
AcDbLine
 62
7
  6
CONTINUOUS
 10
114.0866188046
 20
33.4790322581
 11
116.6377369634
 21
33.4790322581
  0
LINE
  5
224
100
AcDbEntity
  8
0
100
AcDbLine
 62
7
  6
CONTINUOUS
 10
87.2377369634
 20
33.7790322581
 11
80.5377369634
 21
33.7790322581
  0
LINE
  5
225
100
AcDbEntity
  8
0
100
AcDbLine
 62
7
  6
CONTINUOUS
 10
80.4338905181
 20
34.4587091912
 11
79.5496338322
 21
34.4587091912
  0
LINE
  5
226
100
AcDbEntity
  8
0
100
AcDbLine
 62
7
  6
CONTINUOUS
 10
96.0679917405
 20
54.5290322581
 11
106.1377369634
 21
54.5290322581
  0
LINE
  5
227
100
AcDbEntity
  8
0
100
AcDbLine
 62
7
  6
CONTINUOUS
 10
102.6377369634
 20
58.5290322581
 11
96.0679917405
 21
58.5290322581
  0
LINE
  5
228
100
AcDbEntity
  8
0
100
AcDbLine
 62
7
  6
CONTINUOUS
 10
100.2377369634
 20
283.1290322581
 11
99.9877369634
 21
282.8790322581
  0
LINE
  5
229
100
AcDbEntity
  8
0
100
AcDbLine
 62
7
  6
CONTINUOUS
 10
122.4815545618
 20
61.5304750788
 11
121.5338905181
 21
61.5304750788
  0
LINE
  5
22A
100
AcDbEntity
  8
0
100
AcDbLine
 62
7
  6
CONTINUOUS
 10
102.6377369634
 20
62.1290322581
 11
106.1377369634
 21
62.1290322581
  0
LINE
  5
22B
100
AcDbEntity
  8
0
100
AcDbLine
 62
7
  6
CONTINUOUS
 10
123.9377369635
 20
66.3290322581
 11
121.5338905181
 21
66.3290322581
  0
LINE
  5
22C
100
AcDbEntity
  8
0
100
AcDbLine
 62
7
  6
CONTINUOUS
 10
123.9377369635
 20
71.9290322581
 11
121.5338905181
 21
71.9290322581
  0
LINE
  5
22D
100
AcDbEntity
  8
0
100
AcDbLine
 62
7
  6
CONTINUOUS
 10
147.5338905181
 20
74.6953335081
 11
146.5862264743
 21
74.6953335081
  0
LINE
  5
22E
100
AcDbEntity
  8
0
100
AcDbLine
 62
7
  6
CONTINUOUS
 10
96.0679917405
 20
282.7395418122
 11
96.1377369634
 21
282.8790322581
  0
LINE
  5
22F
100
AcDbEntity
  8
0
100
AcDbLine
 62
7
  6
CONTINUOUS
 10
96.1377369634
 20
33.3790322581
 11
96.0679917405
 21
33.5185227039
  0
LINE
  5
230
100
AcDbEntity
  8
0
100
AcDbLine
 62
7
  6
CONTINUOUS
 10
79.7496338322
 20
287.8587091912
 11
79.5496338322
 21
286.9316816223
  0
LINE
  5
231
100
AcDbEntity
  8
0
100
AcDbLine
 62
7
  6
CONTINUOUS
 10
79.5496338322
 20
29.38573676
 11
79.7496338322
 21
28.4587091911
  0
LINE
  5
232
100
AcDbEntity
  8
0
100
AcDbLine
 62
7
  6
CONTINUOUS
 10
97.0224116623
 20
116.933119005
 11
109.0530622646
 21
113.7249455111
  0
LINE
  5
233
100
AcDbEntity
  8
0
100
AcDbLine
 62
7
  6
CONTINUOUS
 10
79.4538905181
 20
259.1587091912
 11
79.4538905181
 21
275.6587091912
  0
LINE
  5
234
100
AcDbEntity
  8
0
100
AcDbLine
 62
7
  6
CONTINUOUS
 10
79.5496338322
 20
29.3857367601
 11
79.5496338322
 21
286.9316816222
  0
LINE
  5
235
100
AcDbEntity
  8
0
100
AcDbLine
 62
7
  6
CONTINUOUS
 10
79.7496338322
 20
28.4587091912
 11
79.7496338322
 21
287.8587091912
  0
LINE
  5
236
100
AcDbEntity
  8
0
100
AcDbLine
 62
7
  6
CONTINUOUS
 10
80.4338905181
 20
28.6063329963
 11
80.4338905181
 21
287.711085386
  0
LINE
  5
237
100
AcDbEntity
  8
0
100
AcDbLine
 62
7
  6
CONTINUOUS
 10
80.5377369634
 20
26.8984725385
 11
80.5377369634
 21
289.3595919777
  0
LINE
  5
238
100
AcDbEntity
  8
0
100
AcDbLine
 62
7
  6
CONTINUOUS
 10
80.7203058149
 20
26.6992335989
 11
80.7203058149
 21
289.5588309173
  0
LINE
  5
239
100
AcDbEntity
  8
0
100
AcDbLine
 62
7
  6
CONTINUOUS
 10
87.2377369634
 20
290.1290322581
 11
87.2377369634
 21
26.1290322581
  0
LINE
  5
23A
100
AcDbEntity
  8
0
100
AcDbLine
 62
7
  6
CONTINUOUS
 10
95.5377369634
 20
235.7924756319
 11
95.5377369634
 21
118.8655888842
  0
LINE
  5
23B
100
AcDbEntity
  8
0
100
AcDbLine
 62
7
  6
CONTINUOUS
 10
96.0679917405
 20
250.5290322581
 11
96.0679917405
 21
246.5290322581
  0
LINE
  5
23C
100
AcDbEntity
  8
0
100
AcDbLine
 62
7
  6
CONTINUOUS
 10
96.0679917405
 20
58.5290322581
 11
96.0679917405
 21
54.5290322581
  0
LINE
  5
23D
100
AcDbEntity
  8
0
100
AcDbLine
 62
7
  6
CONTINUOUS
 10
96.1377369634
 20
54.5290322581
 11
96.1377369634
 21
58.5290322581
  0
LINE
  5
23E
100
AcDbEntity
  8
0
100
AcDbLine
 62
7
  6
CONTINUOUS
 10
96.1377369634
 20
246.5290322581
 11
96.1377369634
 21
250.5290322581
  0
LINE
  5
23F
100
AcDbEntity
  8
0
100
AcDbLine
 62
7
  6
CONTINUOUS
 10
99.6377369634
 20
282.6629378375
 11
99.6377369634
 21
269.6636862341
  0
LINE
  5
240
100
AcDbEntity
  8
0
100
AcDbLine
 62
7
  6
CONTINUOUS
 10
102.6377369634
 20
33.3790322581
 11
102.6377369634
 21
33.6595043611
  0
LINE
  5
241
100
AcDbEntity
  8
0
100
AcDbLine
 62
7
  6
CONTINUOUS
 10
102.6377369634
 20
58.5290322581
 11
102.6377369634
 21
63.4175439724
  0
LINE
  5
242
100
AcDbEntity
  8
0
100
AcDbLine
 62
7
  6
CONTINUOUS
 10
102.6377369634
 20
250.5290322581
 11
102.6377369634
 21
255.4175439724
  0
LINE
  5
243
100
AcDbEntity
  8
0
100
AcDbLine
 62
7
  6
CONTINUOUS
 10
104.5377369634
 20
283.1290322581
 11
104.5377369634
 21
282.8790322581
  0
LINE
  5
244
100
AcDbEntity
  8
0
100
AcDbLine
 62
7
  6
CONTINUOUS
 10
105.5377369634
 20
286.1290322581
 11
105.5377369634
 21
286.7290322581
  0
LINE
  5
245
100
AcDbEntity
  8
0
100
AcDbLine
 62
7
  6
CONTINUOUS
 10
106.1377369634
 20
282.8790322581
 11
106.1377369634
 21
282.5234528589
  0
LINE
  5
246
100
AcDbEntity
  8
0
100
AcDbLine
 62
7
  6
CONTINUOUS
 10
106.1377369634
 20
255.5706131838
 11
106.1377369634
 21
246.5290322581
  0
LINE
  5
247
100
AcDbEntity
  8
0
100
AcDbLine
 62
7
  6
CONTINUOUS
 10
106.1377369634
 20
63.5706131838
 11
106.1377369634
 21
54.5290322581
  0
LINE
  5
248
100
AcDbEntity
  8
0
100
AcDbLine
 62
7
  6
CONTINUOUS
 10
106.1377369634
 20
33.7346116572
 11
106.1377369634
 21
33.3790322581
  0
LINE
  5
249
100
AcDbEntity
  8
0
100
AcDbLine
 62
7
  6
CONTINUOUS
 10
109.0553750537
 20
282.4608425995
 11
109.0553750537
 21
282.1807974766
  0
LINE
  5
24A
100
AcDbEntity
  8
0
100
AcDbLine
 62
7
  6
CONTINUOUS
 10
110.5377369634
 20
263.6737320846
 11
110.5377369634
 21
255.5352683691
  0
LINE
  5
24B
100
AcDbEntity
  8
0
100
AcDbLine
 62
7
  6
CONTINUOUS
 10
110.5377369634
 20
252.722796147
 11
110.5377369634
 21
242.8655888842
  0
LINE
  5
24C
100
AcDbEntity
  8
0
100
AcDbLine
 62
7
  6
CONTINUOUS
 10
110.5377369634
 20
111.7924756319
 11
110.5377369634
 21
63.5352683691
  0
LINE
  5
24D
100
AcDbEntity
  8
0
100
AcDbLine
 62
7
  6
CONTINUOUS
 10
110.5377369634
 20
32.5290322581
 11
110.5377369634
 21
60.722796147
  0
LINE
  5
24E
100
AcDbEntity
  8
0
100
AcDbLine
 62
7
  6
CONTINUOUS
 10
110.5377369634
 20
282.1290322581
 11
110.5377369634
 21
282.4290322581
  0
LINE
  5
24F
100
AcDbEntity
  8
0
100
AcDbLine
 62
7
  6
CONTINUOUS
 10
116.6377369634
 20
282.7784371098
 11
116.6377369634
 21
281.9160155642
  0
LINE
  5
250
100
AcDbEntity
  8
0
100
AcDbLine
 62
7
  6
CONTINUOUS
 10
116.6377369634
 20
256.2345731267
 11
116.6377369634
 21
252.0234913894
  0
LINE
  5
251
100
AcDbEntity
  8
0
100
AcDbLine
 62
7
  6
CONTINUOUS
 10
116.6377369634
 20
64.2345731267
 11
116.6377369634
 21
60.0234913894
  0
LINE
  5
252
100
AcDbEntity
  8
0
100
AcDbLine
 62
7
  6
CONTINUOUS
 10
116.6377369634
 20
34.342183275
 11
116.6377369634
 21
33.4796276
  0
LINE
  5
253
100
AcDbEntity
  8
0
100
AcDbLine
 62
7
  6
CONTINUOUS
 10
120.5726364601
 20
278.2807379513
 11
120.5726364601
 21
37.9774608879
  0
LINE
  5
254
100
AcDbEntity
  8
0
100
AcDbLine
 62
7
  6
CONTINUOUS
 10
121.5338905181
 20
35.4818196242
 11
121.5338905181
 21
280.776538195
  0
LINE
  5
255
100
AcDbEntity
  8
0
100
AcDbLine
 62
7
  6
CONTINUOUS
 10
122.4815545618
 20
61.5304754906
 11
122.4815545618
 21
66.3290322581
  0
LINE
  5
256
100
AcDbEntity
  8
0
100
AcDbLine
 62
7
  6
CONTINUOUS
 10
122.4815545618
 20
71.9290322581
 11
122.4815545618
 21
240.6290322581
  0
LINE
  5
257
100
AcDbEntity
  8
0
100
AcDbLine
 62
7
  6
CONTINUOUS
 10
122.4815545618
 20
246.2290322581
 11
122.4815545618
 21
251.0869428917
  0
LINE
  5
258
100
AcDbEntity
  8
0
100
AcDbLine
 62
7
  6
CONTINUOUS
 10
123.9377369635
 20
246.2290322581
 11
123.9377369635
 21
240.6290322581
  0
LINE
  5
259
100
AcDbEntity
  8
0
100
AcDbLine
 62
7
  6
CONTINUOUS
 10
123.9377369635
 20
71.9290322581
 11
123.9377369635
 21
66.3290322581
  0
LINE
  5
25A
100
AcDbEntity
  8
0
100
AcDbLine
 62
7
  6
CONTINUOUS
 10
105.5377369634
 20
286.1290322581
 11
105.991938326
 21
282.8587824473
  0
LINE
  5
25B
100
AcDbEntity
  8
0
100
AcDbLine
 62
7
  6
CONTINUOUS
 10
146.5862264743
 20
237.9220836165
 11
146.5862264743
 21
74.6953347659
  0
LINE
  5
25C
100
AcDbEntity
  8
0
100
AcDbLine
 62
7
  6
CONTINUOUS
 10
147.5338905181
 20
70.2519780162
 11
147.5338905181
 21
242.3654012415
  0
LINE
  5
25D
100
AcDbEntity
  8
0
100
AcDbLine
 62
7
  6
CONTINUOUS
 10
147.6338905181
 20
238.3587091912
 11
147.6338905181
 21
224.3587091912
  0
LINE
  5
25E
100
AcDbEntity
  8
0
100
AcDbLine
 62
7
  6
CONTINUOUS
 10
148.0338905181
 20
226.7087091912
 11
148.0338905181
 21
225.6087091912
  0
LINE
  5
25F
100
AcDbEntity
  8
0
100
AcDbLine
 62
7
  6
CONTINUOUS
 10
121.1906892514
 20
34.7242698906
 11
121.53389857
 21
35.4763233133
  0
LINE
  5
260
100
AcDbEntity
  8
0
100
AcDbLine
 62
7
  6
CONTINUOUS
 10
147.5338905181
 20
224.3587091912
 11
147.6338905181
 21
224.3587091912
  0
LINE
  5
261
100
AcDbEntity
  8
0
100
AcDbLine
 62
7
  6
CONTINUOUS
 10
147.6338905181
 20
225.3587091912
 11
147.5338905181
 21
225.3587091912
  0
LINE
  5
262
100
AcDbEntity
  8
0
100
AcDbLine
 62
7
  6
CONTINUOUS
 10
148.0338905181
 20
225.6087091912
 11
147.6338905181
 21
225.6087091912
  0
LINE
  5
263
100
AcDbEntity
  8
0
100
AcDbLine
 62
7
  6
CONTINUOUS
 10
148.0338905181
 20
226.7087091912
 11
147.6338905181
 21
226.7087091912
  0
LINE
  5
264
100
AcDbEntity
  8
0
100
AcDbLine
 62
7
  6
CONTINUOUS
 10
109.0530622646
 20
240.933119005
 11
97.0224116623
 21
237.7249455111
  0
LINE
  5
265
100
AcDbEntity
  8
0
100
AcDbLine
 62
7
  6
CONTINUOUS
 10
147.6338905181
 20
236.3587091912
 11
147.5338905181
 21
236.3587091912
  0
LINE
  5
266
100
AcDbEntity
  8
0
100
AcDbLine
 62
7
  6
CONTINUOUS
 10
146.5862264743
 20
237.9220836165
 11
147.5338905181
 21
237.9220836165
  0
LINE
  5
267
100
AcDbEntity
  8
0
100
AcDbLine
 62
7
  6
CONTINUOUS
 10
147.5338905181
 20
238.3587091912
 11
147.6338905181
 21
238.3587091912
  0
LINE
  5
268
100
AcDbEntity
  8
0
100
AcDbLine
 62
7
  6
CONTINUOUS
 10
123.9377369635
 20
240.6290322581
 11
121.5338905181
 21
240.6290322581
  0
LWPOLYLINE
  5
269
100
AcDbEntity
  8
0
100
AcDbPolyline
 62
7
  6
CONTINUOUS
 90
3
 70
0
 10
122.0545655901
 20
256.874340498
 10
121.6971657403
 20
257.2043556975
 10
121.5338909593
 20
257.7531787421
  0
LINE
  5
26A
100
AcDbEntity
  8
0
100
AcDbLine
 62
7
  6
CONTINUOUS
 10
122.4815545618
 20
61.5304754906
 11
146.5862264743
 21
74.6953347659
  0
LINE
  5
26B
100
AcDbEntity
  8
0
100
AcDbLine
 62
7
  6
CONTINUOUS
 10
123.9377369635
 20
246.2290322581
 11
121.5338905181
 21
246.2290322581
  0
LINE
  5
26C
100
AcDbEntity
  8
0
100
AcDbLine
 62
7
  6
CONTINUOUS
 10
96.0679917405
 20
246.5290322581
 11
106.1377369634
 21
246.5290322581
  0
LINE
  5
26D
100
AcDbEntity
  8
0
100
AcDbLine
 62
7
  6
CONTINUOUS
 10
146.5862264743
 20
237.9220836165
 11
122.4815545618
 21
251.0869428917
  0
LINE
  5
26E
100
AcDbEntity
  8
0
100
AcDbLine
 62
7
  6
CONTINUOUS
 10
122.0545654529
 20
256.8743405729
 11
147.0132155833
 21
243.2430778094
  0
LINE
  5
26F
100
AcDbEntity
  8
0
100
AcDbLine
 62
7
  6
CONTINUOUS
 10
121.0257808443
 20
34.6052620473
 11
121.213057539
 21
34.7732841404
  0
LINE
  5
270
100
AcDbEntity
  8
0
100
AcDbLine
 62
7
  6
CONTINUOUS
 10
147.0132155833
 20
69.3743405729
 11
122.0545654529
 21
55.7430778094
  0
LINE
  5
271
100
AcDbEntity
  8
0
100
AcDbLine
 62
7
  6
CONTINUOUS
 10
102.6377369634
 20
250.5290322581
 11
96.0679917405
 21
250.5290322581
  0
LINE
  5
272
100
AcDbEntity
  8
0
100
AcDbLine
 62
7
  6
CONTINUOUS
 10
121.5338905181
 20
251.086943275
 11
122.4815545618
 21
251.086943275
  0
LINE
  5
273
100
AcDbEntity
  8
0
100
AcDbLine
 62
7
  6
CONTINUOUS
 10
102.6377369634
 20
254.1290322581
 11
106.1377369634
 21
254.1290322581
  0
LINE
  5
274
100
AcDbEntity
  8
0
100
AcDbLine
 62
7
  6
CONTINUOUS
 10
79.4538905181
 20
259.1587091912
 11
79.5338905181
 21
259.1587091912
  0
LINE
  5
275
100
AcDbEntity
  8
0
100
AcDbLine
 62
7
  6
CONTINUOUS
 10
111.6899108765
 20
282.7790322581
 11
106.5377369634
 21
286.7290322581
  0
LINE
  5
276
100
AcDbEntity
  8
0
100
AcDbLine
 62
7
  6
CONTINUOUS
 10
112.5377369634
 20
32.598873797
 11
115.5379888191
 21
34.3037792236
  0
LINE
  5
277
100
AcDbEntity
  8
0
100
AcDbLine
 62
7
  6
CONTINUOUS
 10
79.5338905181
 20
261.1587091912
 11
79.4538905181
 21
261.1587091912
  0
LINE
  5
278
100
AcDbEntity
  8
0
100
AcDbLine
 62
7
  6
CONTINUOUS
 10
79.4538905181
 20
267.1587091912
 11
79.5338905181
 21
267.1587091912
  0
LINE
  5
279
100
AcDbEntity
  8
0
100
AcDbLine
 62
7
  6
CONTINUOUS
 10
101.1200988732
 20
267.7318345814
 11
109.0553750537
 21
265.6055837372
  0
LINE
  5
27A
100
AcDbEntity
  8
0
100
AcDbLine
 62
7
  6
CONTINUOUS
 10
79.5338905181
 20
269.1587091912
 11
79.4538905181
 21
269.1587091912
  0
LINE
  5
27B
100
AcDbEntity
  8
0
100
AcDbLine
 62
7
  6
CONTINUOUS
 10
79.4538905181
 20
273.6587091912
 11
79.5338905181
 21
273.6587091912
  0
LINE
  5
27C
100
AcDbEntity
  8
0
100
AcDbLine
 62
7
  6
CONTINUOUS
 10
79.5338905181
 20
275.6587091912
 11
79.4538905181
 21
275.6587091912
  0
LINE
  5
27D
100
AcDbEntity
  8
0
100
AcDbLine
 62
7
  6
CONTINUOUS
 10
87.2377369634
 20
290.1290322581
 11
80.7203058149
 21
289.5588309173
  0
LINE
  5
27E
100
AcDbEntity
  8
0
100
AcDbLine
 62
7
  6
CONTINUOUS
 10
99.6377369634
 20
278.6268962554
 11
110.5376625274
 21
278.6290316091
  0
LINE
  5
27F
100
AcDbEntity
  8
0
100
AcDbLine
 62
7
  6
CONTINUOUS
 10
120.5726364601
 20
278.2807380553
 11
121.5377369634
 21
278.2807380553
  0
LINE
  5
280
100
AcDbEntity
  8
0
100
AcDbLine
 62
7
  6
CONTINUOUS
 10
79.5338905181
 20
281.8587091912
 11
80.4338905181
 21
281.8587091912
  0
LINE
  5
281
100
AcDbEntity
  8
0
100
AcDbLine
 62
7
  6
CONTINUOUS
 10
80.5377369634
 20
282.4790322581
 11
87.2377369634
 21
282.4790322581
  0
LINE
  5
282
100
AcDbEntity
  8
0
100
AcDbLine
 62
7
  6
CONTINUOUS
 10
106.1377369634
 20
282.7790322581
 11
116.6377369634
 21
282.7790322581
  0
LINE
  5
283
100
AcDbEntity
  8
0
100
AcDbLine
 62
7
  6
CONTINUOUS
 10
96.1377369634
 20
282.8790322581
 11
106.1377369634
 21
282.8790322581
  0
LINE
  5
284
100
AcDbEntity
  8
0
100
AcDbLine
 62
7
  6
CONTINUOUS
 10
100.2377369634
 20
283.1290322581
 11
104.5377369634
 21
283.1290322581
  0
LINE
  5
285
100
AcDbEntity
  8
0
100
AcDbLine
 62
7
  6
CONTINUOUS
 10
106.5377369634
 20
286.7290322581
 11
105.5377369634
 21
286.7290322581
  0
LINE
  5
286
100
AcDbEntity
  8
0
100
AcDbLine
 62
7
  6
CONTINUOUS
 10
99.6377369634
 20
279.1637434316
 11
87.2377369634
 21
279.4298378522
  0
LINE
  5
287
100
AcDbEntity
  8
0
100
AcDbLine
 62
7
  6
CONTINUOUS
 10
87.2377369634
 20
282.9290322581
 11
110.5377369634
 21
282.4290322581
  0
LINE
  5
288
100
AcDbEntity
  8
0
100
AcDbLine
 62
7
  6
CONTINUOUS
 10
120.5726364601
 20
278.2807379513
 11
110.5376625274
 21
278.6290316091
  0
LINE
  5
289
100
AcDbEntity
  8
0
100
AcDbLine
 62
7
  6
CONTINUOUS
 10
99.6377369634
 20
282.5096686455
 11
120.5726364601
 21
281.7786058459
  0
LINE
  5
28A
100
AcDbEntity
  8
0
100
AcDbLine
 62
7
  6
CONTINUOUS
 10
80.4338905181
 20
287.7110853861
 11
79.7496338322
 21
287.8587091912
  0
ARC
  5
28B
100
AcDbEntity
  8
0
100
AcDbCircle
 62
7
  6
CONTINUOUS
 10
108.5377369634
 20
263.6737320846
 40
2.0
100
AcDbArc
 50
0.0
 51
75.0
  0
ARC
  5
28C
100
AcDbEntity
  8
0
100
AcDbCircle
 62
7
  6
CONTINUOUS
 10
101.6377369634
 20
269.6636862341
 40
2.0
100
AcDbArc
 50
180.0
 51
255.0
  0
ARC
  5
28D
100
AcDbEntity
  8
0
100
AcDbCircle
 62
7
  6
CONTINUOUS
 10
97.5377369634
 20
118.8655888842
 40
2.0
100
AcDbArc
 50
180.0
 51
255.0685828219
  0
ARC
  5
28E
100
AcDbEntity
  8
0
100
AcDbCircle
 62
7
  6
CONTINUOUS
 10
97.5377369634
 20
235.7924756319
 40
2.0
100
AcDbArc
 50
104.9314171781
 51
180.0
  0
ARC
  5
28F
100
AcDbEntity
  8
0
100
AcDbCircle
 62
7
  6
CONTINUOUS
 10
108.5377369634
 20
242.8655888842
 40
2.0
100
AcDbArc
 50
284.9314171781
 51
360.0
  0
ARC
  5
290
100
AcDbEntity
  8
0
100
AcDbCircle
 62
7
  6
CONTINUOUS
 10
108.5377369634
 20
111.7924756319
 40
2.0
100
AcDbArc
 50
0.0
 51
75.0685828219
  0
ARC
  5
291
100
AcDbEntity
  8
0
100
AcDbCircle
 62
7
  6
CONTINUOUS
 10
146.5338905181
 20
70.2519780162
 40
1.0
100
AcDbArc
 50
298.6413302338
 51
360.0
  0
ARC
  5
292
100
AcDbEntity
  8
0
100
AcDbCircle
 62
7
  6
CONTINUOUS
 10
122.5338905181
 20
54.8654403661
 40
1.0
100
AcDbArc
 50
118.6413302338
 51
180.0
  0
ARC
  5
293
100
AcDbEntity
  8
0
100
AcDbCircle
 62
7
  6
CONTINUOUS
 10
146.5338905181
 20
242.3654403661
 40
1.0
100
AcDbArc
 50
0.0
 51
61.3586697662
  0
ARC
  5
294
100
AcDbEntity
  8
0
100
AcDbCircle
 62
7
  6
CONTINUOUS
 10
122.5338905181
 20
257.7519780162
 40
1.0
100
AcDbArc
 50
180.0
 51
241.3586697662
  0
ARC
  5
295
100
AcDbEntity
  8
0
100
AcDbCircle
 62
7
  6
CONTINUOUS
 10
120.5377369634
 20
280.7792150189
 40
1.0
100
AcDbArc
 50
0.0
 51
88.0
  0
ARC
  5
296
100
AcDbEntity
  8
0
100
AcDbCircle
 62
7
  6
CONTINUOUS
 10
120.5338905181
 20
35.4788494995
 40
1.0
100
AcDbArc
 50
272.0
 51
360.0
  0
ARC
  5
297
100
AcDbEntity
  8
0
100
AcDbCircle
 62
7
  6
CONTINUOUS
 10
80.2338905181
 20
29.5333605653
 40
0.7
100
AcDbArc
 50
180.0000000077
 51
192.174581032
  0
ARC
  5
298
100
AcDbEntity
  8
0
100
AcDbCircle
 62
7
  6
CONTINUOUS
 10
80.7377369634
 20
289.3595919776
 40
0.2
100
AcDbArc
 50
94.9999999993
 51
179.9999999923
  0
ARC
  5
299
100
AcDbEntity
  8
0
100
AcDbCircle
 62
7
  6
CONTINUOUS
 10
80.7377369634
 20
26.8984725385
 40
0.2
100
AcDbArc
 50
180.0000000077
 51
265.0000000006
  0
SPLINE
  5
29A
100
AcDbEntity
  8
0
100
AcDbSpline
 62
7
  6
CONTINUOUS
 70
0
 71
3
 72
21
 73
17
 74
0
 42
0.0000001
 43
0.0000001
 44
0.0000000001
 40
0.0
 40
0.0
 40
0.0
 40
0.0
 40
0.1949142439
 40
0.3827401228
 40
0.5555567564
 40
0.7069843574
 40
0.7728770179
 40
0.8313241545
 40
0.881737988
 40
0.9236860102
 40
0.9567530648
 40
0.9805908026
 40
0.9889940589
 40
0.9950317223
 40
0.9986920815
 40
1.0
 40
1.0
 40
1.0
 40
1.0
 10
120.5726302662
 20
37.9774606716
 30
0.0
 10
120.5748271892
 20
37.7501713095
 30
0.0
 10
120.5788698126
 20
37.3038556976
 30
0.0
 10
120.5835466171
 20
36.6560070302
 30
0.0
 10
120.5863785665
 20
36.0588619356
 30
0.0
 10
120.5872951177
 20
35.603898976
 30
0.0
 10
120.5870025655
 20
35.2823175032
 30
0.0
 10
120.5863495759
 20
35.0785145452
 30
0.0
 10
120.5852266914
 20
34.9026938399
 30
0.0
 10
120.5837348143
 20
34.7563111645
 30
0.0
 10
120.5816230918
 20
34.6413647347
 30
0.0
 10
120.5797712102
 20
34.564571258
 30
0.0
 10
120.5773478439
 20
34.5208721207
 30
0.0
 10
120.5765487834
 20
34.4983225799
 30
0.0
 10
120.5741607249
 20
34.4882189696
 30
0.0
 10
120.5741693491
 20
34.479646523
 30
0.0
 10
120.5726450442
 20
34.4795932931
 30
0.0
  0
SPLINE
  5
29B
100
AcDbEntity
  8
0
100
AcDbSpline
 62
7
  6
CONTINUOUS
 70
0
 71
3
 72
21
 73
17
 74
0
 42
0.0000001
 43
0.0000001
 44
0.0000000001
 40
0.0
 40
0.0
 40
0.0
 40
0.0
 40
0.0016337843
 40
0.0057662869
 40
0.0124235227
 40
0.0215889112
 40
0.0473532167
 40
0.0828278704
 40
0.1274461775
 40
0.1804768125
 40
0.2411845536
 40
0.3087746911
 40
0.4611927017
 40
0.6311901706
 40
0.8129014451
 40
1.0
 40
1.0
 40
1.0
 40
1.0
 10
147.013215613
 20
243.2430777932
 30
0.0
 10
147.0157673495
 20
243.2416841525
 30
0.0
 10
147.0147467965
 20
243.2286666524
 30
0.0
 10
147.0166693965
 20
243.2089676615
 30
0.0
 10
147.0145247243
 20
243.172170065
 30
0.0
 10
147.0113230704
 20
243.099023979
 30
0.0
 10
147.0027041778
 20
242.9734355217
 30
0.0
 10
146.9898880146
 20
242.7857664461
 30
0.0
 10
146.9726810471
 20
242.5493769415
 30
0.0
 10
146.9515618631
 20
242.2683921746
 30
0.0
 10
146.9264535855
 20
241.9466631512
 30
0.0
 10
146.8865091191
 20
241.4487011096
 30
0.0
 10
146.8296722813
 20
240.7569701525
 30
0.0
 10
146.7552745171
 20
239.8629063277
 30
0.0
 10
146.6702466618
 20
238.9078146237
 30
0.0
 10
146.6130101316
 20
238.2539679413
 30
0.0
 10
146.5862264617
 20
237.9220836234
 30
0.0
  0
SPLINE
  5
29C
100
AcDbEntity
  8
0
100
AcDbSpline
 62
7
  6
CONTINUOUS
 70
0
 71
3
 72
22
 73
18
 74
0
 42
0.0000001
 43
0.0000001
 44
0.0000000001
 40
0.0
 40
0.0
 40
0.0
 40
0.0
 40
0.0012062071
 40
0.0051336412
 40
0.0117997765
 40
0.0211895518
 40
0.0332499617
 40
0.0479148268
 40
0.0847548052
 40
0.1309667526
 40
0.1856713562
 40
0.2478795652
 40
0.3166152669
 40
0.4699077891
 40
0.6387406371
 40
0.8171316355
 40
1.0
 40
1.0
 40
1.0
 40
1.0
 10
122.0547078819
 20
256.8742627998
 30
0.0
 10
122.0526598017
 20
256.8753809412
 30
0.0
 10
122.0541524083
 20
256.8570124011
 30
0.0
 10
122.0521456574
 20
256.8427299189
 30
0.0
 10
122.0546524805
 20
256.7990955749
 30
0.0
 10
122.0565927432
 20
256.7469876728
 30
0.0
 10
122.0605284187
 20
256.6763591806
 30
0.0
 10
122.0676028907
 20
256.5540071568
 30
0.0
 10
122.0797908157
 20
256.3650987305
 30
0.0
 10
122.097772815
 20
256.099326782
 30
0.0
 10
122.1198760437
 20
255.7844952718
 30
0.0
 10
122.1457265742
 20
255.426299548
 30
0.0
 10
122.1862082119
 20
254.8779270982
 30
0.0
 10
122.2431227199
 20
254.1239480266
 30
0.0
 10
122.3176212714
 20
253.1585607655
 30
0.0
 10
122.397906797
 20
252.1362373979
 30
0.0
 10
122.453470893
 20
251.4395880353
 30
0.0
 10
122.4817891681
 20
251.0869617836
 30
0.0
  0
SPLINE
  5
29D
100
AcDbEntity
  8
0
100
AcDbSpline
 62
7
  6
CONTINUOUS
 70
0
 71
3
 72
22
 73
18
 74
0
 42
0.0000001
 43
0.0000001
 44
0.0000000001
 40
0.0
 40
0.0
 40
0.0
 40
0.0
 40
0.1827171049
 40
0.3610069746
 40
0.5297878174
 40
0.6831378326
 40
0.7519137925
 40
0.8141784363
 40
0.8689246534
 40
0.9151731502
 40
0.9520426251
 40
0.966720961
 40
0.9787918902
 40
0.9881884984
 40
0.9948602591
 40
0.9987922237
 40
1.0
 40
1.0
 40
1.0
 40
1.0
 10
122.4817507391
 20
61.5304596938
 30
0.0
 10
122.4534568171
 20
61.1781242531
 30
0.0
 10
122.3979358747
 20
60.4819596983
 30
0.0
 10
122.3176829272
 20
59.4602221326
 30
0.0
 10
122.2432373645
 20
58.4950142025
 30
0.0
 10
122.1862708701
 20
57.7409486691
 30
0.0
 10
122.1457552835
 20
57.1922783461
 30
0.0
 10
122.1199456437
 20
56.8338106644
 30
0.0
 10
122.0977794321
 20
56.518721828
 30
0.0
 10
122.0797928362
 20
56.2527409257
 30
0.0
 10
122.0676006254
 20
56.0636779466
 30
0.0
 10
122.0605019123
 20
55.9412239742
 30
0.0
 10
122.0565573588
 20
55.8705349387
 30
0.0
 10
122.0546449768
 20
55.8183835965
 30
0.0
 10
122.0521347816
 20
55.7747104559
 30
0.0
 10
122.0541456233
 20
55.7604178229
 30
0.0
 10
122.0526338086
 20
55.7420232237
 30
0.0
 10
122.0546845466
 20
55.7431428424
 30
0.0
  0
SPLINE
  5
29E
100
AcDbEntity
  8
0
100
AcDbSpline
 62
7
  6
CONTINUOUS
 70
0
 71
3
 72
22
 73
18
 74
0
 42
0.0000001
 43
0.0000001
 44
0.0000000001
 40
0.0
 40
0.0
 40
0.0
 40
0.0
 40
0.0015990479
 40
0.0057501446
 40
0.012509824
 40
0.0218900785
 40
0.0338471509
 40
0.0483165918
 40
0.0845291719
 40
0.1299303586
 40
0.1837935605
 40
0.2452822345
 40
0.3135106678
 40
0.4665717313
 40
0.635902464
 40
0.8154475802
 40
1.0
 40
1.0
 40
1.0
 40
1.0
 10
147.0132527218
 20
69.3743608573
 30
0.0
 10
147.0157500672
 20
69.3757249416
 30
0.0
 10
147.0140734616
 20
69.3888599217
 30
0.0
 10
147.0159007003
 20
69.408548209
 30
0.0
 10
147.0132904273
 20
69.4460446481
 30
0.0
 10
147.0114306796
 20
69.4953725074
 30
0.0
 10
147.0077650484
 20
69.5592347237
 30
0.0
 10
147.001148737
 20
69.6703929937
 30
0.0
 10
146.9894292286
 20
69.8410535564
 30
0.0
 10
146.9720421346
 20
70.0814836377
 30
0.0
 10
146.9502624609
 20
70.366734984
 30
0.0
 10
146.9246945443
 20
70.6924217887
 30
0.0
 10
146.8844892485
 20
71.1940358117
 30
0.0
 10
146.8274151616
 20
71.8868214366
 30
0.0
 10
146.7522318517
 20
72.7768797136
 30
0.0
 10
146.6713076822
 20
73.7226924616
 30
0.0
 10
146.6150413343
 20
74.3681789636
 30
0.0
 10
146.5862817911
 20
74.695339642
 30
0.0
  0
SPLINE
  5
29F
100
AcDbEntity
  8
0
100
AcDbSpline
 62
7
  6
CONTINUOUS
 70
0
 71
3
 72
21
 73
17
 74
0
 42
0.0000001
 43
0.0000001
 44
0.0000000001
 40
0.0
 40
0.0
 40
0.0
 40
0.0
 40
0.0013065984
 40
0.0049709512
 40
0.0110154145
 40
0.0194266634
 40
0.0432780169
 40
0.0763592968
 40
0.1183352672
 40
0.1687709438
 40
0.2272242157
 40
0.2931324026
 40
0.4445749662
 40
0.6173635916
 40
0.8051145808
 40
1.0
 40
1.0
 40
1.0
 40
1.0
 10
120.5726321554
 20
281.7786059962
 30
0.0
 10
120.5741549063
 20
281.7785528205
 30
0.0
 10
120.5740777891
 20
281.7699500185
 30
0.0
 10
120.5764512544
 20
281.7598535905
 30
0.0
 10
120.577166815
 20
281.7372652069
 30
0.0
 10
120.5794942777
 20
281.6935362143
 30
0.0
 10
120.581219018
 20
281.616693626
 30
0.0
 10
120.5832498578
 20
281.5016845074
 30
0.0
 10
120.5846829301
 20
281.3552271843
 30
0.0
 10
120.5857732997
 20
281.1793432196
 30
0.0
 10
120.586404214
 20
280.9754914584
 30
0.0
 10
120.5866836042
 20
280.6538706279
 30
0.0
 10
120.5858051008
 20
280.1989094425
 30
0.0
 10
120.5831163598
 20
279.6018724256
 30
0.0
 10
120.5786297072
 20
278.9541826965
 30
0.0
 10
120.5747539043
 20
278.5079911865
 30
0.0
 10
120.572672664
 20
278.280736687
 30
0.0
  0
SPLINE
  5
2A0
100
AcDbEntity
  8
0
100
AcDbSpline
 62
7
  6
CONTINUOUS
 70
0
 71
3
 72
19
 73
15
 74
0
 42
0.0000001
 43
0.0000001
 44
0.0000000001
 40
0.0
 40
0.0
 40
0.0
 40
0.0
 40
0.0069733577
 40
0.0147652737
 40
0.0252080312
 40
0.0524507194
 40
0.0868729093
 40
0.1286202101
 40
0.1784034484
 40
0.3011177784
 40
0.4509723822
 40
0.6216684385
 40
0.8071823044
 40
1.0
 40
1.0
 40
1.0
 40
1.0
 10
110.5381689776
 20
282.1290171718
 30
0.0
 10
110.5464039825
 20
282.1287295991
 30
0.0
 10
110.5556737175
 20
282.108528419
 30
0.0
 10
110.5752492803
 20
282.0885072017
 30
0.0
 10
110.6064194157
 20
282.0434092388
 30
0.0
 10
110.6483528733
 20
281.9695813408
 30
0.0
 10
110.6846493941
 20
281.8513893847
 30
0.0
 10
110.6976781985
 20
281.7025978216
 30
0.0
 10
110.6947422942
 20
281.4494141229
 30
0.0
 10
110.6791736725
 20
281.068597614
 30
0.0
 10
110.7003930844
 20
280.5452140209
 30
0.0
 10
110.6923083395
 20
279.9457023252
 30
0.0
 10
110.5827898046
 20
279.3049358657
 30
0.0
 10
110.549669369
 20
278.8586921972
 30
0.0
 10
110.5376625274
 20
278.6311669628
 30
0.0
  0
ELLIPSE
  5
2A1
100
AcDbEntity
  8
0
100
AcDbEllipse
 62
7
  6
CONTINUOUS
 10
177.8329321783
 20
254.1290322581
 30
0.0
 11
85.9087598487
 21
0.0
 31
0.0
 40
0.0349207695
 41
-2.4708066608
 42
-2.3636056116
  0
ELLIPSE
  5
2A2
100
AcDbEntity
  8
0
100
AcDbEllipse
 62
7
  6
CONTINUOUS
 10
177.8329321783
 20
254.1290322581
 30
0.0
 11
85.9087598487
 21
0.0
 31
0.0
 40
0.0349207695
 41
2.3636056116
 42
2.4708066608
  0
ELLIPSE
  5
2A3
100
AcDbEntity
  8
0
100
AcDbEllipse
 62
7
  6
CONTINUOUS
 10
177.8329321783
 20
62.1290322581
 30
0.0
 11
85.9087598487
 21
0.0
 31
0.0
 40
0.0349207695
 41
-2.4708066608
 42
-2.3636056116
  0
ELLIPSE
  5
2A4
100
AcDbEntity
  8
0
100
AcDbEllipse
 62
7
  6
CONTINUOUS
 10
177.8329321783
 20
62.1290322581
 30
0.0
 11
85.9087598487
 21
0.0
 31
0.0
 40
0.0349207695
 41
2.3636056116
 42
2.4708066608
  0
ELLIPSE
  5
2A5
100
AcDbEntity
  8
0
100
AcDbEllipse
 62
7
  6
CONTINUOUS
 10
234.0277369635
 20
254.1290322581
 30
0.0
 11
144.46
 21
-0.0
 31
0.0
 40
0.0214592275
 41
2.6579285552
 42
2.7129364735
  0
ELLIPSE
  5
2A6
100
AcDbEntity
  8
0
100
AcDbEllipse
 62
7
  6
CONTINUOUS
 10
234.0277369635
 20
254.1290322581
 30
0.0
 11
139.8
 21
-0.0
 31
0.0
 40
0.0214592275
 41
-2.7258258078
 42
-2.6537227472
  0
ELLIPSE
  5
2A7
100
AcDbEntity
  8
0
100
AcDbEllipse
 62
7
  6
CONTINUOUS
 10
234.0277369635
 20
254.1290322581
 30
0.0
 11
139.8
 21
-0.0
 31
0.0
 40
0.0214592275
 41
2.6537227472
 42
2.7258258078
  0
ELLIPSE
  5
2A8
100
AcDbEntity
  8
0
100
AcDbEllipse
 62
7
  6
CONTINUOUS
 10
234.0277369635
 20
62.1290322581
 30
0.0
 11
139.8
 21
-0.0
 31
0.0
 40
0.0214592275
 41
2.6537227472
 42
2.7258258078
  0
ELLIPSE
  5
2A9
100
AcDbEntity
  8
0
100
AcDbEllipse
 62
7
  6
CONTINUOUS
 10
234.0277369635
 20
62.1290322581
 30
0.0
 11
139.8
 21
-0.0
 31
0.0
 40
0.0214592275
 41
-2.7258258078
 42
-2.6537227472
  0
ELLIPSE
  5
2AA
100
AcDbEntity
  8
0
100
AcDbEllipse
 62
7
  6
CONTINUOUS
 10
234.0277369635
 20
62.1290322581
 30
0.0
 11
144.46
 21
0.0
 31
0.0
 40
0.0214592275
 41
2.6579285552
 42
2.7129364735
  0
ENDSEC
  0
SECTION
  2
OBJECTS
  0
DICTIONARY
  5
C
100
AcDbDictionary
280
0
281
1
  3
ACAD_GROUP
350
D
  3
ACAD_MLINESTYLE
350
17
  3
ACAD_LAYOUT
350
1A
  3
ACAD_PLOTSETTINGS
350
19
  3
ACAD_PLOTSTYLENAME
350
E
  0
DICTIONARY
  5
D
102
{ACAD_REACTORS
330
C
102
}
100
AcDbDictionary
280
0
281
1
  0
ACDBDICTIONARYWDFLT
  5
E
102
{ACAD_REACTORS
330
C
102
}
100
AcDbDictionary
281
1
  3
Normal
350
F
100
AcDbDictionaryWithDefault
340
F
  0
DICTIONARY
  5
17
102
{ACAD_REACTORS
330
C
102
}
100
AcDbDictionary
280
0
281
1
  3
Standard
350
18
  0
DICTIONARY
  5
19
102
{ACAD_REACTORS
330
C
102
}
100
AcDbDictionary
281
1
  0
DICTIONARY
  5
1A
102
{ACAD_REACTORS
330
C
102
}
100
AcDbDictionary
281
1
  3
Model
350
2AB
  3
Layout1
350
2AC
  0
ACDBPLACEHOLDER
  5
F
102
{ACAD_REACTORS
330
E
102
}
  0
MLINESTYLE
  5
18
102
{ACAD_REACTORS
330
17
102
}
100
AcDbMlineStyle
  2
STANDARD
 70
0
  3

 62
256
 51
90.0
 52
90.0
 71
2
 49
0.5
 62
256
  6
BYLAYER
 49
-0.5
 62
256
  6
BYLAYER
  0
LAYOUT
  5
2AB
102
{ACAD_REACTORS
330
1A
102
}
100
AcDbPlotSettings
  1

  2
none_device
  4

  6

 40
0.0
 41
0.0
 42
0.0
 43
0.0
 44
210.0
 45
297.0
 46
0.0
 47
0.0
 48
0.0
 49
0.0
140
0.0
141
0.0
142
1.0
143
1.0
 70
1024
 72
1
 73
0
 74
0
  7

 75
0
147
1.0
148
0.0
149
0.0
100
AcDbLayout
  1
Model
 70
0
 71
0
 10
0.0
 20
0.0
 11
210.0
 21
297.0
 12
0.0
 22
0.0
 32
0.0
 14
0.0
 24
0.0
 34
0.0
 15
0.0
 25
0.0
 35
0.0
146
0.0
 13
0.0
 23
0.0
 33
0.0
 16
1.0
 26
0.0
 36
0.0
 17
0.0
 27
1.0
 37
0.0
 76
0
330
210
345
0
346
0
  0
LAYOUT
  5
2AC
102
{ACAD_REACTORS
330
1A
102
}
100
AcDbPlotSettings
  1

  2
none_device
  4

  6

 40
0.0
 41
0.0
 42
0.0
 43
0.0
 44
210.0
 45
297.0
 46
0.0
 47
0.0
 48
0.0
 49
0.0
140
0.0
141
0.0
142
1.0
143
1.0
 70
0
 72
1
 73
0
 74
0
  7

 75
0
147
1.0
148
0.0
149
0.0
100
AcDbLayout
  1
Layout1
 70
0
 71
1
 10
0.0
 20
0.0
 11
210.0
 21
297.0
 12
0.0
 22
0.0
 32
0.0
 14
0.0
 24
0.0
 34
0.0
 15
0.0
 25
0.0
 35
0.0
146
0.0
 13
0.0
 23
0.0
 33
0.0
 16
1.0
 26
0.0
 36
0.0
 17
0.0
 27
1.0
 37
0.0
 76
0
330
211
345
0
346
0
  0
ENDSEC
  0
EOF
