999
DXF file: C:\Users\sesa63760\Dev\_Creo\CAD\MCADPD0005314_3D-CAD\drw0001_5.dxf
999
Pro/ENGINEER 2019471 by Parametric Technology Corporation
  0
SECTION
  2
HEADER
  9
$ACADVER
  1
AC1024
  9
$DWGCODEPAGE
  3
ANSI_1252
  9
$EXTMAX
 10
152.2855788624
 20
215.3753186768
 30
0.0
  9
$EXTMIN
 10
0.0
 20
0.0
 30
0.0
  9
$LIMMIN
 10
0.0
 20
0.0
  9
$LIMMAX
 10
152.2855788624
 20
215.3753186768
  9
$VIEWCTR
 10
76.1427894312
 20
107.6876593384
  9
$VIEWSIZE
 40
215.3753186768
  9
$CLAYER
  8
0
  9
$LTSCALE
 40
14.0392800323
  9
$CELTYPE
  6
BYLAYER
  9
$DIMSCALE
 40
1.0
  9
$DIMASZ
 40
1.8129235579
  9
$DIMEXO
 40
1.0
  9
$DIMDLI
 40
9.6998662041
  9
$DIMEXE
 40
1.0
  9
$DIMCEN
 40
2.2973367326
  9
$DIMLFAC
 40
1.0
  9
$DIMBLK
  1
_FILLED
  9
$DIMALT
 70
0
  9
$DIMALTF
 40
0.0393700787
  9
$DIMTXT
 40
2.538092981
  9
$DIMTOL
 70
1
  9
$DIMLIM
 70
0
  9
$DIMTFAC
 40
1.0
  9
$DIMTP
 40
0.01
  9
$DIMTM
 40
0.01
  9
$DIMGAP
 40
0.625
  9
$DIMDSEP
 70
46
  9
$AUNITS
 70
0
  9
$PDMODE
 70
3
  9
$PDSIZE
 40
0.3125
  9
$HANDSEED
  5
27D
  9
$TILEMODE
 70
1
  9
$MEASUREMENT
 70
1
  9
$INSUNITS
 70
4
  0
ENDSEC
  0
SECTION
  2
CLASSES
  0
CLASS
  1
ACDBDICTIONARYWDFLT
  2
AcDbDictionaryWithDefault
  3
AutoCAD 2000
 90
0
 91
1
280
0
281
0
  0
CLASS
  1
ACDBPLACEHOLDER
  2
AcDbPlaceHolder
  3
AutoCAD 2000
 90
0
 91
1
280
0
281
0
  0
CLASS
  1
LAYOUT
  2
AcDbLayout
  3
AutoCAD 2000
 90
0
 91
0
280
0
281
0
  0
ENDSEC
  0
SECTION
  2
TABLES
  0
TABLE
  2
VPORT
  5
8
100
AcDbSymbolTable
 70
2
  0
VPORT
  5
1F4
100
AcDbSymbolTableRecord
100
AcDbViewportTableRecord
  2
*ACTIVE
 70
0
 10
0.0
 20
0.0
 11
1.0
 21
1.0
 12
76.1427894312
 22
107.6876593384
 13
0.0
 23
0.0
 14
1.0
 24
1.0
 15
0.0
 25
0.0
 16
0.0
 26
0.0
 36
1.0
 17
0.0
 27
0.0
 37
0.0
 40
215.3753186768
 41
0.7070707071
 42
50.0
 43
0.0
 44
0.0
 50
0.0
 51
0.0
 71
0
 72
100
 73
1
 74
1
 75
0
 76
0
 77
0
 78
0
  0
ENDTAB
  0
TABLE
  2
LTYPE
  5
5
100
AcDbSymbolTable
 70
6
  0
LTYPE
  5
14
100
AcDbSymbolTableRecord
100
AcDbLinetypeTableRecord
  2
BYBLOCK
 70
0
  3

 72
65
 73
0
 40
0.0
  0
LTYPE
  5
15
100
AcDbSymbolTableRecord
100
AcDbLinetypeTableRecord
  2
BYLAYER
 70
0
  3

 72
65
 73
0
 40
0.0
  0
LTYPE
  5
16
100
AcDbSymbolTableRecord
100
AcDbLinetypeTableRecord
  2
CONTINUOUS
 70
64
  3
Solid line
 72
65
 73
0
 40
0.0
  0
LTYPE
  5
1F5
100
AcDbSymbolTableRecord
100
AcDbLinetypeTableRecord
  2
CENTER
 70
64
  3
____ _ ____ _ ____ _ ____ _ ____ _ ____ _ ____
 72
65
 73
4
 40
0.6
 49
0.375
 74
0
 49
-0.075
 74
0
 49
0.075
 74
0
 49
-0.075
 74
0
  0
LTYPE
  5
1F6
100
AcDbSymbolTableRecord
100
AcDbLinetypeTableRecord
  2
HIDDEN
 70
64
  3
- - - - - - - - - - - - - - - - - - - -
 72
65
 73
2
 40
0.2
 49
0.1
 74
0
 49
-0.1
 74
0
  0
LTYPE
  5
1F7
100
AcDbSymbolTableRecord
100
AcDbLinetypeTableRecord
  2
PHANTOM
 70
64
  3
_____ _ _ _____ _ _ _____ _ _ _____
 72
65
 73
6
 40
0.8
 49
0.45
 74
0
 49
-0.05
 74
0
 49
0.1
 74
0
 49
-0.05
 74
0
 49
0.1
 74
0
 49
-0.05
 74
0
  0
LTYPE
  5
1F8
100
AcDbSymbolTableRecord
100
AcDbLinetypeTableRecord
  2
DOT
 70
64
  3
. . . . . . . . . . . . . . . . . . . .
 72
65
 73
2
 40
0.2
 49
0.1
 74
0
 49
-0.1
 74
0
  0
LTYPE
  5
1F9
100
AcDbSymbolTableRecord
100
AcDbLinetypeTableRecord
  2
DASHED
 70
64
  3
- - - - - - - - - - - - - - - - - - - -
 72
65
 73
2
 40
0.2
 49
0.1
 74
0
 49
-0.1
 74
0
  0
ENDTAB
  0
TABLE
  2
LAYER
  5
2
100
AcDbSymbolTable
 70
36
  0
LAYER
  5
10
100
AcDbSymbolTableRecord
100
AcDbLayerTableRecord
  2
0
 70
0
 62
7
  6
CONTINUOUS
370
-3
390
F
  0
LAYER
  5
1FA
100
AcDbSymbolTableRecord
100
AcDbLayerTableRecord
  2
DEFAULT_1
 70
0
 62
7
  6
CENTER
370
-3
390
F
  0
LAYER
  5
1FB
100
AcDbSymbolTableRecord
100
AcDbLayerTableRecord
  2
DEFAULT_2
 70
0
 62
7
  6
HIDDEN
370
-3
390
F
  0
LAYER
  5
1FC
100
AcDbSymbolTableRecord
100
AcDbLayerTableRecord
  2
DEFAULT_3
 70
0
 62
7
  6
PHANTOM
370
-3
390
F
  0
LAYER
  5
1FD
100
AcDbSymbolTableRecord
100
AcDbLayerTableRecord
  2
00_COMPONENTS
 70
0
 62
7
  6
CONTINUOUS
370
-3
390
F
  0
LAYER
  5
1FE
100
AcDbSymbolTableRecord
100
AcDbLayerTableRecord
  2
01_1_DEFAULT_DATUMS
 70
0
 62
7
  6
CONTINUOUS
370
-3
390
F
  0
LAYER
  5
1FF
100
AcDbSymbolTableRecord
100
AcDbLayerTableRecord
  2
01_PLANES
 70
0
 62
7
  6
CONTINUOUS
370
-3
390
F
  0
LAYER
  5
200
100
AcDbSymbolTableRecord
100
AcDbLayerTableRecord
  2
02_COORD_SYS
 70
0
 62
7
  6
CONTINUOUS
370
-3
390
F
  0
LAYER
  5
201
100
AcDbSymbolTableRecord
100
AcDbLayerTableRecord
  2
03_AXES
 70
0
 62
7
  6
CONTINUOUS
370
-3
390
F
  0
LAYER
  5
202
100
AcDbSymbolTableRecord
100
AcDbLayerTableRecord
  2
04_POINTS
 70
0
 62
7
  6
CONTINUOUS
370
-3
390
F
  0
LAYER
  5
203
100
AcDbSymbolTableRecord
100
AcDbLayerTableRecord
  2
05_CURVES
 70
0
 62
7
  6
CONTINUOUS
370
-3
390
F
  0
LAYER
  5
204
100
AcDbSymbolTableRecord
100
AcDbLayerTableRecord
  2
06_SURFS
 70
0
 62
7
  6
CONTINUOUS
370
-3
390
F
  0
LAYER
  5
205
100
AcDbSymbolTableRecord
100
AcDbLayerTableRecord
  2
07_COSMETICS
 70
0
 62
7
  6
CONTINUOUS
370
-3
390
F
  0
LAYER
  5
206
100
AcDbSymbolTableRecord
100
AcDbLayerTableRecord
  2
10_NOTES
 70
0
 62
7
  6
CONTINUOUS
370
-3
390
F
  0
LAYER
  5
207
100
AcDbSymbolTableRecord
100
AcDbLayerTableRecord
  2
11_NOTES_PUB
 70
0
 62
7
  6
CONTINUOUS
370
-3
390
F
  0
LAYER
  5
208
100
AcDbSymbolTableRecord
100
AcDbLayerTableRecord
  2
13_REF_GTOL
 70
0
 62
7
  6
CONTINUOUS
370
-3
390
F
  0
LAYER
  5
209
100
AcDbSymbolTableRecord
100
AcDbLayerTableRecord
  2
16_MISC
 70
0
 62
7
  6
CONTINUOUS
370
-3
390
F
  0
LAYER
  5
20A
100
AcDbSymbolTableRecord
100
AcDbLayerTableRecord
  2
17_NO_PRINT
 70
0
 62
7
  6
CONTINUOUS
370
-3
390
F
  0
LAYER
  5
20B
100
AcDbSymbolTableRecord
100
AcDbLayerTableRecord
  2
18_DATUM_CAMS_JOINTS
 70
0
 62
7
  6
CONTINUOUS
370
-3
390
F
  0
LAYER
  5
20C
100
AcDbSymbolTableRecord
100
AcDbLayerTableRecord
  2
19_DATUM_FUNCTIONAL
 70
0
 62
7
  6
CONTINUOUS
370
-3
390
F
  0
LAYER
  5
20D
100
AcDbSymbolTableRecord
100
AcDbLayerTableRecord
  2
20_DATUM_KINEMATIC_SCHEME
 70
0
 62
7
  6
CONTINUOUS
370
-3
390
F
  0
ENDTAB
  0
TABLE
  2
STYLE
  5
3
100
AcDbSymbolTable
 70
1
  0
STYLE
  5
11
100
AcDbSymbolTableRecord
100
AcDbTextStyleTableRecord
  2
STANDARD
 70
0
 40
0.0
 41
1.0
 50
0.0
 71
0
 42
0.2
  3
ARIAL.TTF
  4

  0
STYLE
  5
20E
100
AcDbSymbolTableRecord
100
AcDbTextStyleTableRecord
  2
TEXTSTYLE_1
 70
0
 40
0.0
 41
0.8
 50
0.0
 71
0
 42
0.2
  3
gdt
  4

  0
ENDTAB
  0
TABLE
  2
VIEW
  5
6
100
AcDbSymbolTable
 70
0
  0
ENDTAB
  0
TABLE
  2
UCS
  5
7
100
AcDbSymbolTable
 70
0
  0
ENDTAB
  0
TABLE
  2
APPID
  5
9
100
AcDbSymbolTable
 70
1
  0
APPID
  5
20F
100
AcDbSymbolTableRecord
100
AcDbRegAppTableRecord
  2
ACAD
 70
0
  0
ENDTAB
  0
TABLE
  2
BLOCK_RECORD
  5
1
100
AcDbSymbolTable
 70
0
  0
BLOCK_RECORD
  5
210
100
AcDbSymbolTableRecord
100
AcDbBlockTableRecord
  2
*Model_Space
  0
BLOCK_RECORD
  5
211
100
AcDbSymbolTableRecord
100
AcDbBlockTableRecord
  2
*Paper_Space
  0
BLOCK_RECORD
  5
212
100
AcDbSymbolTableRecord
100
AcDbBlockTableRecord
  2
_FILLED
  0
ENDTAB
  0
TABLE
  2
DIMSTYLE
  5
A
100
AcDbSymbolTable
 70
1
100
AcDbDimStyleTable
 71
0
  0
DIMSTYLE
105
213
100
AcDbSymbolTableRecord
100
AcDbDimStyleTableRecord
  2
STANDARD
 70
0
  3

  4

 40
1.0
 41
1.8129235579
 42
1.0
 43
0.38
 44
1.0
 45
0.0
 46
0.0
 47
0.01
 48
0.01
140
2.538092981
141
0.09
142
0.0
143
25.4
144
1.0
145
0.0
146
1.0
147
0.625
 71
1
 72
0
 73
0
 74
0
 75
0
 76
0
 77
1
 78
8
 79
2
170
0
171
1
172
0
173
0
174
0
175
0
176
0
177
0
178
0
270
2
179
2
271
2
272
2
273
2
274
2
275
0
280
0
281
0
282
0
283
1
284
8
285
0
286
0
287
3
288
0
340
11
278
46
341
212
342
212
343
212
344
212
  0
ENDTAB
  0
ENDSEC
  0
SECTION
  2
BLOCKS
  0
BLOCK
  5
20
100
AcDbEntity
  8
0
100
AcDbBlockBegin
  2
*Model_Space
 70
0
 10
0.0
 20
0.0
 30
0.0
  3
*Model_Space
  1

  0
ENDBLK
  5
21
100
AcDbEntity
  8
0
100
AcDbBlockEnd
  0
BLOCK
  5
1C
100
AcDbEntity
  8
0
100
AcDbBlockBegin
  2
*Paper_Space
 70
0
 10
0.0
 20
0.0
 30
0.0
  3
*Paper_Space
  1

  0
ENDBLK
  5
1D
100
AcDbEntity
  8
0
100
AcDbBlockEnd
  0
BLOCK
  5
214
100
AcDbEntity
  8
0
100
AcDbBlockBegin
  2
_FILLED
 70
64
 10
0.0
 20
0.0
  3
_FILLED
  1

  0
SOLID
  5
215
100
AcDbEntity
  8
0
  6
BYBLOCK
 62
0
100
AcDbTrace
 10
0.0
 20
0.0
 11
-1.0
 21
0.25
 12
-1.0
 22
-0.25
 13
-1.0
 23
-0.25
  0
ENDBLK
  5
216
100
AcDbEntity
  8
0
  6
BYBLOCK
 62
0
100
AcDbBlockEnd
  0
ENDSEC
  0
SECTION
  2
ENTITIES
  0
LINE
  5
217
100
AcDbEntity
  8
0
100
AcDbLine
 62
7
  6
BYLAYER
 10
20.8517278359
 20
42.2662764686
 11
135.6517278359
 21
42.2662764686
  0
LINE
  5
218
100
AcDbEntity
  8
0
100
AcDbLine
 62
7
  6
BYLAYER
 10
17.7517278359
 20
105.9362764686
 11
17.7517278359
 21
122.8815625567
  0
LINE
  5
219
100
AcDbEntity
  8
0
100
AcDbLine
 62
7
  6
BYLAYER
 10
20.8517278359
 20
42.2662764686
 11
20.8517278359
 21
105.9362764686
  0
LINE
  5
21A
100
AcDbEntity
  8
0
100
AcDbLine
 62
7
  6
BYLAYER
 10
23.4367278359
 20
126.4410627205
 11
23.4367278359
 21
126.5198352206
  0
LINE
  5
21B
100
AcDbEntity
  8
0
100
AcDbLine
 62
7
  6
BYLAYER
 10
25.43737955
 20
127.2976937291
 11
25.43737955
 21
126.4931127276
  0
LINE
  5
21C
100
AcDbEntity
  8
0
100
AcDbLine
 62
7
  6
BYLAYER
 10
26.1444863312
 20
126.4927163467
 11
26.1444863312
 21
127.2976937291
  0
LINE
  5
21D
100
AcDbEntity
  8
0
100
AcDbLine
 62
7
  6
BYLAYER
 10
30.9517278359
 20
105.9362764686
 11
30.9517278359
 21
42.2662764686
  0
LINE
  5
21E
100
AcDbEntity
  8
0
100
AcDbLine
 62
7
  6
BYLAYER
 10
30.2717278359
 20
105.9362764686
 11
30.2755719884
 21
122.8816431916
  0
LINE
  5
21F
100
AcDbEntity
  8
0
100
AcDbLine
 62
7
  6
BYLAYER
 10
39.4367278359
 20
128.2629749711
 11
39.4367278359
 21
128.3362764686
  0
LINE
  5
220
100
AcDbEntity
  8
0
100
AcDbLine
 62
7
  6
BYLAYER
 10
48.2517278359
 20
128.3362764686
 11
48.2517278359
 21
132.6362764686
  0
LINE
  5
221
100
AcDbEntity
  8
0
100
AcDbLine
 62
7
  6
BYLAYER
 10
51.7517278359
 20
128.3362764686
 11
51.7517278359
 21
133.6362764686
  0
LINE
  5
222
100
AcDbEntity
  8
0
100
AcDbLine
 62
7
  6
BYLAYER
 10
58.5606299195
 20
155.0474825113
 11
58.4660053394
 21
171.7060755587
  0
LINE
  5
223
100
AcDbEntity
  8
0
100
AcDbLine
 62
7
  6
BYLAYER
 10
55.7517278359
 20
133.6362764686
 11
55.7517278359
 21
171.6362764686
  0
LINE
  5
224
100
AcDbEntity
  8
0
100
AcDbLine
 62
7
  6
BYLAYER
 10
58.4660053353
 20
173.6362764686
 11
58.4660053353
 21
171.7060755104
  0
LINE
  5
225
100
AcDbEntity
  8
0
100
AcDbLine
 62
7
  6
BYLAYER
 10
17.7517278359
 20
105.9362764686
 11
138.7517278359
 21
105.9362764686
  0
LINE
  5
226
100
AcDbEntity
  8
0
100
AcDbLine
 62
7
  6
BYLAYER
 10
91.7517278359
 20
171.1362764686
 11
91.7517278359
 21
173.6362764686
  0
LINE
  5
227
100
AcDbEntity
  8
0
100
AcDbLine
 62
7
  6
BYLAYER
 10
92.1517278359
 20
171.1362764686
 11
92.1517278359
 21
173.6362764686
  0
LINE
  5
228
100
AcDbEntity
  8
0
100
AcDbLine
 62
7
  6
BYLAYER
 10
126.2279170784
 20
122.8816587415
 11
30.2755719884
 21
122.8816431916
  0
LINE
  5
229
100
AcDbEntity
  8
0
100
AcDbLine
 62
7
  6
BYLAYER
 10
98.0374499319
 20
171.7060754731
 11
98.0374499319
 21
173.6362764686
  0
LINE
  5
22A
100
AcDbEntity
  8
0
100
AcDbLine
 62
7
  6
BYLAYER
 10
100.7517278359
 20
133.6362764686
 11
100.7517278359
 21
171.6362764686
  0
LINE
  5
22B
100
AcDbEntity
  8
0
100
AcDbLine
 62
7
  6
BYLAYER
 10
98.0374503389
 20
171.7060754843
 11
97.9428257523
 21
155.0474825082
  0
LINE
  5
22C
100
AcDbEntity
  8
0
100
AcDbLine
 62
7
  6
BYLAYER
 10
30.2133025547
 20
128.3362764686
 11
126.2901531172
 21
128.3362764686
  0
LINE
  5
22D
100
AcDbEntity
  8
0
100
AcDbLine
 62
7
  6
BYLAYER
 10
104.7517278359
 20
128.3362764686
 11
104.7517278359
 21
133.6362764686
  0
LINE
  5
22E
100
AcDbEntity
  8
0
100
AcDbLine
 62
7
  6
BYLAYER
 10
108.2517278359
 20
128.3362764686
 11
108.2517278359
 21
132.6362764686
  0
LINE
  5
22F
100
AcDbEntity
  8
0
100
AcDbLine
 62
7
  6
BYLAYER
 10
108.2517278359
 20
132.6362764686
 11
48.2517278359
 21
132.6362764686
  0
LINE
  5
230
100
AcDbEntity
  8
0
100
AcDbLine
 62
7
  6
BYLAYER
 10
49.2517278359
 20
133.6362764686
 11
107.2517278359
 21
133.6362764686
  0
LINE
  5
231
100
AcDbEntity
  8
0
100
AcDbLine
 62
7
  6
BYLAYER
 10
88.076212442
 20
140.9662764686
 11
68.4272432314
 21
140.9662764686
  0
LINE
  5
232
100
AcDbEntity
  8
0
100
AcDbLine
 62
7
  6
BYLAYER
 10
86.9846030361
 20
143.4662764686
 11
69.5188526381
 21
143.4662764686
  0
LINE
  5
233
100
AcDbEntity
  8
0
100
AcDbLine
 62
7
  6
BYLAYER
 10
117.0667278359
 20
128.2624518678
 11
117.0667278359
 21
128.3362764686
  0
LINE
  5
234
100
AcDbEntity
  8
0
100
AcDbLine
 62
7
  6
BYLAYER
 10
119.06737955
 20
127.5215175783
 11
119.06737955
 21
127.4540519182
  0
LINE
  5
235
100
AcDbEntity
  8
0
100
AcDbLine
 62
7
  6
BYLAYER
 10
119.7744863312
 20
127.247139733
 11
119.7744863312
 21
127.2976937291
  0
LINE
  5
236
100
AcDbEntity
  8
0
100
AcDbLine
 62
7
  6
BYLAYER
 10
126.2317278359
 20
105.9362764686
 11
126.2279170784
 21
122.8816587415
  0
LINE
  5
237
100
AcDbEntity
  8
0
100
AcDbLine
 62
7
  6
BYLAYER
 10
125.5517278359
 20
42.2662764686
 11
125.5517278359
 21
105.9362764686
  0
LINE
  5
238
100
AcDbEntity
  8
0
100
AcDbLine
 62
7
  6
BYLAYER
 10
58.5606299195
 20
155.0474825113
 11
97.9428257523
 21
155.0474825082
  0
LINE
  5
239
100
AcDbEntity
  8
0
100
AcDbLine
 62
7
  6
BYLAYER
 10
133.0667278359
 20
126.4095498493
 11
133.0667278359
 21
126.5198352206
  0
LINE
  5
23A
100
AcDbEntity
  8
0
100
AcDbLine
 62
7
  6
BYLAYER
 10
135.6517278359
 20
105.9362764686
 11
135.6517278359
 21
42.2662764686
  0
LINE
  5
23B
100
AcDbEntity
  8
0
100
AcDbLine
 62
7
  6
BYLAYER
 10
138.7517278359
 20
105.9362764686
 11
138.7517278359
 21
122.881617854
  0
LINE
  5
23C
100
AcDbEntity
  8
0
100
AcDbLine
 62
7
  6
BYLAYER
 10
91.7517278359
 20
171.1362764686
 11
92.1517278359
 21
171.1362764686
  0
LINE
  5
23D
100
AcDbEntity
  8
0
100
AcDbLine
 62
7
  6
BYLAYER
 10
100.7517278359
 20
171.6362764686
 11
100.51076679
 21
171.6362764686
  0
LINE
  5
23E
100
AcDbEntity
  8
0
100
AcDbLine
 62
7
  6
BYLAYER
 10
55.9926888807
 20
171.6362764686
 11
55.7517278359
 21
171.6362764686
  0
LINE
  5
23F
100
AcDbEntity
  8
0
100
AcDbLine
 62
7
  6
BYLAYER
 10
98.0374503389
 20
171.7060754843
 11
92.1517278359
 21
171.706075462
  0
LINE
  5
240
100
AcDbEntity
  8
0
100
AcDbLine
 62
7
  6
BYLAYER
 10
91.7517278359
 20
171.7060754621
 11
58.4660053394
 21
171.7060755587
  0
LINE
  5
241
100
AcDbEntity
  8
0
100
AcDbLine
 62
7
  6
BYLAYER
 10
57.7517742769
 20
173.6362764686
 11
98.7516813952
 21
173.6362764686
  0
ARC
  5
242
100
AcDbEntity
  8
0
100
AcDbCircle
 62
7
  6
BYLAYER
 10
123.9295873176
 20
105.9808810343
 40
22.4796791774
100
AcDbArc
 50
48.7485626344
 51
83.9723221675
  0
ARC
  5
243
100
AcDbEntity
  8
0
100
AcDbCircle
 62
7
  6
BYLAYER
 10
32.5738683542
 20
105.9808810343
 40
22.4796791774
100
AcDbArc
 50
96.0276778325
 51
131.2514384217
  0
ARC
  5
244
100
AcDbEntity
  8
0
100
AcDbCircle
 62
7
  6
BYLAYER
 10
125.068398415
 20
144.761930521
 40
18.2417504162
100
AcDbArc
 50
269.9872547743
 51
270.9830862579
  0
ARC
  5
245
100
AcDbEntity
  8
0
100
AcDbCircle
 62
7
  6
BYLAYER
 10
125.0677484911
 20
144.6322066914
 40
18.1120264559
100
AcDbArc
 50
268.3689091868
 51
269.9892194653
  0
ARC
  5
246
100
AcDbEntity
  8
0
100
AcDbCircle
 62
7
  6
BYLAYER
 10
31.4367539859
 20
144.3631715455
 40
17.9563861541
100
AcDbArc
 50
268.9947654247
 51
269.9999165599
  0
ARC
  5
247
100
AcDbEntity
  8
0
100
AcDbCircle
 62
7
  6
BYLAYER
 10
125.0666944251
 20
144.3622524233
 40
17.9554670318
100
AcDbArc
 50
270.0001066135
 51
271.0053270489
  0
ARC
  5
248
100
AcDbEntity
  8
0
100
AcDbCircle
 62
7
  6
BYLAYER
 10
31.4166721019
 20
144.4452106158
 40
17.9252489207
100
AcDbArc
 50
269.0582459369
 51
270.0874764631
  0
ARC
  5
249
100
AcDbEntity
  8
0
100
AcDbCircle
 62
7
  6
BYLAYER
 10
118.052642622
 20
130.033963513
 40
2.0480908742
100
AcDbArc
 50
237.9706172053
 51
239.3237142
  0
ARC
  5
24A
100
AcDbEntity
  8
0
100
AcDbCircle
 62
7
  6
BYLAYER
 10
38.4621260997
 20
130.0157738629
 40
2.0266658652
100
AcDbArc
 50
300.7145674387
 51
302.0703415231
  0
ARC
  5
24B
100
AcDbEntity
  8
0
100
AcDbCircle
 62
7
  6
BYLAYER
 10
98.7517278359
 20
171.6362764686
 40
2.0
100
AcDbArc
 50
0.0
 51
90.0
  0
ARC
  5
24C
100
AcDbEntity
  8
0
100
AcDbCircle
 62
7
  6
BYLAYER
 10
57.7517278359
 20
171.6362764686
 40
2.0
100
AcDbArc
 50
90.0
 51
180.0
  0
ARC
  5
24D
100
AcDbEntity
  8
0
100
AcDbCircle
 62
7
  6
BYLAYER
 10
98.5317260031
 20
171.6862821269
 40
1.9499946949
100
AcDbArc
 50
83.9695277672
 51
89.9868327316
  0
ARC
  5
24E
100
AcDbEntity
  8
0
100
AcDbCircle
 62
7
  6
BYLAYER
 10
57.9717513739
 20
171.6875933569
 40
1.94868065
100
AcDbArc
 50
90.0138565112
 51
95.9875432118
  0
ARC
  5
24F
100
AcDbEntity
  8
0
100
AcDbCircle
 62
7
  6
BYLAYER
 10
49.2517278359
 20
132.6362764686
 40
1.0
100
AcDbArc
 50
90.0
 51
180.0
  0
ARC
  5
250
100
AcDbEntity
  8
0
100
AcDbCircle
 62
7
  6
BYLAYER
 10
107.2517278359
 20
132.6362764686
 40
1.0
100
AcDbArc
 50
0.0
 51
90.0
  0
SPLINE
  5
251
100
AcDbEntity
  8
0
100
AcDbSpline
 62
7
  6
BYLAYER
 70
0
 71
3
 72
14
 73
10
 74
0
 42
0.0000001
 43
0.0000001
 44
0.0000000001
 40
0.0
 40
0.0
 40
0.0
 40
0.0
 40
0.3336151833
 40
0.488760669
 40
0.6307675236
 40
0.7562055416
 40
0.8617114816
 40
0.9440092832
 40
1.0
 40
1.0
 40
1.0
 40
1.0
 10
31.4367278359
 20
126.4067853915
 30
0.0
 10
32.3646289703
 20
126.4067853915
 30
0.0
 10
33.7268930932
 20
126.5138430646
 30
0.0
 10
35.4512828031
 20
126.8410086463
 30
0.0
 10
36.5905778382
 20
127.1333100946
 30
0.0
 10
37.5795908374
 20
127.4475163494
 30
0.0
 10
38.3960928954
 20
127.7528553123
 30
0.0
 10
39.0182483068
 20
128.0225224658
 30
0.0
 10
39.3634320059
 20
128.193783127
 30
0.0
 10
39.4972690348
 20
128.2734037435
 30
0.0
  0
SPLINE
  5
252
100
AcDbEntity
  8
0
100
AcDbSpline
 62
7
  6
BYLAYER
 70
0
 71
3
 72
9
 73
5
 74
0
 42
0.0000001
 43
0.0000001
 44
0.0000000001
 40
0.0
 40
0.0
 40
0.0
 40
0.0
 40
0.2694594896
 40
1.0
 40
1.0
 40
1.0
 40
1.0
 10
39.5382046192
 20
128.298383532
 30
0.0
 10
39.5434320196
 20
128.3016632515
 30
0.0
 10
39.5627655037
 20
128.3139387755
 30
0.0
 10
39.5818308866
 20
128.3266437752
 30
0.0
 10
39.5955102562
 20
128.3362764686
 30
0.0
  0
SPLINE
  5
253
100
AcDbEntity
  8
0
100
AcDbSpline
 62
7
  6
BYLAYER
 70
0
 71
3
 72
9
 73
5
 74
0
 42
0.0000001
 43
0.0000001
 44
0.0000000001
 40
0.0
 40
0.0
 40
0.0
 40
0.0
 40
0.230233563
 40
1.0
 40
1.0
 40
1.0
 40
1.0
 10
116.9079454156
 20
128.3362764686
 30
0.0
 10
116.9123439547
 20
128.3331791199
 30
0.0
 10
116.9315634906
 20
128.319889176
 30
0.0
 10
116.95118645
 20
128.307189007
 30
0.0
 10
116.9664292377
 20
128.2976407571
 30
0.0
  0
SPLINE
  5
254
100
AcDbEntity
  8
0
100
AcDbSpline
 62
7
  6
BYLAYER
 70
0
 71
3
 72
11
 73
7
 74
0
 42
0.0000001
 43
0.0000001
 44
0.0000000001
 40
0.0
 40
0.0
 40
0.0
 40
0.0
 40
0.1539655317
 40
0.3770579771
 40
0.6617273209
 40
1.0
 40
1.0
 40
1.0
 40
1.0
 10
117.0077333053
 20
128.2724752931
 30
0.0
 10
117.1313505724
 20
128.1990465623
 30
0.0
 10
117.4466451161
 20
128.0409814433
 30
0.0
 10
118.0124344654
 20
127.7924188543
 30
0.0
 10
118.7505801401
 20
127.5096981798
 30
0.0
 10
119.3031278492
 20
127.326945581
 30
0.0
 10
119.6053593269
 20
127.2350383953
 30
0.0
  0
SPLINE
  5
255
100
AcDbEntity
  8
0
100
AcDbSpline
 62
7
  6
BYLAYER
 70
0
 71
3
 72
9
 73
5
 74
0
 42
0.0000001
 43
0.0000001
 44
0.0000000001
 40
0.0
 40
0.0
 40
0.0
 40
0.0
 40
0.467167851
 40
1.0
 40
1.0
 40
1.0
 40
1.0
 10
119.6053593269
 20
127.2350383953
 30
0.0
 10
120.4305621789
 20
126.9840980486
 30
0.0
 10
122.233601276
 20
126.5611094748
 30
0.0
 10
124.0829801057
 20
126.4067853915
 30
0.0
 10
125.0667278359
 20
126.4067853915
 30
0.0
  0
SPLINE
  5
256
100
AcDbEntity
  8
0
100
AcDbSpline
 62
7
  6
BYLAYER
 70
0
 71
3
 72
11
 73
7
 74
0
 42
0.0000001
 43
0.0000001
 44
0.0000000001
 40
0.0
 40
0.0
 40
0.0
 40
0.0
 40
0.3158104604
 40
0.6025473806
 40
0.8369492431
 40
1.0
 40
1.0
 40
1.0
 40
1.0
 10
125.3817302759
 20
126.4095492295
 30
0.0
 10
126.1520012274
 20
126.4230652988
 30
0.0
 10
127.6215052196
 20
126.4549339101
 30
0.0
 10
129.6628802306
 20
126.4919084365
 30
0.0
 10
131.3318807514
 20
126.4993996753
 30
0.0
 10
132.3015466124
 20
126.4827469161
 30
0.0
 10
132.6988866386
 20
126.4647633388
 30
0.0
  0
SPLINE
  5
257
100
AcDbEntity
  8
0
100
AcDbSpline
 62
7
  6
BYLAYER
 70
0
 71
3
 72
9
 73
5
 74
0
 42
0.0000001
 43
0.0000001
 44
0.0000000001
 40
0.0
 40
0.0
 40
0.0
 40
0.0
 40
0.6040331379
 40
1.0
 40
1.0
 40
1.0
 40
1.0
 10
132.6988866386
 20
126.4647633388
 30
0.0
 10
132.8033754207
 20
126.460034185
 30
0.0
 10
132.9762651226
 20
126.4505930265
 30
0.0
 10
133.1489596483
 20
126.4364823918
 30
0.0
 10
133.2169770373
 20
126.4278219982
 30
0.0
  0
SPLINE
  5
258
100
AcDbEntity
  8
0
100
AcDbSpline
 62
7
  6
BYLAYER
 70
0
 71
3
 72
9
 73
5
 74
0
 42
0.0000001
 43
0.0000001
 44
0.0000000001
 40
0.0
 40
0.0
 40
0.0
 40
0.0
 40
0.6456358345
 40
1.0
 40
1.0
 40
1.0
 40
1.0
 10
133.2169770373
 20
126.4278219982
 30
0.0
 10
133.2373941089
 20
126.4252223707
 30
0.0
 10
133.2687011382
 20
126.4203340338
 30
0.0
 10
133.3004458359
 20
126.4142648948
 30
0.0
 10
133.3107113444
 20
126.4095497576
 30
0.0
  0
SPLINE
  5
259
100
AcDbEntity
  8
0
100
AcDbSpline
 62
7
  6
BYLAYER
 70
0
 71
3
 72
9
 73
5
 74
0
 42
0.0000001
 43
0.0000001
 44
0.0000000001
 40
0.0
 40
0.0
 40
0.0
 40
0.0
 40
0.2705993036
 40
1.0
 40
1.0
 40
1.0
 40
1.0
 10
31.1217471184
 20
126.4095485655
 30
0.0
 10
30.6715329103
 20
126.4174475913
 30
0.0
 10
29.0078550874
 20
126.4505997565
 30
0.0
 10
27.3441141907
 20
126.4868510596
 30
0.0
 10
26.1303946088
 20
126.4938256797
 30
0.0
  0
SPLINE
  5
25A
100
AcDbEntity
  8
0
100
AcDbSpline
 62
7
  6
BYLAYER
 70
0
 71
3
 72
10
 73
6
 74
0
 42
0.0000001
 43
0.0000001
 44
0.0000000001
 40
0.0
 40
0.0
 40
0.0
 40
0.0
 40
0.6203536119
 40
0.8429681207
 40
1.0
 40
1.0
 40
1.0
 40
1.0
 10
26.1303946088
 20
126.4938256797
 30
0.0
 10
25.5799571908
 20
126.4969887594
 30
0.0
 10
24.831842764
 20
126.4965088823
 30
0.0
 10
23.9448419945
 20
126.4724236876
 30
0.0
 10
23.6083076362
 20
126.4557717977
 30
0.0
 10
23.4693672233
 20
126.4452785229
 30
0.0
  0
SPLINE
  5
25B
100
AcDbEntity
  8
0
100
AcDbSpline
 62
7
  6
BYLAYER
 70
0
 71
3
 72
11
 73
7
 74
0
 42
0.0000001
 43
0.0000001
 44
0.0000000001
 40
0.0
 40
0.0
 40
0.0
 40
0.0
 40
0.3860050433
 40
0.6816311575
 40
0.8862836237
 40
1.0
 40
1.0
 40
1.0
 40
1.0
 10
23.4693672233
 20
126.4452785229
 30
0.0
 10
23.4335231464
 20
126.4425714505
 30
0.0
 10
23.3703085928
 20
126.4372363326
 30
0.0
 10
23.2880824015
 20
126.4286155392
 30
0.0
 10
23.2318205212
 20
126.4198234937
 30
0.0
 10
23.2023668767
 20
126.4139685959
 30
0.0
 10
23.1927435683
 20
126.4095489721
 30
0.0
  0
SPLINE
  5
25C
100
AcDbEntity
  8
0
100
AcDbSpline
 62
7
  6
BYLAYER
 70
0
 71
3
 72
11
 73
7
 74
0
 42
0.0000001
 43
0.0000001
 44
0.0000000001
 40
0.0
 40
0.0
 40
0.0
 40
0.0
 40
0.2511379413
 40
0.5015231576
 40
0.7510117204
 40
1.0
 40
1.0
 40
1.0
 40
1.0
 10
55.9927249824
 20
171.6363044968
 30
0.0
 10
55.992727305
 20
171.8795050761
 30
0.0
 10
56.0821253703
 20
172.3697960355
 30
0.0
 10
56.4680065326
 20
173.0047534562
 30
0.0
 10
57.0532587824
 20
173.4596338148
 30
0.0
 10
57.5286725711
 20
173.600530653
 30
0.0
 10
57.7684801305
 20
173.6256431699
 30
0.0
  0
SPLINE
  5
25D
100
AcDbEntity
  8
0
100
AcDbSpline
 62
7
  6
BYLAYER
 70
0
 71
3
 72
13
 73
9
 74
0
 42
0.0000001
 43
0.0000001
 44
0.0000000001
 40
0.0
 40
0.0
 40
0.0
 40
0.0
 40
0.3521420809
 40
0.6601102615
 40
0.7851817516
 40
0.8854409071
 40
0.957796483
 40
1.0
 40
1.0
 40
1.0
 40
1.0
 10
58.4660051761
 20
171.7060643399
 30
0.0
 10
58.1754138603
 20
171.7048932151
 30
0.0
 10
57.6307010036
 20
171.6999913502
 30
0.0
 10
56.9828274898
 20
171.6876473047
 30
0.0
 10
56.5429983781
 20
171.673447334
 30
0.0
 10
56.2974868714
 20
171.6630034496
 30
0.0
 10
56.1207342342
 20
171.6512468554
 30
0.0
 10
56.0263386506
 20
171.6428424252
 30
0.0
 10
55.9921363206
 20
171.6362754562
 30
0.0
  0
SPLINE
  5
25E
100
AcDbEntity
  8
0
100
AcDbSpline
 62
7
  6
BYLAYER
 70
0
 71
3
 72
11
 73
7
 74
0
 42
0.0000001
 43
0.0000001
 44
0.0000000001
 40
0.0
 40
0.0
 40
0.0
 40
0.0
 40
0.2819866168
 40
0.5423784132
 40
0.7800872226
 40
1.0
 40
1.0
 40
1.0
 40
1.0
 10
125.8239397736
 20
124.8373540102
 30
0.0
 10
126.7446383418
 20
125.2577990745
 30
0.0
 10
128.5909485444
 20
125.9180495108
 30
0.0
 10
131.3927430416
 20
126.2841110996
 30
0.0
 10
133.9810340275
 20
125.9524654531
 30
0.0
 10
135.5054935941
 20
125.2670792707
 30
0.0
 10
136.1676183204
 20
124.8373540103
 30
0.0
  0
SPLINE
  5
25F
100
AcDbEntity
  8
0
100
AcDbSpline
 62
7
  6
BYLAYER
 70
0
 71
3
 72
13
 73
9
 74
0
 42
0.0000001
 43
0.0000001
 44
0.0000000001
 40
0.0
 40
0.0
 40
0.0
 40
0.0
 40
0.3282437764
 40
0.6426807899
 40
0.7741738498
 40
0.8797710592
 40
0.9551076495
 40
1.0
 40
1.0
 40
1.0
 40
1.0
 10
58.5606298433
 20
155.0474825156
 30
0.0
 10
58.291037052
 20
155.0458104631
 30
0.0
 10
57.7632141331
 20
155.0395578503
 30
0.0
 10
57.1274873068
 20
155.0244136755
 30
0.0
 10
56.6748758911
 20
155.0064124151
 30
0.0
 10
56.4185544738
 20
154.9929228559
 30
0.0
 10
56.2337393767
 20
154.9783975504
 30
0.0
 10
56.1353801919
 20
154.9675548555
 30
0.0
 10
56.0992426803
 20
154.960233776
 30
0.0
  0
SPLINE
  5
260
100
AcDbEntity
  8
0
100
AcDbSpline
 62
7
  6
BYLAYER
 70
0
 71
3
 72
14
 73
10
 74
0
 42
0.0000001
 43
0.0000001
 44
0.0000000001
 40
0.0
 40
0.0
 40
0.0
 40
0.0
 40
0.0694764941
 40
0.1525580858
 40
0.2564823452
 40
0.3823021184
 40
0.5273264069
 40
0.6842751641
 40
1.0
 40
1.0
 40
1.0
 40
1.0
 10
69.5188494087
 20
143.4662764687
 30
0.0
 10
69.4511151698
 20
143.4662764691
 30
0.0
 10
69.3013447582
 20
143.4322193633
 30
0.0
 10
69.0927188197
 20
143.2862541433
 30
0.0
 10
68.9006465678
 20
143.0457716387
 30
0.0
 10
68.7301843967
 20
142.7207664116
 30
0.0
 10
68.5944849505
 20
142.3250525092
 30
0.0
 10
68.4628819047
 20
141.736602458
 30
0.0
 10
68.4272394955
 20
141.2740839038
 30
0.0
 10
68.427239482
 20
140.9662764686
 30
0.0
  0
SPLINE
  5
261
100
AcDbEntity
  8
0
100
AcDbSpline
 62
7
  6
BYLAYER
 70
0
 71
3
 72
21
 73
17
 74
0
 42
0.0000001
 43
0.0000001
 44
0.0000000001
 40
0.0
 40
0.0
 40
0.0
 40
0.0
 40
0.1465772666
 40
0.2166402636
 40
0.2833132187
 40
0.3459730023
 40
0.4044559217
 40
0.4591886409
 40
0.5113722371
 40
0.5627578715
 40
0.615242894
 40
0.6703506282
 40
0.7289665912
 40
0.7914045939
 40
0.8576190122
 40
1.0
 40
1.0
 40
1.0
 40
1.0
 10
97.9428292252
 20
155.0474824837
 30
0.0
 10
97.9358108921
 20
154.1122923932
 30
0.0
 10
97.8935312886
 20
152.7295159455
 30
0.0
 10
97.7349997083
 20
150.9282916694
 30
0.0
 10
97.5535711342
 20
149.6681590963
 30
0.0
 10
97.2914902866
 20
148.4972189164
 30
0.0
 10
96.9304172096
 20
147.4316506038
 30
0.0
 10
96.4493896402
 20
146.4873363354
 30
0.0
 10
95.8376903916
 20
145.6759643056
 30
0.0
 10
95.088087209
 20
145.010853596
 30
0.0
 10
94.2125207516
 20
144.4883693041
 30
0.0
 10
93.2221540103
 20
144.0989194905
 30
0.0
 10
92.1306437647
 20
143.8217724822
 30
0.0
 10
90.948779453
 20
143.6376958679
 30
0.0
 10
89.2251083133
 20
143.4880605404
 30
0.0
 10
87.8930469626
 20
143.4662896293
 30
0.0
 10
86.9846043263
 20
143.4662764686
 30
0.0
  0
SPLINE
  5
262
100
AcDbEntity
  8
0
100
AcDbSpline
 62
7
  6
BYLAYER
 70
0
 71
3
 72
21
 73
17
 74
0
 42
0.0000001
 43
0.0000001
 44
0.0000000001
 40
0.0
 40
0.0
 40
0.0
 40
0.0
 40
0.1423089754
 40
0.2084953739
 40
0.2709103614
 40
0.3295047059
 40
0.3845934094
 40
0.4370634325
 40
0.488437783
 40
0.540613616
 40
0.5953441748
 40
0.6538357494
 40
0.7165144802
 40
0.7832157157
 40
0.8533267185
 40
1.0
 40
1.0
 40
1.0
 40
1.0
 10
69.5188502639
 20
143.4662764686
 30
0.0
 10
68.6108675484
 20
143.4662906212
 30
0.0
 10
67.2794472449
 20
143.4880366861
 30
0.0
 10
65.5565518907
 20
143.637498463
 30
0.0
 10
64.3751236904
 20
143.8213327932
 30
0.0
 10
63.2839390231
 20
144.0980862508
 30
0.0
 10
62.2937600776
 20
144.4870189269
 30
0.0
 10
61.4181717995
 20
145.0088824238
 30
0.0
 10
60.6683009193
 20
145.673347928
 30
0.0
 10
60.0560684627
 20
146.4841457794
 30
0.0
 10
59.574435089
 20
147.4281561311
 30
0.0
 10
59.2128977171
 20
148.493748759
 30
0.0
 10
58.950433055
 20
149.6649705603
 30
0.0
 10
58.7686784935
 20
150.9256724105
 30
0.0
 10
58.6099088683
 20
152.7279820532
 30
0.0
 10
58.5676550136
 20
154.1116803119
 30
0.0
 10
58.5606235384
 20
155.0474824619
 30
0.0
  0
SPLINE
  5
263
100
AcDbEntity
  8
0
100
AcDbSpline
 62
7
  6
BYLAYER
 70
0
 71
3
 72
11
 73
7
 74
0
 42
0.0000001
 43
0.0000001
 44
0.0000000001
 40
0.0
 40
0.0
 40
0.0
 40
0.0
 40
0.3509534817
 40
0.6394649305
 40
0.8578784201
 40
1.0
 40
1.0
 40
1.0
 40
1.0
 10
119.06737955
 20
127.5215175783
 30
0.0
 10
118.8372379772
 20
127.5993875821
 30
0.0
 10
118.4207098108
 20
127.7495989193
 30
0.0
 10
117.8702644526
 20
127.9735149429
 30
0.0
 10
117.4629726142
 20
128.1627963893
 30
0.0
 10
117.2421001963
 20
128.2808212756
 30
0.0
 10
117.1608293682
 20
128.3362764686
 30
0.0
  0
SPLINE
  5
264
100
AcDbEntity
  8
0
100
AcDbSpline
 62
7
  6
BYLAYER
 70
0
 71
3
 72
29
 73
25
 74
0
 42
0.0000001
 43
0.0000001
 44
0.0000000001
 40
0.0
 40
0.0
 40
0.0
 40
0.0
 40
0.1950894276
 40
0.3827336917
 40
0.4714359576
 40
0.5555936435
 40
0.6344030886
 40
0.7071130811
 40
0.7730137014
 40
0.8314751156
 40
0.881920883
 40
0.9039896786
 40
0.9238802846
 40
0.9415438411
 40
0.9569425317
 40
0.9700393151
 40
0.9807971819
 40
0.9891872616
 40
0.9924894749
 40
0.9951940745
 40
0.9972992477
 40
0.9988031689
 40
0.9997040071
 40
1.0
 40
1.0
 40
1.0
 40
1.0
 10
126.2279171114
 20
122.8816587415
 30
0.0
 10
127.0424123022
 20
122.8812587177
 30
0.0
 10
128.6403163475
 20
122.89134721
 30
0.0
 10
130.6084301232
 20
122.9129472229
 30
0.0
 10
132.1134536906
 20
122.9281470743
 30
0.0
 10
133.1641324407
 20
122.9370505165
 30
0.0
 10
134.1480656709
 20
122.942761568
 30
0.0
 10
135.0557909316
 20
122.9448838492
 30
0.0
 10
135.8785648284
 20
122.9431028379
 30
0.0
 10
136.6083688315
 20
122.9377429735
 30
0.0
 10
137.1551451839
 20
122.9302959633
 30
0.0
 10
137.5408663134
 20
122.9229428868
 30
0.0
 10
137.7897258422
 20
122.9172417936
 30
0.0
 10
138.0107253146
 20
122.9112592891
 30
0.0
 10
138.2033374804
 20
122.9052352483
 30
0.0
 10
138.3671372336
 20
122.8993740993
 30
0.0
 10
138.5015887862
 20
122.8939548048
 30
0.0
 10
138.5953574422
 20
122.8895875863
 30
0.0
 10
138.6551800009
 20
122.8867201016
 30
0.0
 10
138.6894432986
 20
122.8847182041
 30
0.0
 10
138.7146243539
 20
122.8839376633
 30
0.0
 10
138.7360048279
 20
122.8814696725
 30
0.0
 10
138.7427521659
 20
122.8833693506
 30
0.0
 10
138.7523768464
 20
122.8805494627
 30
0.0
 10
138.7517273845
 20
122.8816008028
 30
0.0
  0
SPLINE
  5
265
100
AcDbEntity
  8
0
100
AcDbSpline
 62
7
  6
BYLAYER
 70
0
 71
3
 72
13
 73
9
 74
0
 42
0.0000001
 43
0.0000001
 44
0.0000000001
 40
0.0
 40
0.0
 40
0.0
 40
0.0
 40
0.3282438024
 40
0.6426808201
 40
0.7741738736
 40
0.8797710738
 40
0.9551076553
 40
1.0
 40
1.0
 40
1.0
 40
1.0
 10
97.9428258042
 20
155.0474825028
 30
0.0
 10
98.2124186195
 20
155.0458104502
 30
0.0
 10
98.7402415686
 20
155.0395578368
 30
0.0
 10
99.3759684208
 20
155.0244136603
 30
0.0
 10
99.8285798317
 20
155.0064123986
 30
0.0
 10
100.0849012315
 20
154.992922839
 30
0.0
 10
100.2697163108
 20
154.9783975339
 30
0.0
 10
100.3680754844
 20
154.9675548392
 30
0.0
 10
100.4042129917
 20
154.9602337603
 30
0.0
  0
SPLINE
  5
266
100
AcDbEntity
  8
0
100
AcDbSpline
 62
7
  6
BYLAYER
 70
0
 71
3
 72
14
 73
10
 74
0
 42
0.0000001
 43
0.0000001
 44
0.0000000001
 40
0.0
 40
0.0
 40
0.0
 40
0.0
 40
0.315724825
 40
0.4726735856
 40
0.617697882
 40
0.7435176635
 40
0.8474419268
 40
0.9305235146
 40
1.0
 40
1.0
 40
1.0
 40
1.0
 10
88.0762124077
 20
140.9662764686
 30
0.0
 10
88.0762124078
 20
141.2740838633
 30
0.0
 10
88.0405700418
 20
141.7366023652
 30
0.0
 10
87.9089670991
 20
142.3250523791
 30
0.0
 10
87.7732677397
 20
142.7207662875
 30
0.0
 10
87.6028056578
 20
143.0457715424
 30
0.0
 10
87.4107334907
 20
143.2862540857
 30
0.0
 10
87.2021076203
 20
143.4322193484
 30
0.0
 10
87.0523372355
 20
143.4662764686
 30
0.0
 10
86.9846030117
 20
143.4662764686
 30
0.0
  0
SPLINE
  5
267
100
AcDbEntity
  8
0
100
AcDbSpline
 62
7
  6
BYLAYER
 70
0
 71
3
 72
21
 73
17
 74
0
 42
0.0000001
 43
0.0000001
 44
0.0000000001
 40
0.0
 40
0.0
 40
0.0
 40
0.0
 40
0.1558453552
 40
0.2296360486
 40
0.2991750696
 40
0.3637969903
 40
0.4233671634
 40
0.4784160585
 40
0.5301930759
 40
0.5805077062
 40
0.6312960195
 40
0.6841849909
 40
0.740213728
 40
0.7998660689
 40
0.8632054136
 40
1.0
 40
1.0
 40
1.0
 40
1.0
 10
100.4042129919
 20
154.9602337664
 30
0.0
 10
100.3960966276
 20
153.7983631576
 30
0.0
 10
100.3467290531
 20
152.0856563692
 30
0.0
 10
100.1577831533
 20
149.8625381854
 30
0.0
 10
99.9438432589
 20
148.3259522784
 30
0.0
 10
99.6371918216
 20
146.9126191454
 30
0.0
 10
99.2183405229
 20
145.6402478256
 30
0.0
 10
98.6690579246
 20
144.5223064029
 30
0.0
 10
97.9756931843
 20
143.5696869412
 30
0.0
 10
97.1356501923
 20
142.7886937673
 30
0.0
 10
96.1569516523
 20
142.1768206218
 30
0.0
 10
95.0536921148
 20
141.7176334003
 30
0.0
 10
93.837456554
 20
141.3904586932
 30
0.0
 10
92.5192697233
 20
141.1716271728
 30
0.0
 10
90.5896416954
 20
140.992411388
 30
0.0
 10
89.0960791368
 20
140.9662848152
 30
0.0
 10
88.076212442
 20
140.9662764686
 30
0.0
  0
SPLINE
  5
268
100
AcDbEntity
  8
0
100
AcDbSpline
 62
7
  6
BYLAYER
 70
0
 71
3
 72
13
 73
9
 74
0
 42
0.0000001
 43
0.0000001
 44
0.0000000001
 40
0.0
 40
0.0
 40
0.0
 40
0.0
 40
0.0422029157
 40
0.1145574471
 40
0.2148151256
 40
0.3398845216
 40
0.6478505001
 40
1.0
 40
1.0
 40
1.0
 40
1.0
 10
100.5112109168
 20
171.6362729212
 30
0.0
 10
100.4770106685
 20
171.6428400195
 30
0.0
 10
100.3826204981
 20
171.6512438751
 30
0.0
 10
100.205878247
 20
171.6630003624
 30
0.0
 10
99.9603812646
 20
171.6734436019
 30
0.0
 10
99.5205762129
 20
171.6876441165
 30
0.0
 10
98.8727284763
 20
171.6999883852
 30
0.0
 10
98.3280351697
 20
171.704892605
 30
0.0
 10
98.0374504457
 20
171.7060636381
 30
0.0
  0
SPLINE
  5
269
100
AcDbEntity
  8
0
100
AcDbSpline
 62
7
  6
BYLAYER
 70
0
 71
3
 72
11
 73
7
 74
0
 42
0.0000001
 43
0.0000001
 44
0.0000000001
 40
0.0
 40
0.0
 40
0.0
 40
0.0
 40
0.248870153
 40
0.4983137902
 40
0.7487816559
 40
1.0
 40
1.0
 40
1.0
 40
1.0
 10
98.7365873285
 20
173.6254858676
 30
0.0
 10
98.9761362603
 20
173.6002176879
 30
0.0
 10
99.4510230642
 20
173.4591233396
 30
0.0
 10
100.0357713603
 20
173.0043993235
 30
0.0
 10
100.4213911198
 20
172.3696057987
 30
0.0
 10
100.5107564286
 20
171.8794201526
 30
0.0
 10
100.5107554845
 20
171.636269453
 30
0.0
  0
SPLINE
  5
26A
100
AcDbEntity
  8
0
100
AcDbSpline
 62
7
  6
BYLAYER
 70
0
 71
3
 72
9
 73
5
 74
0
 42
0.0000001
 43
0.0000001
 44
0.0000000001
 40
0.0
 40
0.0
 40
0.0
 40
0.0
 40
0.2724396155
 40
1.0
 40
1.0
 40
1.0
 40
1.0
 10
125.8239356617
 20
124.837353741
 30
0.0
 10
125.7895471317
 20
124.9816553273
 30
0.0
 10
125.658437027
 20
125.510097301
 30
0.0
 10
125.508301809
 20
126.0341590023
 30
0.0
 10
125.3817296793
 20
126.4095493087
 30
0.0
  0
SPLINE
  5
26B
100
AcDbEntity
  8
0
100
AcDbSpline
 62
7
  6
BYLAYER
 70
0
 71
3
 72
15
 73
11
 74
0
 42
0.0000001
 43
0.0000001
 44
0.0000000001
 40
0.0
 40
0.0
 40
0.0
 40
0.0
 40
0.0200749549
 40
0.0478304409
 40
0.1249435923
 40
0.2280306657
 40
0.3534258088
 40
0.4973749572
 40
0.6560863484
 40
1.0
 40
1.0
 40
1.0
 40
1.0
 10
39.3426263036
 20
128.3362764686
 30
0.0
 10
39.2974365006
 20
128.3054411824
 30
0.0
 10
39.1846723197
 20
128.2396124473
 30
0.0
 10
38.8814669213
 20
128.0846484057
 30
0.0
 10
38.3615923206
 20
127.857772537
 30
0.0
 10
37.582400916
 20
127.5631204193
 30
0.0
 10
36.6152291134
 20
127.2537127979
 30
0.0
 10
35.4851858555
 20
126.9612012942
 30
0.0
 10
33.7539821807
 20
126.6284963886
 30
0.0
 10
32.3812623323
 20
126.5213886109
 30
0.0
 10
31.4440395063
 20
126.5199825867
 30
0.0
  0
SPLINE
  5
26C
100
AcDbEntity
  8
0
100
AcDbSpline
 62
7
  6
BYLAYER
 70
0
 71
3
 72
9
 73
5
 74
0
 42
0.0000001
 43
0.0000001
 44
0.0000000001
 40
0.0
 40
0.0
 40
0.0
 40
0.0
 40
0.2714651108
 40
1.0
 40
1.0
 40
1.0
 40
1.0
 10
31.1220532654
 20
126.5223830317
 30
0.0
 10
30.6654393494
 20
126.5299012299
 30
0.0
 10
28.9848203028
 20
126.6247081706
 30
0.0
 10
27.3198883559
 20
126.9505699755
 30
0.0
 10
26.1444863312
 20
127.2976937291
 30
0.0
  0
SPLINE
  5
26D
100
AcDbEntity
  8
0
100
AcDbSpline
 62
7
  6
BYLAYER
 70
0
 71
3
 72
9
 73
5
 74
0
 42
0.0000001
 43
0.0000001
 44
0.0000000001
 40
0.0
 40
0.0
 40
0.0
 40
0.0
 40
0.2274378024
 40
1.0
 40
1.0
 40
1.0
 40
1.0
 10
31.121731582
 20
126.4095489417
 30
0.0
 10
31.082159588
 20
126.2921948345
 30
0.0
 10
30.9160377195
 20
125.7735599392
 30
0.0
 10
30.7770438958
 20
125.2465181358
 30
0.0
 10
30.6795035564
 20
124.8373000752
 30
0.0
  0
SPLINE
  5
26E
100
AcDbEntity
  8
0
100
AcDbSpline
 62
7
  6
BYLAYER
 70
0
 71
3
 72
9
 73
5
 74
0
 42
0.0000001
 43
0.0000001
 44
0.0000000001
 40
0.0
 40
0.0
 40
0.0
 40
0.0
 40
0.5000009717
 40
1.0
 40
1.0
 40
1.0
 40
1.0
 10
100.4042129919
 20
154.9602337664
 30
0.0
 10
100.4228996137
 20
157.7395736647
 30
0.0
 10
100.4616655288
 20
163.298233849
 30
0.0
 10
100.4938693654
 20
168.85693592
 30
0.0
 10
100.51076679
 20
171.6362764686
 30
0.0
  0
SPLINE
  5
26F
100
AcDbEntity
  8
0
100
AcDbSpline
 62
7
  6
BYLAYER
 70
0
 71
3
 72
9
 73
5
 74
0
 42
0.0000001
 43
0.0000001
 44
0.0000000001
 40
0.0
 40
0.0
 40
0.0
 40
0.0
 40
0.2595853763
 40
1.0
 40
1.0
 40
1.0
 40
1.0
 10
30.6794836415
 20
124.8372178494
 30
0.0
 10
30.3136008292
 20
125.0043030855
 30
0.0
 10
28.8833162456
 20
125.5992887992
 30
0.0
 10
27.3602187803
 20
125.9882165941
 30
0.0
 10
26.2191395261
 20
126.1072881752
 30
0.0
  0
SPLINE
  5
270
100
AcDbEntity
  8
0
100
AcDbSpline
 62
7
  6
BYLAYER
 70
0
 71
3
 72
11
 73
7
 74
0
 42
0.0000001
 43
0.0000001
 44
0.0000000001
 40
0.0
 40
0.0
 40
0.0
 40
0.0
 40
0.2675743849
 40
0.5221067919
 40
0.7653057231
 40
1.0
 40
1.0
 40
1.0
 40
1.0
 10
26.2191395261
 20
126.1072881752
 30
0.0
 10
25.6752466597
 20
126.1640433772
 30
0.0
 10
24.6040080937
 20
126.2001862092
 30
0.0
 10
23.0453608383
 20
126.0013053074
 30
0.0
 10
21.6084665343
 20
125.5551511898
 30
0.0
 10
20.7379516484
 20
125.098337467
 30
0.0
 10
20.3356148737
 20
124.8372096182
 30
0.0
  0
SPLINE
  5
271
100
AcDbEntity
  8
0
100
AcDbSpline
 62
7
  6
BYLAYER
 70
0
 71
3
 72
29
 73
25
 74
0
 42
0.0000001
 43
0.0000001
 44
0.0000000001
 40
0.0
 40
0.0
 40
0.0
 40
0.0
 40
0.1949872204
 40
0.3825505785
 40
0.4712619578
 40
0.5554238484
 40
0.6342480583
 40
0.7069819145
 40
0.7729080037
 40
0.8313949831
 40
0.8818643686
 40
0.9039436328
 40
0.9238445424
 40
0.9415167625
 40
0.9569224439
 40
0.9700253044
 40
0.9807889811
 40
0.9891831897
 40
0.9924867225
 40
0.9951922651
 40
0.9972980954
 40
0.998802479
 40
0.9997036751
 40
1.0
 40
1.0
 40
1.0
 40
1.0
 10
30.2755719514
 20
122.8816299041
 30
0.0
 10
29.4615010425
 20
122.8812322104
 30
0.0
 10
27.8643574823
 20
122.8914271481
 30
0.0
 10
25.896962709
 20
122.9128576051
 30
0.0
 10
24.3922176464
 20
122.9281332205
 30
0.0
 10
23.3414195493
 20
122.9371600271
 30
0.0
 10
22.3573044082
 20
122.9428737862
 30
0.0
 10
21.4493086466
 20
122.9449143518
 30
0.0
 10
20.6262197266
 20
122.9431189113
 30
0.0
 10
19.8961017458
 20
122.9377880937
 30
0.0
 10
19.34907405
 20
122.930386423
 30
0.0
 10
18.963166188
 20
122.9230438242
 30
0.0
 10
18.7141830189
 20
122.9173404343
 30
0.0
 10
18.4930752324
 20
122.9113278207
 30
0.0
 10
18.3003730935
 20
122.9052611081
 30
0.0
 10
18.1364953149
 20
122.8993586293
 30
0.0
 10
18.0019776754
 20
122.8939209518
 30
0.0
 10
17.9081606436
 20
122.8895541878
 30
0.0
 10
17.8483126177
 20
122.886689512
 30
0.0
 10
17.8140336052
 20
122.8846907204
 30
0.0
 10
17.7888521685
 20
122.8839103509
 30
0.0
 10
17.7674464137
 20
122.8814459612
 30
0.0
 10
17.7607283088
 20
122.8833376024
 30
0.0
 10
17.7510642175
 20
122.8805187065
 30
0.0
 10
17.7517282436
 20
122.8815625567
 30
0.0
  0
SPLINE
  5
272
100
AcDbEntity
  8
0
100
AcDbSpline
 62
7
  6
BYLAYER
 70
0
 71
3
 72
9
 73
5
 74
0
 42
0.0000001
 43
0.0000001
 44
0.0000000001
 40
0.0
 40
0.0
 40
0.0
 40
0.0
 40
0.2173042008
 40
1.0
 40
1.0
 40
1.0
 40
1.0
 10
130.7235820854
 20
127.4093110051
 30
0.0
 10
130.3490209493
 20
127.2905544559
 30
0.0
 10
128.6095574078
 20
126.7967298513
 30
0.0
 10
126.7964646209
 20
126.5471465267
 30
0.0
 10
125.3813766901
 20
126.5228652257
 30
0.0
  0
SPLINE
  5
273
100
AcDbEntity
  8
0
100
AcDbSpline
 62
7
  6
BYLAYER
 70
0
 71
3
 72
9
 73
5
 74
0
 42
0.0000001
 43
0.0000001
 44
0.0000000001
 40
0.0
 40
0.0
 40
0.0
 40
0.0
 40
0.5325673438
 40
1.0
 40
1.0
 40
1.0
 40
1.0
 10
124.552206682
 20
126.5275189288
 30
0.0
 10
123.6916661046
 20
126.552055154
 30
0.0
 10
122.0770455727
 20
126.7148715856
 30
0.0
 10
120.4991465656
 20
127.0836845856
 30
0.0
 10
119.7744863312
 20
127.2976937291
 30
0.0
  0
SPLINE
  5
274
100
AcDbEntity
  8
0
100
AcDbSpline
 62
7
  6
BYLAYER
 70
0
 71
3
 72
21
 73
17
 74
0
 42
0.0000001
 43
0.0000001
 44
0.0000000001
 40
0.0
 40
0.0
 40
0.0
 40
0.0
 40
0.1558937121
 40
0.2296976857
 40
0.2992520621
 40
0.3638790328
 40
0.4234422485
 40
0.4784911559
 40
0.5302757542
 40
0.5805928735
 40
0.6313820006
 40
0.6842611628
 40
0.7402753059
 40
0.799902492
 40
0.8632322735
 40
1.0
 40
1.0
 40
1.0
 40
1.0
 10
56.0992426799
 20
154.9602337681
 30
0.0
 10
56.107367232
 20
153.7980063071
 30
0.0
 10
56.1566585871
 20
152.0848360752
 30
0.0
 10
56.3458997951
 20
149.8611766956
 30
0.0
 10
56.5597993101
 20
148.3243345722
 30
0.0
 10
56.8666969777
 20
146.9109520088
 30
0.0
 10
57.2857803094
 20
145.6386694714
 30
0.0
 10
57.8354034973
 20
144.5209005595
 30
0.0
 10
58.5289666466
 20
143.5683295559
 30
0.0
 10
59.369354197
 20
142.7875904901
 30
0.0
 10
60.3481403232
 20
142.175955193
 30
0.0
 10
61.4514002727
 20
141.7172505382
 30
0.0
 10
62.6672714602
 20
141.3901983019
 30
0.0
 10
63.9851329144
 20
141.1716458252
 30
0.0
 10
65.9142973718
 20
140.9925662155
 30
0.0
 10
67.4075799679
 20
140.9662862443
 30
0.0
 10
68.4272432314
 20
140.9662764686
 30
0.0
  0
SPLINE
  5
275
100
AcDbEntity
  8
0
100
AcDbSpline
 62
7
  6
BYLAYER
 70
0
 71
3
 72
9
 73
5
 74
0
 42
0.0000001
 43
0.0000001
 44
0.0000000001
 40
0.0
 40
0.0
 40
0.0
 40
0.0
 40
0.4773428384
 40
1.0
 40
1.0
 40
1.0
 40
1.0
 10
30.6795035564
 20
124.8373000752
 30
0.0
 10
30.6061555371
 20
124.5281182171
 30
0.0
 10
30.465203256
 20
123.8774360252
 30
0.0
 10
30.3362385742
 20
123.2242641965
 30
0.0
 10
30.275572695
 20
122.881665561
 30
0.0
  0
SPLINE
  5
276
100
AcDbEntity
  8
0
100
AcDbSpline
 62
7
  6
BYLAYER
 70
0
 71
3
 72
9
 73
5
 74
0
 42
0.0000001
 43
0.0000001
 44
0.0000000001
 40
0.0
 40
0.0
 40
0.0
 40
0.0
 40
0.4999990282
 40
1.0
 40
1.0
 40
1.0
 40
1.0
 10
55.9926888807
 20
171.6362764686
 30
0.0
 10
56.0095926663
 20
168.8569359593
 30
0.0
 10
56.0417901701
 20
163.2982338524
 30
0.0
 10
56.0805496553
 20
157.7395736234
 30
0.0
 10
56.0992426799
 20
154.9602337681
 30
0.0
  0
SPLINE
  5
277
100
AcDbEntity
  8
0
100
AcDbSpline
 62
7
  6
BYLAYER
 70
0
 71
3
 72
9
 73
5
 74
0
 42
0.0000001
 43
0.0000001
 44
0.0000000001
 40
0.0
 40
0.0
 40
0.0
 40
0.0
 40
0.5226459674
 40
1.0
 40
1.0
 40
1.0
 40
1.0
 10
126.2279177843
 20
122.881665561
 30
0.0
 10
126.1672180766
 20
123.2242625492
 30
0.0
 10
126.0385226041
 20
123.8775072409
 30
0.0
 10
125.8974596702
 20
124.5281950142
 30
0.0
 10
125.8239356617
 20
124.837353741
 30
0.0
  0
ELLIPSE
  5
278
100
AcDbEntity
  8
0
100
AcDbEllipse
 62
7
  6
BYLAYER
 10
126.9109751354
 20
105.9808810345
 30
0.0
 11
22.4796791772
 21
-0.0
 31
0.0
 40
1.0
 41
1.6759991512
 42
1.8938502666
  0
ELLIPSE
  5
279
100
AcDbEntity
  8
0
100
AcDbEllipse
 62
7
  6
BYLAYER
 10
33.2809751354
 20
105.9808810345
 30
0.0
 11
22.4796791772
 21
-0.0
 31
0.0
 40
1.0
 41
1.6759991512
 42
1.8938502666
  0
ELLIPSE
  5
27A
100
AcDbEntity
  8
0
100
AcDbEllipse
 62
7
  6
BYLAYER
 10
125.496761573
 20
105.9808810345
 30
0.0
 11
22.4796791772
 21
-0.0
 31
0.0
 40
1.0
 41
1.6759991512
 42
1.8608551798
  0
ENDSEC
  0
SECTION
  2
OBJECTS
  0
DICTIONARY
  5
C
100
AcDbDictionary
280
0
281
1
  3
ACAD_GROUP
350
D
  3
ACAD_MLINESTYLE
350
17
  3
ACAD_LAYOUT
350
1A
  3
ACAD_PLOTSETTINGS
350
19
  3
ACAD_PLOTSTYLENAME
350
E
  0
DICTIONARY
  5
D
102
{ACAD_REACTORS
330
C
102
}
100
AcDbDictionary
280
0
281
1
  0
ACDBDICTIONARYWDFLT
  5
E
102
{ACAD_REACTORS
330
C
102
}
100
AcDbDictionary
281
1
  3
Normal
350
F
100
AcDbDictionaryWithDefault
340
F
  0
DICTIONARY
  5
17
102
{ACAD_REACTORS
330
C
102
}
100
AcDbDictionary
280
0
281
1
  3
Standard
350
18
  0
DICTIONARY
  5
19
102
{ACAD_REACTORS
330
C
102
}
100
AcDbDictionary
281
1
  0
DICTIONARY
  5
1A
102
{ACAD_REACTORS
330
C
102
}
100
AcDbDictionary
281
1
  3
Model
350
27B
  3
Layout1
350
27C
  0
ACDBPLACEHOLDER
  5
F
102
{ACAD_REACTORS
330
E
102
}
  0
MLINESTYLE
  5
18
102
{ACAD_REACTORS
330
17
102
}
100
AcDbMlineStyle
  2
STANDARD
 70
0
  3

 62
256
 51
90.0
 52
90.0
 71
2
 49
0.5
 62
256
  6
BYLAYER
 49
-0.5
 62
256
  6
BYLAYER
  0
LAYOUT
  5
27B
102
{ACAD_REACTORS
330
1A
102
}
100
AcDbPlotSettings
  1

  2
none_device
  4

  6

 40
0.0
 41
0.0
 42
0.0
 43
0.0
 44
210.0
 45
297.0
 46
0.0
 47
0.0
 48
0.0
 49
0.0
140
0.0
141
0.0
142
1.0
143
1.0
 70
1024
 72
1
 73
0
 74
0
  7

 75
0
147
1.0
148
0.0
149
0.0
100
AcDbLayout
  1
Model
 70
0
 71
0
 10
0.0
 20
0.0
 11
210.0
 21
297.0
 12
0.0
 22
0.0
 32
0.0
 14
0.0
 24
0.0
 34
0.0
 15
0.0
 25
0.0
 35
0.0
146
0.0
 13
0.0
 23
0.0
 33
0.0
 16
1.0
 26
0.0
 36
0.0
 17
0.0
 27
1.0
 37
0.0
 76
0
330
210
345
0
346
0
  0
LAYOUT
  5
27C
102
{ACAD_REACTORS
330
1A
102
}
100
AcDbPlotSettings
  1

  2
none_device
  4

  6

 40
0.0
 41
0.0
 42
0.0
 43
0.0
 44
210.0
 45
297.0
 46
0.0
 47
0.0
 48
0.0
 49
0.0
140
0.0
141
0.0
142
1.0
143
1.0
 70
0
 72
1
 73
0
 74
0
  7

 75
0
147
1.0
148
0.0
149
0.0
100
AcDbLayout
  1
Layout1
 70
0
 71
1
 10
0.0
 20
0.0
 11
210.0
 21
297.0
 12
0.0
 22
0.0
 32
0.0
 14
0.0
 24
0.0
 34
0.0
 15
0.0
 25
0.0
 35
0.0
146
0.0
 13
0.0
 23
0.0
 33
0.0
 16
1.0
 26
0.0
 36
0.0
 17
0.0
 27
1.0
 37
0.0
 76
0
330
211
345
0
346
0
  0
ENDSEC
  0
EOF
