999
DXF file: C:\Users\sesa63760\Dev\_Creo\CAD\MCADID0000575_3D-CAD\drw0001_6.dxf
999
Pro/ENGINEER 2019471 by Parametric Technology Corporation
  0
SECTION
  2
HEADER
  9
$ACADVER
  1
AC1024
  9
$DWGCODEPAGE
  3
ANSI_1252
  9
$EXTMAX
 10
102.6604461033
 20
145.191202346
 30
0.0
  9
$EXTMIN
 10
0.0
 20
0.0
 30
0.0
  9
$LIMMIN
 10
0.0
 20
0.0
  9
$LIMMAX
 10
102.6604461033
 20
145.191202346
  9
$VIEWCTR
 10
51.3302230516
 20
72.595601173
  9
$VIEWSIZE
 40
145.191202346
  9
$CLAYER
  8
0
  9
$LTSCALE
 40
9.4643154122
  9
$CELTYPE
  6
BYLAYER
  9
$DIMSCALE
 40
1.0
  9
$DIMASZ
 40
1.2221481679
  9
$DIMEXO
 40
1.0
  9
$DIMDLI
 40
6.5389815575
  9
$DIMEXE
 40
1.0
  9
$DIMCEN
 40
1.5487061584
  9
$DIMLFAC
 40
1.0
  9
$DIMBLK
  1
_FILLED
  9
$DIMALT
 70
0
  9
$DIMALTF
 40
0.0393700787
  9
$DIMTXT
 40
1.7110074351
  9
$DIMTOL
 70
1
  9
$DIMLIM
 70
0
  9
$DIMTFAC
 40
1.0
  9
$DIMTP
 40
0.01
  9
$DIMTM
 40
0.01
  9
$DIMGAP
 40
0.625
  9
$DIMDSEP
 70
46
  9
$AUNITS
 70
0
  9
$PDMODE
 70
3
  9
$PDSIZE
 40
0.3125
  9
$HANDSEED
  5
401
  9
$TILEMODE
 70
1
  9
$MEASUREMENT
 70
1
  9
$INSUNITS
 70
4
  0
ENDSEC
  0
SECTION
  2
CLASSES
  0
CLASS
  1
ACDBDICTIONARYWDFLT
  2
AcDbDictionaryWithDefault
  3
AutoCAD 2000
 90
0
 91
1
280
0
281
0
  0
CLASS
  1
ACDBPLACEHOLDER
  2
AcDbPlaceHolder
  3
AutoCAD 2000
 90
0
 91
1
280
0
281
0
  0
CLASS
  1
LAYOUT
  2
AcDbLayout
  3
AutoCAD 2000
 90
0
 91
0
280
0
281
0
  0
ENDSEC
  0
SECTION
  2
TABLES
  0
TABLE
  2
VPORT
  5
8
100
AcDbSymbolTable
 70
2
  0
VPORT
  5
1F4
100
AcDbSymbolTableRecord
100
AcDbViewportTableRecord
  2
*ACTIVE
 70
0
 10
0.0
 20
0.0
 11
1.0
 21
1.0
 12
51.3302230516
 22
72.595601173
 13
0.0
 23
0.0
 14
1.0
 24
1.0
 15
0.0
 25
0.0
 16
0.0
 26
0.0
 36
1.0
 17
0.0
 27
0.0
 37
0.0
 40
145.191202346
 41
0.7070707071
 42
50.0
 43
0.0
 44
0.0
 50
0.0
 51
0.0
 71
0
 72
100
 73
1
 74
1
 75
0
 76
0
 77
0
 78
0
  0
ENDTAB
  0
TABLE
  2
LTYPE
  5
5
100
AcDbSymbolTable
 70
6
  0
LTYPE
  5
14
100
AcDbSymbolTableRecord
100
AcDbLinetypeTableRecord
  2
BYBLOCK
 70
0
  3

 72
65
 73
0
 40
0.0
  0
LTYPE
  5
15
100
AcDbSymbolTableRecord
100
AcDbLinetypeTableRecord
  2
BYLAYER
 70
0
  3

 72
65
 73
0
 40
0.0
  0
LTYPE
  5
16
100
AcDbSymbolTableRecord
100
AcDbLinetypeTableRecord
  2
CONTINUOUS
 70
64
  3
Solid line
 72
65
 73
0
 40
0.0
  0
LTYPE
  5
1F5
100
AcDbSymbolTableRecord
100
AcDbLinetypeTableRecord
  2
CENTER
 70
64
  3
____ _ ____ _ ____ _ ____ _ ____ _ ____ _ ____
 72
65
 73
4
 40
0.6
 49
0.375
 74
0
 49
-0.075
 74
0
 49
0.075
 74
0
 49
-0.075
 74
0
  0
LTYPE
  5
1F6
100
AcDbSymbolTableRecord
100
AcDbLinetypeTableRecord
  2
HIDDEN
 70
64
  3
- - - - - - - - - - - - - - - - - - - -
 72
65
 73
2
 40
0.2
 49
0.1
 74
0
 49
-0.1
 74
0
  0
LTYPE
  5
1F7
100
AcDbSymbolTableRecord
100
AcDbLinetypeTableRecord
  2
PHANTOM
 70
64
  3
_____ _ _ _____ _ _ _____ _ _ _____
 72
65
 73
6
 40
0.8
 49
0.45
 74
0
 49
-0.05
 74
0
 49
0.1
 74
0
 49
-0.05
 74
0
 49
0.1
 74
0
 49
-0.05
 74
0
  0
LTYPE
  5
1F8
100
AcDbSymbolTableRecord
100
AcDbLinetypeTableRecord
  2
DOT
 70
64
  3
. . . . . . . . . . . . . . . . . . . .
 72
65
 73
2
 40
0.2
 49
0.1
 74
0
 49
-0.1
 74
0
  0
LTYPE
  5
1F9
100
AcDbSymbolTableRecord
100
AcDbLinetypeTableRecord
  2
DASHED
 70
64
  3
- - - - - - - - - - - - - - - - - - - -
 72
65
 73
2
 40
0.2
 49
0.1
 74
0
 49
-0.1
 74
0
  0
ENDTAB
  0
TABLE
  2
LAYER
  5
2
100
AcDbSymbolTable
 70
36
  0
LAYER
  5
10
100
AcDbSymbolTableRecord
100
AcDbLayerTableRecord
  2
0
 70
0
 62
7
  6
CONTINUOUS
370
-3
390
F
  0
LAYER
  5
1FA
100
AcDbSymbolTableRecord
100
AcDbLayerTableRecord
  2
DEFAULT_1
 70
0
 62
7
  6
CENTER
370
-3
390
F
  0
LAYER
  5
1FB
100
AcDbSymbolTableRecord
100
AcDbLayerTableRecord
  2
DEFAULT_2
 70
0
 62
8
  6
HIDDEN
370
-3
390
F
  0
LAYER
  5
1FC
100
AcDbSymbolTableRecord
100
AcDbLayerTableRecord
  2
DEFAULT_3
 70
0
 62
7
  6
PHANTOM
370
-3
390
F
  0
LAYER
  5
1FD
100
AcDbSymbolTableRecord
100
AcDbLayerTableRecord
  2
00_COMPONENTS
 70
0
 62
7
  6
CONTINUOUS
370
-3
390
F
  0
LAYER
  5
1FE
100
AcDbSymbolTableRecord
100
AcDbLayerTableRecord
  2
01_1_DEFAULT_DATUMS
 70
0
 62
7
  6
CONTINUOUS
370
-3
390
F
  0
LAYER
  5
1FF
100
AcDbSymbolTableRecord
100
AcDbLayerTableRecord
  2
01_PLANES
 70
0
 62
7
  6
CONTINUOUS
370
-3
390
F
  0
LAYER
  5
200
100
AcDbSymbolTableRecord
100
AcDbLayerTableRecord
  2
02_COORD_SYS
 70
0
 62
7
  6
CONTINUOUS
370
-3
390
F
  0
LAYER
  5
201
100
AcDbSymbolTableRecord
100
AcDbLayerTableRecord
  2
03_AXES
 70
0
 62
7
  6
CONTINUOUS
370
-3
390
F
  0
LAYER
  5
202
100
AcDbSymbolTableRecord
100
AcDbLayerTableRecord
  2
04_POINTS
 70
0
 62
7
  6
CONTINUOUS
370
-3
390
F
  0
LAYER
  5
203
100
AcDbSymbolTableRecord
100
AcDbLayerTableRecord
  2
05_CURVES
 70
0
 62
7
  6
CONTINUOUS
370
-3
390
F
  0
LAYER
  5
204
100
AcDbSymbolTableRecord
100
AcDbLayerTableRecord
  2
06_SURFS
 70
0
 62
7
  6
CONTINUOUS
370
-3
390
F
  0
LAYER
  5
205
100
AcDbSymbolTableRecord
100
AcDbLayerTableRecord
  2
07_COSMETICS
 70
0
 62
7
  6
CONTINUOUS
370
-3
390
F
  0
LAYER
  5
206
100
AcDbSymbolTableRecord
100
AcDbLayerTableRecord
  2
10_NOTES
 70
0
 62
7
  6
CONTINUOUS
370
-3
390
F
  0
LAYER
  5
207
100
AcDbSymbolTableRecord
100
AcDbLayerTableRecord
  2
11_NOTES_PUB
 70
0
 62
7
  6
CONTINUOUS
370
-3
390
F
  0
LAYER
  5
208
100
AcDbSymbolTableRecord
100
AcDbLayerTableRecord
  2
13_REF_GTOL
 70
0
 62
7
  6
CONTINUOUS
370
-3
390
F
  0
LAYER
  5
209
100
AcDbSymbolTableRecord
100
AcDbLayerTableRecord
  2
16_MISC
 70
0
 62
7
  6
CONTINUOUS
370
-3
390
F
  0
LAYER
  5
20A
100
AcDbSymbolTableRecord
100
AcDbLayerTableRecord
  2
17_NO_PRINT
 70
0
 62
7
  6
CONTINUOUS
370
-3
390
F
  0
LAYER
  5
20B
100
AcDbSymbolTableRecord
100
AcDbLayerTableRecord
  2
18_DATUM_CAMS_JOINTS
 70
0
 62
7
  6
CONTINUOUS
370
-3
390
F
  0
LAYER
  5
20C
100
AcDbSymbolTableRecord
100
AcDbLayerTableRecord
  2
19_DATUM_FUNCTIONAL
 70
0
 62
7
  6
CONTINUOUS
370
-3
390
F
  0
LAYER
  5
20D
100
AcDbSymbolTableRecord
100
AcDbLayerTableRecord
  2
20_DATUM_KINEMATIC_SCHEME
 70
0
 62
7
  6
CONTINUOUS
370
-3
390
F
  0
ENDTAB
  0
TABLE
  2
STYLE
  5
3
100
AcDbSymbolTable
 70
1
  0
STYLE
  5
11
100
AcDbSymbolTableRecord
100
AcDbTextStyleTableRecord
  2
STANDARD
 70
0
 40
0.0
 41
0.8
 50
0.0
 71
0
 42
0.2
  3
txt
  4

  0
STYLE
  5
20E
100
AcDbSymbolTableRecord
100
AcDbTextStyleTableRecord
  2
TEXTSTYLE_1
 70
0
 40
0.0
 41
0.8
 50
0.0
 71
0
 42
0.2
  3
gdt
  4

  0
ENDTAB
  0
TABLE
  2
VIEW
  5
6
100
AcDbSymbolTable
 70
0
  0
ENDTAB
  0
TABLE
  2
UCS
  5
7
100
AcDbSymbolTable
 70
0
  0
ENDTAB
  0
TABLE
  2
APPID
  5
9
100
AcDbSymbolTable
 70
1
  0
APPID
  5
20F
100
AcDbSymbolTableRecord
100
AcDbRegAppTableRecord
  2
ACAD
 70
0
  0
ENDTAB
  0
TABLE
  2
BLOCK_RECORD
  5
1
100
AcDbSymbolTable
 70
0
  0
BLOCK_RECORD
  5
210
100
AcDbSymbolTableRecord
100
AcDbBlockTableRecord
  2
*Model_Space
  0
BLOCK_RECORD
  5
211
100
AcDbSymbolTableRecord
100
AcDbBlockTableRecord
  2
*Paper_Space
  0
BLOCK_RECORD
  5
212
100
AcDbSymbolTableRecord
100
AcDbBlockTableRecord
  2
_FILLED
  0
ENDTAB
  0
TABLE
  2
DIMSTYLE
  5
A
100
AcDbSymbolTable
 70
1
100
AcDbDimStyleTable
 71
0
  0
DIMSTYLE
105
213
100
AcDbSymbolTableRecord
100
AcDbDimStyleTableRecord
  2
STANDARD
 70
0
  3

  4

 40
1.0
 41
1.2221481679
 42
1.0
 43
0.38
 44
1.0
 45
0.0
 46
0.0
 47
0.01
 48
0.01
140
1.7110074351
141
0.09
142
0.0
143
25.4
144
1.0
145
0.0
146
1.0
147
0.625
 71
1
 72
0
 73
0
 74
0
 75
0
 76
0
 77
1
 78
8
 79
2
170
0
171
1
172
0
173
0
174
0
175
0
176
0
177
0
178
0
270
2
179
2
271
2
272
2
273
2
274
2
275
0
280
0
281
0
282
0
283
1
284
8
285
0
286
0
287
3
288
0
340
11
278
46
341
212
342
212
343
212
344
212
  0
ENDTAB
  0
ENDSEC
  0
SECTION
  2
BLOCKS
  0
BLOCK
  5
20
100
AcDbEntity
  8
0
100
AcDbBlockBegin
  2
*Model_Space
 70
0
 10
0.0
 20
0.0
 30
0.0
  3
*Model_Space
  1

  0
ENDBLK
  5
21
100
AcDbEntity
  8
0
100
AcDbBlockEnd
  0
BLOCK
  5
1C
100
AcDbEntity
  8
0
100
AcDbBlockBegin
  2
*Paper_Space
 70
0
 10
0.0
 20
0.0
 30
0.0
  3
*Paper_Space
  1

  0
ENDBLK
  5
1D
100
AcDbEntity
  8
0
100
AcDbBlockEnd
  0
BLOCK
  5
214
100
AcDbEntity
  8
0
100
AcDbBlockBegin
  2
_FILLED
 70
64
 10
0.0
 20
0.0
  3
_FILLED
  1

  0
SOLID
  5
215
100
AcDbEntity
  8
0
  6
BYBLOCK
 62
0
100
AcDbTrace
 10
0.0
 20
0.0
 11
-1.0
 21
0.25
 12
-1.0
 22
-0.25
 13
-1.0
 23
-0.25
  0
ENDBLK
  5
216
100
AcDbEntity
  8
0
  6
BYBLOCK
 62
0
100
AcDbBlockEnd
  0
ENDSEC
  0
SECTION
  2
ENTITIES
  0
LINE
  5
217
100
AcDbEntity
  8
0
100
AcDbLine
 62
7
  6
CONTINUOUS
 10
33.5687861015
 20
11.995601173
 11
75.5687861015
 21
11.995601173
  0
LINE
  5
218
100
AcDbEntity
  8
0
100
AcDbLine
 62
7
  6
CONTINUOUS
 10
67.5687861015
 20
12.045601173
 11
62.0687861015
 21
12.045601173
  0
LINE
  5
219
100
AcDbEntity
  8
0
100
AcDbLine
 62
7
  6
CONTINUOUS
 10
32.8116368236
 20
12.0479663678
 11
43.8035126688
 21
12.0479663678
  0
LINE
  5
21A
100
AcDbEntity
  8
0
100
AcDbLine
 62
7
  6
CONTINUOUS
 10
42.6482876659
 20
12.295601173
 11
77.566284537
 21
12.295601173
  0
LINE
  5
21B
100
AcDbEntity
  8
0
100
AcDbLine
 62
7
  6
CONTINUOUS
 10
78.9496144024
 20
12.895601173
 11
49.0754567926
 21
12.895601173
  0
LINE
  5
21C
100
AcDbEntity
  8
0
100
AcDbLine
 62
7
  6
CONTINUOUS
 10
19.402975428
 20
24.4983051976
 11
24.4833928937
 21
22.4393349756
  0
LINE
  5
21D
100
AcDbEntity
  8
0
100
AcDbLine
 62
7
  6
CONTINUOUS
 10
67.5687861015
 20
17.045601173
 11
62.0687861015
 21
17.045601173
  0
LINE
  5
21E
100
AcDbEntity
  8
0
100
AcDbLine
 62
7
  6
CONTINUOUS
 10
52.0687861015
 20
17.295601173
 11
78.0687861015
 21
17.295601173
  0
LINE
  5
21F
100
AcDbEntity
  8
0
100
AcDbLine
 62
7
  6
CONTINUOUS
 10
51.7687861015
 20
17.595601173
 11
78.3687861015
 21
17.595601173
  0
LINE
  5
220
100
AcDbEntity
  8
0
100
AcDbLine
 62
7
  6
CONTINUOUS
 10
82.2937293223
 20
20.045601173
 11
82.6187861015
 21
20.045601173
  0
LINE
  5
221
100
AcDbEntity
  8
0
100
AcDbLine
 62
7
  6
CONTINUOUS
 10
19.8468619457
 20
24.1498740665
 11
21.8572786907
 21
23.5036354942
  0
LINE
  5
222
100
AcDbEntity
  8
0
100
AcDbLine
 62
7
  6
CONTINUOUS
 10
82.6187861015
 20
21.245601173
 11
82.2727832444
 21
21.245601173
  0
LINE
  5
223
100
AcDbEntity
  8
0
100
AcDbLine
 62
7
  6
CONTINUOUS
 10
39.8109513949
 20
23.4499045602
 11
43.832872868
 21
23.379842705
  0
LINE
  5
224
100
AcDbEntity
  8
0
100
AcDbLine
 62
7
  6
CONTINUOUS
 10
82.2727832444
 20
28.995601173
 11
82.6187861015
 21
28.995601173
  0
LINE
  5
225
100
AcDbEntity
  8
0
100
AcDbLine
 62
7
  6
CONTINUOUS
 10
82.6187861015
 20
30.195601173
 11
82.2937293223
 21
30.195601173
  0
LINE
  5
226
100
AcDbEntity
  8
0
100
AcDbLine
 62
7
  6
CONTINUOUS
 10
26.4125199041
 20
20.5102079652
 11
28.471490126
 21
15.4297904996
  0
LINE
  5
227
100
AcDbEntity
  8
0
100
AcDbLine
 62
7
  6
CONTINUOUS
 10
49.2687861015
 20
31.295601173
 11
45.2687861015
 21
31.295601173
  0
LINE
  5
228
100
AcDbEntity
  8
0
100
AcDbLine
 62
7
  6
CONTINUOUS
 10
82.360058569
 20
32.695601173
 11
82.6187861015
 21
32.695601173
  0
LINE
  5
229
100
AcDbEntity
  8
0
100
AcDbLine
 62
7
  6
CONTINUOUS
 10
82.6187861015
 20
33.195601173
 11
82.3513310366
 21
33.195601173
  0
LINE
  5
22A
100
AcDbEntity
  8
0
100
AcDbLine
 62
7
  6
CONTINUOUS
 10
84.3687861015
 20
34.295601173
 11
80.0687861015
 21
34.295601173
  0
LINE
  5
22B
100
AcDbEntity
  8
0
100
AcDbLine
 62
7
  6
CONTINUOUS
 10
50.0687861015
 20
34.295601173
 11
49.7687861015
 21
34.295601173
  0
LINE
  5
22C
100
AcDbEntity
  8
0
100
AcDbLine
 62
7
  6
CONTINUOUS
 10
50.0687861015
 20
19.295601173
 11
52.0687861015
 21
17.295601173
  0
LINE
  5
22D
100
AcDbEntity
  8
0
100
AcDbLine
 62
7
  6
CONTINUOUS
 10
27.4768204227
 20
17.8840937622
 11
28.123058995
 21
15.8736770173
  0
LINE
  5
22E
100
AcDbEntity
  8
0
100
AcDbLine
 62
7
  6
CONTINUOUS
 10
15.0687861015
 20
92.4456103072
 11
15.0687861015
 21
101.9455920389
  0
LINE
  5
22F
100
AcDbEntity
  8
0
100
AcDbLine
 62
7
  6
CONTINUOUS
 10
15.7187861015
 20
39.920601173
 11
15.7187861015
 21
50.470601173
  0
LINE
  5
230
100
AcDbEntity
  8
0
100
AcDbLine
 62
7
  6
CONTINUOUS
 10
15.9687861015
 20
29.595601173
 11
15.9687861015
 21
40.2501277386
  0
LINE
  5
231
100
AcDbEntity
  8
0
100
AcDbLine
 62
7
  6
CONTINUOUS
 10
15.9687861015
 20
50.1410746074
 11
15.9687861015
 21
60.795601173
  0
LINE
  5
232
100
AcDbEntity
  8
0
100
AcDbLine
 62
7
  6
CONTINUOUS
 10
15.9753142958
 20
41.120601173
 11
15.9753142958
 21
49.270601173
  0
LINE
  5
233
100
AcDbEntity
  8
0
100
AcDbLine
 62
7
  6
CONTINUOUS
 10
16.0211512963
 20
61.5527504509
 11
16.0211512963
 21
28.8384518951
  0
LINE
  5
234
100
AcDbEntity
  8
0
100
AcDbLine
 62
7
  6
CONTINUOUS
 10
18.5687861015
 20
82.595601173
 11
18.5687861015
 21
112.695601173
  0
LINE
  5
235
100
AcDbEntity
  8
0
100
AcDbLine
 62
7
  6
CONTINUOUS
 10
35.6687861015
 20
102.9691038649
 11
30.6687861015
 21
100.082352519
  0
LINE
  5
236
100
AcDbEntity
  8
0
100
AcDbLine
 62
7
  6
CONTINUOUS
 10
85.4687861015
 20
36.295601173
 11
84.3687861015
 21
36.295601173
  0
LINE
  5
237
100
AcDbEntity
  8
0
100
AcDbLine
 62
7
  6
CONTINUOUS
 10
44.7687861015
 20
36.8341083361
 11
43.1687861015
 21
36.8341083361
  0
LINE
  5
238
100
AcDbEntity
  8
0
100
AcDbLine
 62
7
  6
CONTINUOUS
 10
42.5254222815
 20
38.64014237
 11
42.5044491846
 21
38.64014237
  0
LINE
  5
239
100
AcDbEntity
  8
0
100
AcDbLine
 62
7
  6
CONTINUOUS
 10
42.4535913397
 20
38.8092053463
 11
42.5044491846
 21
38.8092053463
  0
LINE
  5
23A
100
AcDbEntity
  8
0
100
AcDbLine
 62
7
  6
CONTINUOUS
 10
44.9687861015
 20
38.8341083361
 11
44.7687861015
 21
38.8341083361
  0
LINE
  5
23B
100
AcDbEntity
  8
0
100
AcDbLine
 62
7
  6
CONTINUOUS
 10
15.7187861015
 20
39.920601173
 11
15.9687861015
 21
39.920601173
  0
LINE
  5
23C
100
AcDbEntity
  8
0
100
AcDbLine
 62
7
  6
CONTINUOUS
 10
50.0687861015
 20
37.0915705438
 11
49.5687861015
 21
37.1002980763
  0
LINE
  5
23D
100
AcDbEntity
  8
0
100
AcDbLine
 62
7
  6
CONTINUOUS
 10
45.2687861015
 20
31.295601173
 11
44.9687861015
 21
31.595601173
  0
LINE
  5
23E
100
AcDbEntity
  8
0
100
AcDbLine
 62
7
  6
CONTINUOUS
 10
20.5687861015
 20
116.195601173
 11
20.5687861015
 21
66.4733872478
  0
LINE
  5
23F
100
AcDbEntity
  8
0
100
AcDbLine
 62
7
  6
CONTINUOUS
 10
20.6687861015
 20
81.795601173
 11
20.6687861015
 21
66.5055317559
  0
LINE
  5
240
100
AcDbEntity
  8
0
100
AcDbLine
 62
7
  6
CONTINUOUS
 10
21.0687861015
 20
114.795601173
 11
21.0687861015
 21
113.195601173
  0
LINE
  5
241
100
AcDbEntity
  8
0
100
AcDbLine
 62
7
  6
CONTINUOUS
 10
23.5687861015
 20
81.895601173
 11
23.5687861015
 21
113.195601173
  0
LINE
  5
242
100
AcDbEntity
  8
0
100
AcDbLine
 62
7
  6
CONTINUOUS
 10
24.0687861015
 20
116.195601173
 11
24.0687861015
 21
115.5956048778
  0
LINE
  5
243
100
AcDbEntity
  8
0
100
AcDbLine
 62
7
  6
CONTINUOUS
 10
44.1687861015
 20
100.082352519
 11
49.1687861015
 21
102.9691038649
  0
LINE
  5
244
100
AcDbEntity
  8
0
100
AcDbLine
 62
7
  6
CONTINUOUS
 10
49.7687861015
 20
41.6966890493
 11
50.0687861015
 21
41.7001842714
  0
LINE
  5
245
100
AcDbEntity
  8
0
100
AcDbLine
 62
7
  6
CONTINUOUS
 10
35.3879036234
 20
40.0792276405
 11
42.435159634
 21
40.0792276405
  0
LINE
  5
246
100
AcDbEntity
  8
0
100
AcDbLine
 62
7
  6
CONTINUOUS
 10
44.7687861015
 20
40.8341083361
 11
44.9687861015
 21
40.8341083361
  0
LINE
  5
247
100
AcDbEntity
  8
0
100
AcDbLine
 62
7
  6
CONTINUOUS
 10
42.4535875536
 20
40.859011326
 11
42.5044491846
 21
40.859011326
  0
LINE
  5
248
100
AcDbEntity
  8
0
100
AcDbLine
 62
7
  6
CONTINUOUS
 10
42.5254313892
 20
41.0280743023
 11
42.5044491846
 21
41.0280743023
  0
LINE
  5
249
100
AcDbEntity
  8
0
100
AcDbLine
 62
7
  6
CONTINUOUS
 10
15.9753142958
 20
41.120601173
 11
15.7187861015
 21
41.120601173
  0
LINE
  5
24A
100
AcDbEntity
  8
0
100
AcDbLine
 62
7
  6
CONTINUOUS
 10
43.1687861015
 20
42.8341083361
 11
44.7687861015
 21
42.8341083361
  0
LINE
  5
24B
100
AcDbEntity
  8
0
100
AcDbLine
 62
7
  6
CONTINUOUS
 10
85.4687861015
 20
43.200601173
 11
80.0687861015
 21
43.200601173
  0
LINE
  5
24C
100
AcDbEntity
  8
0
100
AcDbLine
 62
7
  6
CONTINUOUS
 10
34.5793754052
 20
43.3958524309
 11
39.1185348436
 21
43.3958524309
  0
LINE
  5
24D
100
AcDbEntity
  8
0
100
AcDbLine
 62
7
  6
CONTINUOUS
 10
44.9687861015
 20
37.545601173
 11
44.7687861015
 21
37.745601173
  0
LINE
  5
24E
100
AcDbEntity
  8
0
100
AcDbLine
 62
7
  6
CONTINUOUS
 10
42.4988105773
 20
40.0155766972
 11
38.9687861015
 21
43.545601173
  0
LINE
  5
24F
100
AcDbEntity
  8
0
100
AcDbLine
 62
7
  6
CONTINUOUS
 10
49.7687861015
 20
34.295601173
 11
49.5687861015
 21
34.495601173
  0
LINE
  5
250
100
AcDbEntity
  8
0
100
AcDbLine
 62
7
  6
CONTINUOUS
 10
25.3687861015
 20
112.695601173
 11
25.3687861015
 21
87.395601173
  0
LINE
  5
251
100
AcDbEntity
  8
0
100
AcDbLine
 62
7
  6
CONTINUOUS
 10
25.5687861015
 20
116.195601173
 11
25.5687861015
 21
118.695601173
  0
LINE
  5
252
100
AcDbEntity
  8
0
100
AcDbLine
 62
7
  6
CONTINUOUS
 10
26.5030926708
 20
116.195601173
 11
26.5030926708
 21
118.695601173
  0
LINE
  5
253
100
AcDbEntity
  8
0
100
AcDbLine
 62
7
  6
CONTINUOUS
 10
26.5687861015
 20
118.695601173
 11
26.5687861015
 21
120.295601173
  0
LINE
  5
254
100
AcDbEntity
  8
0
100
AcDbLine
 62
7
  6
CONTINUOUS
 10
27.0687861015
 20
116.195601173
 11
27.0687861015
 21
113.195601173
  0
LINE
  5
255
100
AcDbEntity
  8
0
100
AcDbLine
 62
7
  6
CONTINUOUS
 10
27.0106169104
 20
71.3567721482
 11
28.123058995
 21
74.8175253288
  0
LINE
  5
256
100
AcDbEntity
  8
0
100
AcDbLine
 62
7
  6
CONTINUOUS
 10
35.6687861015
 20
91.4220984811
 11
40.6687861015
 21
94.3088498271
  0
LINE
  5
257
100
AcDbEntity
  8
0
100
AcDbLine
 62
7
  6
CONTINUOUS
 10
89.0687861015
 20
45.295601173
 11
85.8687861015
 21
45.295601173
  0
LINE
  5
258
100
AcDbEntity
  8
0
100
AcDbLine
 62
7
  6
CONTINUOUS
 10
51.7687861015
 20
46.995601173
 11
78.3687861015
 21
46.995601173
  0
LINE
  5
259
100
AcDbEntity
  8
0
100
AcDbLine
 62
7
  6
CONTINUOUS
 10
52.0687861015
 20
47.295601173
 11
78.0687861015
 21
47.295601173
  0
LINE
  5
25A
100
AcDbEntity
  8
0
100
AcDbLine
 62
7
  6
CONTINUOUS
 10
50.0687861015
 20
47.563938694
 11
80.0687861015
 21
47.563938694
  0
LINE
  5
25B
100
AcDbEntity
  8
0
100
AcDbLine
 62
7
  6
CONTINUOUS
 10
50.6687861015
 20
47.7516667778
 11
80.0687861015
 21
47.7516667778
  0
LINE
  5
25C
100
AcDbEntity
  8
0
100
AcDbLine
 62
7
  6
CONTINUOUS
 10
50.4525303028
 20
47.895601173
 11
50.0687861015
 21
47.895601173
  0
LINE
  5
25D
100
AcDbEntity
  8
0
100
AcDbLine
 62
7
  6
CONTINUOUS
 10
50.0687861015
 20
48.700601173
 11
50.3371236224
 21
48.700601173
  0
LINE
  5
25E
100
AcDbEntity
  8
0
100
AcDbLine
 62
7
  6
CONTINUOUS
 10
15.7187861015
 20
49.270601173
 11
15.9753142958
 21
49.270601173
  0
LINE
  5
25F
100
AcDbEntity
  8
0
100
AcDbLine
 62
7
  6
CONTINUOUS
 10
42.5044491846
 20
38.64014237
 11
42.5254222815
 21
38.5948778517
  0
LINE
  5
260
100
AcDbEntity
  8
0
100
AcDbLine
 62
7
  6
CONTINUOUS
 10
29.6687861015
 20
121.0863871896
 11
29.6687861015
 21
122.195601173
  0
LINE
  5
261
100
AcDbEntity
  8
0
100
AcDbLine
 62
7
  6
CONTINUOUS
 10
30.6687861015
 20
94.3088498271
 11
30.6687861015
 21
100.082352519
  0
LINE
  5
262
100
AcDbEntity
  8
0
100
AcDbLine
 62
7
  6
CONTINUOUS
 10
31.1687861015
 20
122.195601173
 11
31.1687861015
 21
132.195601173
  0
LINE
  5
263
100
AcDbEntity
  8
0
100
AcDbLine
 62
7
  6
CONTINUOUS
 10
31.9187861015
 20
132.195601173
 11
31.9187861015
 21
133.195601173
  0
LINE
  5
264
100
AcDbEntity
  8
0
100
AcDbLine
 62
7
  6
CONTINUOUS
 10
32.5687861015
 20
120.295601173
 11
32.5687861015
 21
118.695601173
  0
LINE
  5
265
100
AcDbEntity
  8
0
100
AcDbLine
 62
7
  6
CONTINUOUS
 10
33.5687861015
 20
128.695601173
 11
33.5687861015
 21
116.195601173
  0
LINE
  5
266
100
AcDbEntity
  8
0
100
AcDbLine
 62
7
  6
CONTINUOUS
 10
28.471490126
 20
74.9614118465
 11
26.4125199041
 21
69.8809943808
  0
LINE
  5
267
100
AcDbEntity
  8
0
100
AcDbLine
 62
7
  6
CONTINUOUS
 10
44.9687861015
 20
94.995601173
 11
45.2687861015
 21
95.295601173
  0
LINE
  5
268
100
AcDbEntity
  8
0
100
AcDbLine
 62
7
  6
CONTINUOUS
 10
57.6687861015
 20
100.082352519
 11
62.6687861015
 21
102.9691038649
  0
LINE
  5
269
100
AcDbEntity
  8
0
100
AcDbLine
 62
7
  6
CONTINUOUS
 10
15.9687861015
 20
50.470601173
 11
15.7187861015
 21
50.470601173
  0
LINE
  5
26A
100
AcDbEntity
  8
0
100
AcDbLine
 62
7
  6
CONTINUOUS
 10
50.1062952875
 20
53.800601173
 11
50.0687861015
 21
53.800601173
  0
LINE
  5
26B
100
AcDbEntity
  8
0
100
AcDbLine
 62
7
  6
CONTINUOUS
 10
50.6687861015
 20
54.200601173
 11
85.4687861015
 21
54.200601173
  0
LINE
  5
26C
100
AcDbEntity
  8
0
100
AcDbLine
 62
7
  6
CONTINUOUS
 10
42.5044491846
 20
38.64014237
 11
42.4535916075
 21
38.8092053463
  0
LINE
  5
26D
100
AcDbEntity
  8
0
100
AcDbLine
 62
7
  6
CONTINUOUS
 10
34.4687861015
 20
45.195601173
 11
34.4687861015
 21
54.7670781707
  0
LINE
  5
26E
100
AcDbEntity
  8
0
100
AcDbLine
 62
7
  6
CONTINUOUS
 10
35.0687861015
 20
128.695601173
 11
35.0687861015
 21
118.695601173
  0
LINE
  5
26F
100
AcDbEntity
  8
0
100
AcDbLine
 62
7
  6
CONTINUOUS
 10
37.8457861015
 20
18.795601173
 11
37.8457861015
 21
35.8211854046
  0
LINE
  5
270
100
AcDbEntity
  8
0
100
AcDbLine
 62
7
  6
CONTINUOUS
 10
42.4535711876
 20
93.3205254109
 11
42.5044491846
 21
93.4895671391
  0
LINE
  5
271
100
AcDbEntity
  8
0
100
AcDbLine
 62
7
  6
CONTINUOUS
 10
42.5254313892
 20
93.5348316575
 11
42.5044491846
 21
93.4895671391
  0
LINE
  5
272
100
AcDbEntity
  8
0
100
AcDbLine
 62
7
  6
CONTINUOUS
 10
38.9687861015
 20
83.045601173
 11
44.9687861015
 21
89.045601173
  0
LINE
  5
273
100
AcDbEntity
  8
0
100
AcDbLine
 62
7
  6
CONTINUOUS
 10
34.4687861015
 20
56.4309873629
 11
34.1711639399
 21
56.4309873629
  0
LINE
  5
274
100
AcDbEntity
  8
0
100
AcDbLine
 62
7
  6
CONTINUOUS
 10
80.0687861015
 20
56.4671963086
 11
50.0687861015
 21
56.4671963086
  0
LINE
  5
275
100
AcDbEntity
  8
0
100
AcDbLine
 62
7
  6
CONTINUOUS
 10
38.9687861015
 20
43.545601173
 11
38.9687861015
 21
83.045601173
  0
LINE
  5
276
100
AcDbEntity
  8
0
100
AcDbLine
 62
7
  6
CONTINUOUS
 10
40.6687861015
 20
100.082352519
 11
40.6687861015
 21
94.3088498271
  0
LINE
  5
277
100
AcDbEntity
  8
0
100
AcDbLine
 62
7
  6
CONTINUOUS
 10
42.4187861015
 20
132.195601173
 11
42.4187861015
 21
133.195601173
  0
LINE
  5
278
100
AcDbEntity
  8
0
100
AcDbLine
 62
7
  6
CONTINUOUS
 10
43.1687861015
 20
36.8341083361
 11
43.1687861015
 21
42.8341083175
  0
LINE
  5
279
100
AcDbEntity
  8
0
100
AcDbLine
 62
7
  6
CONTINUOUS
 10
43.1687861015
 20
69.2570940099
 11
43.1687861015
 21
75.2570939912
  0
LINE
  5
27A
100
AcDbEntity
  8
0
100
AcDbLine
 62
7
  6
CONTINUOUS
 10
43.1687861015
 20
89.295601173
 11
43.1687861015
 21
95.2956011544
  0
LINE
  5
27B
100
AcDbEntity
  8
0
100
AcDbLine
 62
7
  6
CONTINUOUS
 10
43.1687861015
 20
128.695601173
 11
43.1687861015
 21
132.195601173
  0
LINE
  5
27C
100
AcDbEntity
  8
0
100
AcDbLine
 62
7
  6
CONTINUOUS
 10
42.4535711876
 20
73.2820182478
 11
42.5044491846
 21
73.451059976
  0
LINE
  5
27D
100
AcDbEntity
  8
0
100
AcDbLine
 62
7
  6
CONTINUOUS
 10
42.5254313892
 20
73.4963244944
 11
42.5044491846
 21
73.451059976
  0
LINE
  5
27E
100
AcDbEntity
  8
0
100
AcDbLine
 62
7
  6
CONTINUOUS
 10
67.6687861015
 20
94.3088498271
 11
67.1836862111
 21
94.0287772748
  0
LINE
  5
27F
100
AcDbEntity
  8
0
100
AcDbLine
 62
7
  6
CONTINUOUS
 10
50.0687861015
 20
63.295601173
 11
80.0687861015
 21
63.295601173
  0
LINE
  5
280
100
AcDbEntity
  8
0
100
AcDbLine
 62
7
  6
CONTINUOUS
 10
42.5044491846
 20
71.0631280438
 11
42.5254222815
 21
71.0178635254
  0
LINE
  5
281
100
AcDbEntity
  8
0
100
AcDbLine
 62
7
  6
CONTINUOUS
 10
42.5044491846
 20
71.0631280438
 11
42.4535919108
 21
71.2321909968
  0
LINE
  5
282
100
AcDbEntity
  8
0
100
AcDbLine
 62
7
  6
CONTINUOUS
 10
44.1687861015
 20
95.295601173
 11
44.1687861015
 21
100.082352519
  0
LINE
  5
283
100
AcDbEntity
  8
0
100
AcDbLine
 62
7
  6
CONTINUOUS
 10
44.7687861015
 20
95.295601173
 11
44.7687861015
 21
89.295601173
  0
LINE
  5
284
100
AcDbEntity
  8
0
100
AcDbLine
 62
7
  6
CONTINUOUS
 10
44.7687861015
 20
75.2570940099
 11
44.7687861015
 21
69.2570940099
  0
LINE
  5
285
100
AcDbEntity
  8
0
100
AcDbLine
 62
7
  6
CONTINUOUS
 10
44.7687861015
 20
42.8341083361
 11
44.7687861015
 21
36.8341083361
  0
LINE
  5
286
100
AcDbEntity
  8
0
100
AcDbLine
 62
7
  6
CONTINUOUS
 10
44.9687861015
 20
31.595601173
 11
44.9687861015
 21
94.995601173
  0
LINE
  5
287
100
AcDbEntity
  8
0
100
AcDbLine
 62
7
  6
CONTINUOUS
 10
45.2687861015
 20
31.295601173
 11
45.2687861015
 21
95.295601173
  0
LINE
  5
288
100
AcDbEntity
  8
0
100
AcDbLine
 62
7
  6
CONTINUOUS
 10
48.0687861015
 20
128.695601173
 11
48.0687861015
 21
118.695601173
  0
LINE
  5
289
100
AcDbEntity
  8
0
100
AcDbLine
 62
7
  6
CONTINUOUS
 10
24.4833928937
 20
67.9518673705
 11
19.402975428
 21
65.8928971485
  0
LINE
  5
28A
100
AcDbEntity
  8
0
100
AcDbLine
 62
7
  6
CONTINUOUS
 10
20.6687861015
 20
66.8055317559
 11
24.3010727762
 21
67.9731124383
  0
LINE
  5
28B
100
AcDbEntity
  8
0
100
AcDbLine
 62
7
  6
CONTINUOUS
 10
48.7457861015
 20
13.995601173
 11
48.7457861015
 21
18.380601173
  0
LINE
  5
28C
100
AcDbEntity
  8
0
100
AcDbLine
 62
7
  6
CONTINUOUS
 10
49.2687861015
 20
95.295601173
 11
49.2687861015
 21
73.3624381724
  0
LINE
  5
28D
100
AcDbEntity
  8
0
100
AcDbLine
 62
7
  6
CONTINUOUS
 10
49.2687861015
 20
72.8122738183
 11
49.2687861015
 21
31.295601173
  0
LINE
  5
28E
100
AcDbEntity
  8
0
100
AcDbLine
 62
7
  6
CONTINUOUS
 10
49.5687861015
 20
128.695601173
 11
49.5687861015
 21
116.195601173
  0
LINE
  5
28F
100
AcDbEntity
  8
0
100
AcDbLine
 62
7
  6
CONTINUOUS
 10
49.5687861015
 20
94.992433612
 11
49.5687861015
 21
74.2569858222
  0
LINE
  5
290
100
AcDbEntity
  8
0
100
AcDbLine
 62
7
  6
CONTINUOUS
 10
49.5687861015
 20
71.7177462412
 11
49.5687861015
 21
38.4736723536
  0
LINE
  5
291
100
AcDbEntity
  8
0
100
AcDbLine
 62
7
  6
CONTINUOUS
 10
49.5687861015
 20
37.1682010083
 11
49.5687861015
 21
31.595601173
  0
LINE
  5
292
100
AcDbEntity
  8
0
100
AcDbLine
 62
7
  6
CONTINUOUS
 10
49.7687861015
 20
34.295601173
 11
49.7687861015
 21
37.0968070633
  0
LINE
  5
293
100
AcDbEntity
  8
0
100
AcDbLine
 62
7
  6
CONTINUOUS
 10
49.7687861015
 20
41.6966890493
 11
49.7687861015
 21
69.5547147234
  0
LINE
  5
294
100
AcDbEntity
  8
0
100
AcDbLine
 62
7
  6
CONTINUOUS
 10
49.7687861015
 20
74.9943952827
 11
49.7687861015
 21
92.1664146513
  0
LINE
  5
295
100
AcDbEntity
  8
0
100
AcDbLine
 62
7
  6
CONTINUOUS
 10
50.0687861015
 20
19.295601173
 11
50.0687861015
 21
53.8004528115
  0
LINE
  5
296
100
AcDbEntity
  8
0
100
AcDbLine
 62
7
  6
CONTINUOUS
 10
50.0687861015
 20
53.8481094803
 11
50.0687861015
 21
63.295601173
  0
LINE
  5
297
100
AcDbEntity
  8
0
100
AcDbLine
 62
7
  6
CONTINUOUS
 10
50.3687861015
 20
18.995601173
 11
50.3687861015
 21
45.595601173
  0
LINE
  5
298
100
AcDbEntity
  8
0
100
AcDbLine
 62
7
  6
CONTINUOUS
 10
50.5687861015
 20
118.695601173
 11
50.5687861015
 21
120.295601173
  0
LINE
  5
299
100
AcDbEntity
  8
0
100
AcDbLine
 62
7
  6
CONTINUOUS
 10
50.6687861015
 20
47.7516667778
 11
50.6687861015
 21
54.200601173
  0
LINE
  5
29A
100
AcDbEntity
  8
0
100
AcDbLine
 62
7
  6
CONTINUOUS
 10
42.4535711876
 20
40.859032574
 11
42.5044491846
 21
41.0280743023
  0
LINE
  5
29B
100
AcDbEntity
  8
0
100
AcDbLine
 62
7
  6
CONTINUOUS
 10
20.6687861015
 20
66.5055317559
 11
19.8468619457
 21
66.2413282795
  0
LINE
  5
29C
100
AcDbEntity
  8
0
100
AcDbLine
 62
7
  6
CONTINUOUS
 10
44.7687861015
 20
69.2570940099
 11
43.1687861015
 21
69.2570940099
  0
LINE
  5
29D
100
AcDbEntity
  8
0
100
AcDbLine
 62
7
  6
CONTINUOUS
 10
42.5254222815
 20
71.0631280438
 11
42.5044491846
 21
71.0631280438
  0
LINE
  5
29E
100
AcDbEntity
  8
0
100
AcDbLine
 62
7
  6
CONTINUOUS
 10
42.4535913397
 20
71.2321910201
 11
42.5044491846
 21
71.2321910201
  0
LINE
  5
29F
100
AcDbEntity
  8
0
100
AcDbLine
 62
7
  6
CONTINUOUS
 10
44.9687861015
 20
71.2570940099
 11
44.7687861015
 21
71.2570940099
  0
LINE
  5
2A0
100
AcDbEntity
  8
0
100
AcDbLine
 62
7
  6
CONTINUOUS
 10
37.9781520142
 20
72.930762466
 11
38.9687861015
 21
72.930762466
  0
LINE
  5
2A1
100
AcDbEntity
  8
0
100
AcDbLine
 62
7
  6
CONTINUOUS
 10
78.0687861015
 20
47.295601173
 11
80.0687861015
 21
45.295601173
  0
LINE
  5
2A2
100
AcDbEntity
  8
0
100
AcDbLine
 62
7
  6
CONTINUOUS
 10
42.5044491846
 20
91.1016352069
 11
42.5254222815
 21
91.0563706885
  0
LINE
  5
2A3
100
AcDbEntity
  8
0
100
AcDbLine
 62
7
  6
CONTINUOUS
 10
42.5044491846
 20
91.1016352069
 11
42.4535919108
 21
91.2706981599
  0
LINE
  5
2A4
100
AcDbEntity
  8
0
100
AcDbLine
 62
7
  6
CONTINUOUS
 10
53.6687861015
 20
121.0863871896
 11
53.6687861015
 21
121.695601173
  0
LINE
  5
2A5
100
AcDbEntity
  8
0
100
AcDbLine
 62
7
  6
CONTINUOUS
 10
54.014231163
 20
121.0545579389
 11
54.014231163
 21
121.695601173
  0
LINE
  5
2A6
100
AcDbEntity
  8
0
100
AcDbLine
 62
7
  6
CONTINUOUS
 10
54.1687861015
 20
95.1097047315
 11
54.1687861015
 21
100.082352519
  0
LINE
  5
2A7
100
AcDbEntity
  8
0
100
AcDbLine
 62
7
  6
CONTINUOUS
 10
54.4187861015
 20
121.695601173
 11
54.4187861015
 21
128.195601173
  0
LINE
  5
2A8
100
AcDbEntity
  8
0
100
AcDbLine
 62
7
  6
CONTINUOUS
 10
55.6479907294
 20
121.695601173
 11
55.6479907294
 21
128.195601173
  0
LINE
  5
2A9
100
AcDbEntity
  8
0
100
AcDbLine
 62
7
  6
CONTINUOUS
 10
56.5687861015
 20
120.295601173
 11
56.5687861015
 21
118.695601173
  0
LINE
  5
2AA
100
AcDbEntity
  8
0
100
AcDbLine
 62
7
  6
CONTINUOUS
 10
56.6344795321
 20
118.695601173
 11
56.6344795321
 21
116.195601173
  0
LINE
  5
2AB
100
AcDbEntity
  8
0
100
AcDbLine
 62
7
  6
CONTINUOUS
 10
57.1687861015
 20
128.195601173
 11
57.1687861015
 21
130.195601173
  0
LINE
  5
2AC
100
AcDbEntity
  8
0
100
AcDbLine
 62
7
  6
CONTINUOUS
 10
57.2850612838
 20
128.195601173
 11
57.2850612838
 21
121.695601173
  0
LINE
  5
2AD
100
AcDbEntity
  8
0
100
AcDbLine
 62
7
  6
CONTINUOUS
 10
57.5687861015
 20
116.195601173
 11
57.5687861015
 21
118.695601173
  0
LINE
  5
2AE
100
AcDbEntity
  8
0
100
AcDbLine
 62
7
  6
CONTINUOUS
 10
42.5254313892
 20
41.0733388206
 11
42.5044491846
 21
41.0280743023
  0
LINE
  5
2AF
100
AcDbEntity
  8
0
100
AcDbLine
 62
7
  6
CONTINUOUS
 10
49.5687861015
 20
74.9909042697
 11
64.8187861015
 21
75.2570940099
  0
LINE
  5
2B0
100
AcDbEntity
  8
0
100
AcDbLine
 62
7
  6
CONTINUOUS
 10
44.7687861015
 20
73.2570940099
 11
44.9687861015
 21
73.2570940099
  0
LINE
  5
2B1
100
AcDbEntity
  8
0
100
AcDbLine
 62
7
  6
CONTINUOUS
 10
42.4535875536
 20
73.2819969997
 11
42.5044491846
 21
73.2819969997
  0
LINE
  5
2B2
100
AcDbEntity
  8
0
100
AcDbLine
 62
7
  6
CONTINUOUS
 10
42.5254313892
 20
73.451059976
 11
42.5044491846
 21
73.451059976
  0
LINE
  5
2B3
100
AcDbEntity
  8
0
100
AcDbLine
 62
7
  6
CONTINUOUS
 10
38.1069859981
 20
73.462173756
 11
38.9687861015
 21
73.462173756
  0
LINE
  5
2B4
100
AcDbEntity
  8
0
100
AcDbLine
 62
7
  6
CONTINUOUS
 10
43.1687861015
 20
75.2570940099
 11
44.7687861015
 21
75.2570940099
  0
LINE
  5
2B5
100
AcDbEntity
  8
0
100
AcDbLine
 62
7
  6
CONTINUOUS
 10
57.6687861015
 20
95.1707974588
 11
57.6687861015
 21
100.082352519
  0
LINE
  5
2B6
100
AcDbEntity
  8
0
100
AcDbLine
 62
7
  6
CONTINUOUS
 10
58.9188208502
 20
121.695601173
 11
58.9188208502
 21
119.195601173
  0
LINE
  5
2B7
100
AcDbEntity
  8
0
100
AcDbLine
 62
7
  6
CONTINUOUS
 10
60.4437033191
 20
119.195601173
 11
60.4437033191
 21
116.195601173
  0
LINE
  5
2B8
100
AcDbEntity
  8
0
100
AcDbLine
 62
7
  6
CONTINUOUS
 10
61.8938688838
 20
116.195601173
 11
61.8938688838
 21
119.195601173
  0
LINE
  5
2B9
100
AcDbEntity
  8
0
100
AcDbLine
 62
7
  6
CONTINUOUS
 10
62.0687861015
 20
17.295601173
 11
62.0687861015
 21
17.045601173
  0
LINE
  5
2BA
100
AcDbEntity
  8
0
100
AcDbLine
 62
7
  6
CONTINUOUS
 10
62.0687861015
 20
12.295601173
 11
62.0687861015
 21
12.045601173
  0
LINE
  5
2BB
100
AcDbEntity
  8
0
100
AcDbLine
 62
7
  6
CONTINUOUS
 10
38.9687861015
 20
78.3432359782
 11
32.8116368236
 21
78.3432359782
  0
LINE
  5
2BC
100
AcDbEntity
  8
0
100
AcDbLine
 62
7
  6
CONTINUOUS
 10
33.5687861015
 20
78.395601173
 11
38.9687861015
 21
78.395601173
  0
LINE
  5
2BD
100
AcDbEntity
  8
0
100
AcDbLine
 62
7
  6
CONTINUOUS
 10
38.9687861015
 20
78.495601173
 11
33.1687861015
 21
78.495601173
  0
LINE
  5
2BE
100
AcDbEntity
  8
0
100
AcDbLine
 62
7
  6
CONTINUOUS
 10
85.8687861015
 20
81.295601173
 11
89.0687861015
 21
81.295601173
  0
LINE
  5
2BF
100
AcDbEntity
  8
0
100
AcDbLine
 62
7
  6
CONTINUOUS
 10
38.9687861015
 20
81.795601173
 11
20.6687861015
 21
81.795601173
  0
LINE
  5
2C0
100
AcDbEntity
  8
0
100
AcDbLine
 62
7
  6
CONTINUOUS
 10
38.9687861015
 20
81.895601173
 11
20.5687861015
 21
81.895601173
  0
LINE
  5
2C1
100
AcDbEntity
  8
0
100
AcDbLine
 62
7
  6
CONTINUOUS
 10
18.5687861015
 20
82.595601173
 11
20.5687861015
 21
82.595601173
  0
LINE
  5
2C2
100
AcDbEntity
  8
0
100
AcDbLine
 62
7
  6
CONTINUOUS
 10
30.1687861015
 20
82.595601173
 11
38.9687861015
 21
82.595601173
  0
LINE
  5
2C3
100
AcDbEntity
  8
0
100
AcDbLine
 62
7
  6
CONTINUOUS
 10
30.6687861015
 20
94.3088498271
 11
35.6687861015
 21
91.4220984811
  0
LINE
  5
2C4
100
AcDbEntity
  8
0
100
AcDbLine
 62
7
  6
CONTINUOUS
 10
63.3687861015
 20
12.045601173
 11
63.3687861015
 21
12.295601173
  0
LINE
  5
2C5
100
AcDbEntity
  8
0
100
AcDbLine
 62
7
  6
CONTINUOUS
 10
63.3687861015
 20
17.045601173
 11
63.3687861015
 21
17.295601173
  0
LINE
  5
2C6
100
AcDbEntity
  8
0
100
AcDbLine
 62
7
  6
CONTINUOUS
 10
64.8187861015
 20
95.295601173
 11
64.8187861015
 21
92.1404287592
  0
LINE
  5
2C7
100
AcDbEntity
  8
0
100
AcDbLine
 62
7
  6
CONTINUOUS
 10
64.8187861015
 20
75.2570940099
 11
64.8187861015
 21
69.2976225071
  0
LINE
  5
2C8
100
AcDbEntity
  8
0
100
AcDbLine
 62
7
  6
CONTINUOUS
 10
65.1687861015
 20
128.195601173
 11
65.1687861015
 21
130.195601173
  0
LINE
  5
2C9
100
AcDbEntity
  8
0
100
AcDbLine
 62
7
  6
CONTINUOUS
 10
66.2687861015
 20
17.295601173
 11
66.2687861015
 21
17.045601173
  0
LINE
  5
2CA
100
AcDbEntity
  8
0
100
AcDbLine
 62
7
  6
CONTINUOUS
 10
66.2687861015
 20
12.295601173
 11
66.2687861015
 21
12.045601173
  0
LINE
  5
2CB
100
AcDbEntity
  8
0
100
AcDbLine
 62
7
  6
CONTINUOUS
 10
66.5687861015
 20
119.695601173
 11
66.5687861015
 21
116.195601173
  0
LINE
  5
2CC
100
AcDbEntity
  8
0
100
AcDbLine
 62
7
  6
CONTINUOUS
 10
20.5687861015
 20
87.395601173
 11
18.5687861015
 21
87.395601173
  0
LINE
  5
2CD
100
AcDbEntity
  8
0
100
AcDbLine
 62
7
  6
CONTINUOUS
 10
15.0687861015
 20
92.445601173
 11
18.5687861015
 21
91.8284567405
  0
LINE
  5
2CE
100
AcDbEntity
  8
0
100
AcDbLine
 62
7
  6
CONTINUOUS
 10
44.9687861015
 20
93.8469696117
 11
44.7687861015
 21
93.9624396656
  0
LINE
  5
2CF
100
AcDbEntity
  8
0
100
AcDbLine
 62
7
  6
CONTINUOUS
 10
85.4687861015
 20
54.200601173
 11
85.8687861015
 21
53.800601173
  0
LINE
  5
2D0
100
AcDbEntity
  8
0
100
AcDbLine
 62
7
  6
CONTINUOUS
 10
49.2687861015
 20
95.295601173
 11
49.5355558774
 21
95.0288313971
  0
LINE
  5
2D1
100
AcDbEntity
  8
0
100
AcDbLine
 62
7
  6
CONTINUOUS
 10
49.5355558774
 20
95.0288313971
 11
49.539271481
 21
95.0248260099
  0
LINE
  5
2D2
100
AcDbEntity
  8
0
100
AcDbLine
 62
7
  6
CONTINUOUS
 10
49.5355558774
 20
95.0288313971
 11
49.5687861015
 21
94.992433612
  0
LINE
  5
2D3
100
AcDbEntity
  8
0
100
AcDbLine
 62
7
  6
CONTINUOUS
 10
67.5687861015
 20
12.045601173
 11
67.5687861015
 21
12.295601173
  0
LINE
  5
2D4
100
AcDbEntity
  8
0
100
AcDbLine
 62
7
  6
CONTINUOUS
 10
67.5687861015
 20
17.045601173
 11
67.5687861015
 21
17.295601173
  0
LINE
  5
2D5
100
AcDbEntity
  8
0
100
AcDbLine
 62
7
  6
CONTINUOUS
 10
67.6687861015
 20
94.3088498271
 11
67.6687861015
 21
100.082352519
  0
LINE
  5
2D6
100
AcDbEntity
  8
0
100
AcDbLine
 62
7
  6
CONTINUOUS
 10
67.9187861015
 20
121.695601173
 11
67.9187861015
 21
128.195601173
  0
LINE
  5
2D7
100
AcDbEntity
  8
0
100
AcDbLine
 62
7
  6
CONTINUOUS
 10
68.6687861015
 20
120.5318461511
 11
68.6687861015
 21
121.695601173
  0
LINE
  5
2D8
100
AcDbEntity
  8
0
100
AcDbLine
 62
7
  6
CONTINUOUS
 10
71.2687861015
 20
116.195601173
 11
71.2687861015
 21
113.195601173
  0
LINE
  5
2D9
100
AcDbEntity
  8
0
100
AcDbLine
 62
7
  6
CONTINUOUS
 10
67.6534621963
 20
71.2749476677
 11
67.8187861015
 21
72.2570940099
  0
LINE
  5
2DA
100
AcDbEntity
  8
0
100
AcDbLine
 62
7
  6
CONTINUOUS
 10
50.0687861015
 20
45.295601173
 11
52.0687861015
 21
47.295601173
  0
LINE
  5
2DB
100
AcDbEntity
  8
0
100
AcDbLine
 62
7
  6
CONTINUOUS
 10
44.7687861015
 20
89.295601173
 11
43.1687861015
 21
89.295601173
  0
LINE
  5
2DC
100
AcDbEntity
  8
0
100
AcDbLine
 62
7
  6
CONTINUOUS
 10
35.6687861015
 20
90.195601173
 11
42.8428868997
 21
90.195601173
  0
LINE
  5
2DD
100
AcDbEntity
  8
0
100
AcDbLine
 62
7
  6
CONTINUOUS
 10
44.7687861015
 20
90.195601173
 11
44.9687861015
 21
90.195601173
  0
LINE
  5
2DE
100
AcDbEntity
  8
0
100
AcDbLine
 62
7
  6
CONTINUOUS
 10
84.3687861015
 20
90.295601173
 11
85.4687861015
 21
90.295601173
  0
LINE
  5
2DF
100
AcDbEntity
  8
0
100
AcDbLine
 62
7
  6
CONTINUOUS
 10
42.5254222815
 20
91.1016352069
 11
42.5044491846
 21
91.1016352069
  0
LINE
  5
2E0
100
AcDbEntity
  8
0
100
AcDbLine
 62
7
  6
CONTINUOUS
 10
42.4535913397
 20
91.2706981832
 11
42.5044491846
 21
91.2706981832
  0
LINE
  5
2E1
100
AcDbEntity
  8
0
100
AcDbLine
 62
7
  6
CONTINUOUS
 10
44.9687861015
 20
91.295601173
 11
44.7687861015
 21
91.295601173
  0
LINE
  5
2E2
100
AcDbEntity
  8
0
100
AcDbLine
 62
7
  6
CONTINUOUS
 10
64.8187861015
 20
92.1404287592
 11
49.7687861015
 21
92.1664146513
  0
LINE
  5
2E3
100
AcDbEntity
  8
0
100
AcDbLine
 62
7
  6
CONTINUOUS
 10
40.6687861015
 20
100.082352519
 11
35.6687861015
 21
102.9691038649
  0
LINE
  5
2E4
100
AcDbEntity
  8
0
100
AcDbLine
 62
7
  6
CONTINUOUS
 10
72.9687861015
 20
92.295601173
 11
72.9687861015
 21
112.695601173
  0
LINE
  5
2E5
100
AcDbEntity
  8
0
100
AcDbLine
 62
7
  6
CONTINUOUS
 10
74.2687861015
 20
115.595601173
 11
74.2687861015
 21
116.195601173
  0
LINE
  5
2E6
100
AcDbEntity
  8
0
100
AcDbLine
 62
7
  6
CONTINUOUS
 10
74.5687861015
 20
119.695601173
 11
74.5687861015
 21
116.195601173
  0
LINE
  5
2E7
100
AcDbEntity
  8
0
100
AcDbLine
 62
7
  6
CONTINUOUS
 10
74.7687861015
 20
113.195601173
 11
74.7687861015
 21
92.295601173
  0
LINE
  5
2E8
100
AcDbEntity
  8
0
100
AcDbLine
 62
7
  6
CONTINUOUS
 10
49.5355558774
 20
95.0288313971
 11
64.8187861015
 21
95.295601173
  0
LINE
  5
2E9
100
AcDbEntity
  8
0
100
AcDbLine
 62
7
  6
CONTINUOUS
 10
84.3687861015
 20
92.295601173
 11
67.8187861015
 21
92.295601173
  0
LINE
  5
2EA
100
AcDbEntity
  8
0
100
AcDbLine
 62
7
  6
CONTINUOUS
 10
44.7687861015
 20
93.295601173
 11
44.9687861015
 21
93.295601173
  0
LINE
  5
2EB
100
AcDbEntity
  8
0
100
AcDbLine
 62
7
  6
CONTINUOUS
 10
42.4535875536
 20
93.3205041628
 11
42.5044491846
 21
93.3205041628
  0
LINE
  5
2EC
100
AcDbEntity
  8
0
100
AcDbLine
 62
7
  6
CONTINUOUS
 10
42.5254313892
 20
93.4895671391
 11
42.5044491846
 21
93.4895671391
  0
LINE
  5
2ED
100
AcDbEntity
  8
0
100
AcDbLine
 62
7
  6
CONTINUOUS
 10
43.1687861015
 20
95.295601173
 11
44.7687861015
 21
95.295601173
  0
LINE
  5
2EE
100
AcDbEntity
  8
0
100
AcDbLine
 62
7
  6
CONTINUOUS
 10
45.2687861015
 20
95.295601173
 11
49.2687861015
 21
95.295601173
  0
LINE
  5
2EF
100
AcDbEntity
  8
0
100
AcDbLine
 62
7
  6
CONTINUOUS
 10
77.2687861015
 20
114.795601173
 11
77.2687861015
 21
113.195601173
  0
LINE
  5
2F0
100
AcDbEntity
  8
0
100
AcDbLine
 62
7
  6
CONTINUOUS
 10
77.7687861015
 20
92.295601173
 11
77.7687861015
 21
116.195601173
  0
LINE
  5
2F1
100
AcDbEntity
  8
0
100
AcDbLine
 62
7
  6
CONTINUOUS
 10
79.7687861015
 20
45.595601173
 11
79.7687861015
 21
18.995601173
  0
LINE
  5
2F2
100
AcDbEntity
  8
0
100
AcDbLine
 62
7
  6
CONTINUOUS
 10
80.0687861015
 20
63.295601173
 11
80.0687861015
 21
54.200601173
  0
LINE
  5
2F3
100
AcDbEntity
  8
0
100
AcDbLine
 62
7
  6
CONTINUOUS
 10
80.0687861015
 20
19.295601173
 11
80.0687861015
 21
47.7516667778
  0
LINE
  5
2F4
100
AcDbEntity
  8
0
100
AcDbLine
 62
7
  6
CONTINUOUS
 10
49.5687861015
 20
31.595601173
 11
49.2687861015
 21
31.295601173
  0
LINE
  5
2F5
100
AcDbEntity
  8
0
100
AcDbLine
 62
7
  6
CONTINUOUS
 10
49.1687861015
 20
102.9691038649
 11
54.1687861015
 21
100.082352519
  0
LINE
  5
2F6
100
AcDbEntity
  8
0
100
AcDbLine
 62
7
  6
CONTINUOUS
 10
81.4687861015
 20
34.295601173
 11
81.4687861015
 21
15.4147728721
  0
LINE
  5
2F7
100
AcDbEntity
  8
0
100
AcDbLine
 62
7
  6
CONTINUOUS
 10
82.0687861015
 20
16.7981027375
 11
82.0687861015
 21
34.295601173
  0
LINE
  5
2F8
100
AcDbEntity
  8
0
100
AcDbLine
 62
7
  6
CONTINUOUS
 10
82.2727832444
 20
28.995601173
 11
82.2727832444
 21
21.245601173
  0
LINE
  5
2F9
100
AcDbEntity
  8
0
100
AcDbLine
 62
7
  6
CONTINUOUS
 10
82.3513310366
 20
34.295601173
 11
82.3513310366
 21
33.195601173
  0
LINE
  5
2FA
100
AcDbEntity
  8
0
100
AcDbLine
 62
7
  6
CONTINUOUS
 10
82.3687861015
 20
18.795601173
 11
82.3687861015
 21
20.045601173
  0
LINE
  5
2FB
100
AcDbEntity
  8
0
100
AcDbLine
 62
7
  6
CONTINUOUS
 10
82.3687861015
 20
30.195601173
 11
82.3687861015
 21
32.695601173
  0
LINE
  5
2FC
100
AcDbEntity
  8
0
100
AcDbLine
 62
7
  6
CONTINUOUS
 10
82.6187861015
 20
34.295601173
 11
82.6187861015
 21
32.695601173
  0
LINE
  5
2FD
100
AcDbEntity
  8
0
100
AcDbLine
 62
7
  6
CONTINUOUS
 10
82.6187861015
 20
30.195601173
 11
82.6187861015
 21
20.045601173
  0
LINE
  5
2FE
100
AcDbEntity
  8
0
100
AcDbLine
 62
7
  6
CONTINUOUS
 10
84.3687861015
 20
92.295601173
 11
84.3687861015
 21
54.200601173
  0
LINE
  5
2FF
100
AcDbEntity
  8
0
100
AcDbLine
 62
7
  6
CONTINUOUS
 10
84.3687861015
 20
43.200601173
 11
84.3687861015
 21
34.2960216135
  0
LINE
  5
300
100
AcDbEntity
  8
0
100
AcDbLine
 62
7
  6
CONTINUOUS
 10
85.4687861015
 20
90.295601173
 11
85.4687861015
 21
36.295601173
  0
LINE
  5
301
100
AcDbEntity
  8
0
100
AcDbLine
 62
7
  6
CONTINUOUS
 10
85.8687861015
 20
89.895601173
 11
85.8687861015
 21
43.600601173
  0
LINE
  5
302
100
AcDbEntity
  8
0
100
AcDbLine
 62
7
  6
CONTINUOUS
 10
85.8687861015
 20
43.495601173
 11
85.8687861015
 21
36.695601173
  0
LINE
  5
303
100
AcDbEntity
  8
0
100
AcDbLine
 62
7
  6
CONTINUOUS
 10
62.6687861015
 20
104.195601173
 11
35.6687861015
 21
104.195601173
  0
LINE
  5
304
100
AcDbEntity
  8
0
100
AcDbLine
 62
7
  6
CONTINUOUS
 10
62.6687861015
 20
102.9691038649
 11
67.6687861015
 21
100.082352519
  0
LINE
  5
305
100
AcDbEntity
  8
0
100
AcDbLine
 62
7
  6
CONTINUOUS
 10
89.0687861015
 20
81.295601173
 11
89.3687861015
 21
80.995601173
  0
LINE
  5
306
100
AcDbEntity
  8
0
100
AcDbLine
 62
7
  6
CONTINUOUS
 10
89.0687861015
 20
81.295601173
 11
89.0687861015
 21
45.295601173
  0
LINE
  5
307
100
AcDbEntity
  8
0
100
AcDbLine
 62
7
  6
CONTINUOUS
 10
89.3687861015
 20
80.995601173
 11
89.3687861015
 21
45.595601173
  0
LINE
  5
308
100
AcDbEntity
  8
0
100
AcDbLine
 62
7
  6
CONTINUOUS
 10
15.0687861015
 20
101.945601173
 11
18.5687861015
 21
102.5627456055
  0
LINE
  5
309
100
AcDbEntity
  8
0
100
AcDbLine
 62
7
  6
CONTINUOUS
 10
77.7687861015
 20
110.195601173
 11
72.9687861015
 21
110.195601173
  0
LINE
  5
30A
100
AcDbEntity
  8
0
100
AcDbLine
 62
7
  6
CONTINUOUS
 10
25.3687861015
 20
110.195601173
 11
20.5687861015
 21
110.195601173
  0
LINE
  5
30B
100
AcDbEntity
  8
0
100
AcDbLine
 62
7
  6
CONTINUOUS
 10
85.4687861015
 20
90.295601173
 11
85.8687861015
 21
89.895601173
  0
LINE
  5
30C
100
AcDbEntity
  8
0
100
AcDbLine
 62
7
  6
CONTINUOUS
 10
72.9687861015
 20
112.695601173
 11
25.3687861015
 21
112.695601173
  0
LINE
  5
30D
100
AcDbEntity
  8
0
100
AcDbLine
 62
7
  6
CONTINUOUS
 10
18.5687861015
 20
112.695601173
 11
20.5687861015
 21
112.695601173
  0
LINE
  5
30E
100
AcDbEntity
  8
0
100
AcDbLine
 62
7
  6
CONTINUOUS
 10
20.5687861015
 20
113.195601173
 11
27.0687861015
 21
113.195601173
  0
LINE
  5
30F
100
AcDbEntity
  8
0
100
AcDbLine
 62
7
  6
CONTINUOUS
 10
71.2687861015
 20
113.195601173
 11
77.7687861015
 21
113.195601173
  0
LINE
  5
310
100
AcDbEntity
  8
0
100
AcDbLine
 62
7
  6
CONTINUOUS
 10
21.0687861015
 20
114.795601173
 11
27.0687861015
 21
114.795601173
  0
LINE
  5
311
100
AcDbEntity
  8
0
100
AcDbLine
 62
7
  6
CONTINUOUS
 10
71.2687861015
 20
114.795601173
 11
77.2687861015
 21
114.795601173
  0
LINE
  5
312
100
AcDbEntity
  8
0
100
AcDbLine
 62
7
  6
CONTINUOUS
 10
74.2754537561
 20
115.5956048778
 11
74.2621184469
 21
115.5956048778
  0
LINE
  5
313
100
AcDbEntity
  8
0
100
AcDbLine
 62
7
  6
CONTINUOUS
 10
24.0754537561
 20
115.5956048778
 11
24.0621184469
 21
115.5956048778
  0
LINE
  5
314
100
AcDbEntity
  8
0
100
AcDbLine
 62
7
  6
CONTINUOUS
 10
85.8687861015
 20
43.600601173
 11
85.4687861015
 21
43.200601173
  0
LINE
  5
315
100
AcDbEntity
  8
0
100
AcDbLine
 62
7
  6
CONTINUOUS
 10
89.3687861015
 20
45.595601173
 11
89.0687861015
 21
45.295601173
  0
LINE
  5
316
100
AcDbEntity
  8
0
100
AcDbLine
 62
7
  6
CONTINUOUS
 10
20.5687861015
 20
116.195601173
 11
77.7687861015
 21
116.195601173
  0
LINE
  5
317
100
AcDbEntity
  8
0
100
AcDbLine
 62
7
  6
CONTINUOUS
 10
25.5687985233
 20
118.695601173
 11
57.5687736797
 21
118.695601173
  0
LINE
  5
318
100
AcDbEntity
  8
0
100
AcDbLine
 62
7
  6
CONTINUOUS
 10
32.5687861015
 20
119.195601173
 11
33.5687861015
 21
119.195601173
  0
LINE
  5
319
100
AcDbEntity
  8
0
100
AcDbLine
 62
7
  6
CONTINUOUS
 10
56.5687861015
 20
119.195601173
 11
66.5687861015
 21
119.195601173
  0
LINE
  5
31A
100
AcDbEntity
  8
0
100
AcDbLine
 62
7
  6
CONTINUOUS
 10
66.5687861015
 20
119.695601173
 11
74.5687861015
 21
119.695601173
  0
LINE
  5
31B
100
AcDbEntity
  8
0
100
AcDbLine
 62
7
  6
CONTINUOUS
 10
26.5687861015
 20
120.295601173
 11
32.5687861015
 21
120.295601173
  0
LINE
  5
31C
100
AcDbEntity
  8
0
100
AcDbLine
 62
7
  6
CONTINUOUS
 10
50.5687861015
 20
120.295601173
 11
56.5687861015
 21
120.295601173
  0
LINE
  5
31D
100
AcDbEntity
  8
0
100
AcDbLine
 62
7
  6
CONTINUOUS
 10
85.8687861015
 20
36.695601173
 11
85.4687861015
 21
36.295601173
  0
LINE
  5
31E
100
AcDbEntity
  8
0
100
AcDbLine
 62
7
  6
CONTINUOUS
 10
70.5750367902
 20
120.7956036776
 11
70.5625354127
 21
120.7956036776
  0
LINE
  5
31F
100
AcDbEntity
  8
0
100
AcDbLine
 62
7
  6
CONTINUOUS
 10
53.6689861591
 20
121.695601173
 11
55.6479907294
 21
121.695601173
  0
LINE
  5
320
100
AcDbEntity
  8
0
100
AcDbLine
 62
7
  6
CONTINUOUS
 10
57.2850612838
 20
121.695601173
 11
68.6685860439
 21
121.695601173
  0
LINE
  5
321
100
AcDbEntity
  8
0
100
AcDbLine
 62
7
  6
CONTINUOUS
 10
29.6688005165
 20
122.195601173
 11
33.5687861015
 21
122.195601173
  0
LINE
  5
322
100
AcDbEntity
  8
0
100
AcDbLine
 62
7
  6
CONTINUOUS
 10
78.0687861015
 20
17.295601173
 11
80.0687861015
 21
19.295601173
  0
LINE
  5
323
100
AcDbEntity
  8
0
100
AcDbLine
 62
7
  6
CONTINUOUS
 10
54.4188114149
 20
128.195601173
 11
67.9187607881
 21
128.195601173
  0
LINE
  5
324
100
AcDbEntity
  8
0
100
AcDbLine
 62
7
  6
CONTINUOUS
 10
33.5687861015
 20
128.695601173
 11
49.5687861015
 21
128.695601173
  0
LINE
  5
325
100
AcDbEntity
  8
0
100
AcDbLine
 62
7
  6
CONTINUOUS
 10
57.1687982294
 20
130.195601173
 11
65.1687739736
 21
130.195601173
  0
LINE
  5
326
100
AcDbEntity
  8
0
100
AcDbLine
 62
7
  6
CONTINUOUS
 10
31.1690185358
 20
132.195601173
 11
43.1685536672
 21
132.195601173
  0
LINE
  5
327
100
AcDbEntity
  8
0
100
AcDbLine
 62
7
  6
CONTINUOUS
 10
31.9189952922
 20
133.195601173
 11
42.4185769108
 21
133.195601173
  0
ARC
  5
328
100
AcDbEntity
  8
0
100
AcDbCircle
 62
7
  6
CONTINUOUS
 10
19.9242730993
 20
28.3096496781
 40
0.747
100
AcDbArc
 50
350.6852752212
 51
69.3147288998
  0
ARC
  5
329
100
AcDbEntity
  8
0
100
AcDbCircle
 62
7
  6
CONTINUOUS
 10
19.9242730993
 20
30.0815526679
 40
0.747
100
AcDbArc
 50
290.6852752212
 51
9.3147285262
  0
ARC
  5
32A
100
AcDbEntity
  8
0
100
AcDbCircle
 62
7
  6
CONTINUOUS
 10
20.2587861015
 20
29.195601173
 40
0.2
100
AcDbArc
 50
110.6852752212
 51
249.3147093872
  0
ARC
  5
32B
100
AcDbEntity
  8
0
100
AcDbCircle
 62
7
  6
CONTINUOUS
 10
21.4587861015
 20
27.4236981832
 40
0.747
100
AcDbArc
 50
50.6852752212
 51
129.3147247788
  0
ARC
  5
32C
100
AcDbEntity
  8
0
100
AcDbCircle
 62
7
  6
CONTINUOUS
 10
20.8587861015
 20
28.1563706885
 40
0.2
100
AcDbArc
 50
170.6852752212
 51
309.3147247789
  0
ARC
  5
32D
100
AcDbEntity
  8
0
100
AcDbCircle
 62
7
  6
CONTINUOUS
 10
21.4687861015
 20
29.595601173
 40
5.5
100
AcDbArc
 50
180.0
 51
247.9384786762
  0
ARC
  5
32E
100
AcDbEntity
  8
0
100
AcDbCircle
 62
7
  6
CONTINUOUS
 10
21.4687861015
 20
29.195601173
 40
5.3
100
AcDbArc
 50
205.7422181757
 51
252.180253767
  0
CIRCLE
  5
32F
100
AcDbEntity
  8
0
100
AcDbCircle
 62
7
  6
CONTINUOUS
 10
21.4587861015
 20
29.195601173
 40
3.9706315776
  0
CIRCLE
  5
330
100
AcDbEntity
  8
0
100
AcDbCircle
 62
7
  6
CONTINUOUS
 10
21.4587861015
 20
29.195601173
 40
3.4725342285
  0
CIRCLE
  5
331
100
AcDbEntity
  8
0
100
AcDbCircle
 62
7
  6
CONTINUOUS
 10
21.4587861015
 20
29.195601173
 40
3.2659727048
  0
CIRCLE
  5
332
100
AcDbEntity
  8
0
100
AcDbCircle
 62
7
  6
CONTINUOUS
 10
21.4587861015
 20
29.195601173
 40
3.0667337652
  0
CIRCLE
  5
333
100
AcDbEntity
  8
0
100
AcDbCircle
 62
7
  6
CONTINUOUS
 10
21.4587861015
 20
29.195601173
 40
2.8
  0
CIRCLE
  5
334
100
AcDbEntity
  8
0
100
AcDbCircle
 62
7
  6
CONTINUOUS
 10
21.4587861015
 20
29.195601173
 40
2.5555555556
  0
ARC
  5
335
100
AcDbEntity
  8
0
100
AcDbCircle
 62
7
  6
CONTINUOUS
 10
21.4587861015
 20
30.9675041628
 40
0.747
100
AcDbArc
 50
230.6852752212
 51
309.3147274363
  0
ARC
  5
336
100
AcDbEntity
  8
0
100
AcDbCircle
 62
7
  6
CONTINUOUS
 10
20.8587861015
 20
30.2348316576
 40
0.2
100
AcDbArc
 50
50.6852752212
 51
189.3147107824
  0
ARC
  5
337
100
AcDbEntity
  8
0
100
AcDbCircle
 62
7
  6
CONTINUOUS
 10
23.1687861015
 20
19.195601173
 40
3.5
100
AcDbArc
 50
22.0615213238
 51
67.9384786761
  0
ARC
  5
338
100
AcDbEntity
  8
0
100
AcDbCircle
 62
7
  6
CONTINUOUS
 10
22.9932991037
 20
30.0815526679
 40
0.747
100
AcDbArc
 50
170.6852752212
 51
249.3147269171
  0
ARC
  5
339
100
AcDbEntity
  8
0
100
AcDbCircle
 62
7
  6
CONTINUOUS
 10
22.9932991037
 20
28.3096496781
 40
0.747
100
AcDbArc
 50
110.6852752212
 51
189.3147247788
  0
ARC
  5
33A
100
AcDbEntity
  8
0
100
AcDbCircle
 62
7
  6
CONTINUOUS
 10
22.0587861015
 20
30.2348316576
 40
0.2
100
AcDbArc
 50
350.6852752212
 51
129.3147148531
  0
ARC
  5
33B
100
AcDbEntity
  8
0
100
AcDbCircle
 62
7
  6
CONTINUOUS
 10
22.6587861015
 20
29.195601173
 40
0.2
100
AcDbArc
 50
290.6852752212
 51
69.3147167925
  0
ARC
  5
33C
100
AcDbEntity
  8
0
100
AcDbCircle
 62
7
  6
CONTINUOUS
 10
22.0587861015
 20
28.1563706885
 40
0.2
100
AcDbArc
 50
230.6852752212
 51
9.3147247788
  0
ARC
  5
33D
100
AcDbEntity
  8
0
100
AcDbCircle
 62
7
  6
CONTINUOUS
 10
21.4687861015
 20
60.795601173
 40
5.5
100
AcDbArc
 50
112.0615213239
 51
180.0
  0
ARC
  5
33E
100
AcDbEntity
  8
0
100
AcDbCircle
 62
7
  6
CONTINUOUS
 10
21.4687861015
 20
61.195601173
 40
5.3
100
AcDbArc
 50
107.819746233
 51
138.3930188344
  0
ARC
  5
33F
100
AcDbEntity
  8
0
100
AcDbCircle
 62
7
  6
CONTINUOUS
 10
23.1687861015
 20
71.495601173
 40
3.7
100
AcDbArc
 50
287.819746233
 51
313.7448825319
  0
ARC
  5
340
100
AcDbEntity
  8
0
100
AcDbCircle
 62
7
  6
CONTINUOUS
 10
23.1687861015
 20
71.195601173
 40
3.5
100
AcDbArc
 50
292.0615213239
 51
337.9384786761
  0
ARC
  5
341
100
AcDbEntity
  8
0
100
AcDbCircle
 62
7
  6
CONTINUOUS
 10
33.5687861015
 20
17.495601173
 40
5.5
100
AcDbArc
 50
202.0615213239
 51
270.0
  0
ARC
  5
342
100
AcDbEntity
  8
0
100
AcDbCircle
 62
7
  6
CONTINUOUS
 10
33.1687861015
 20
17.495601173
 40
5.3
100
AcDbArc
 50
197.819746233
 51
228.3930188344
  0
ARC
  5
343
100
AcDbEntity
  8
0
100
AcDbCircle
 62
7
  6
CONTINUOUS
 10
29.6687861015
 20
54.7670781707
 40
4.8
100
AcDbArc
 50
0.0
 51
59.3225755274
  0
ARC
  5
344
100
AcDbEntity
  8
0
100
AcDbCircle
 62
7
  6
CONTINUOUS
 10
31.6342730993
 20
73.7915526679
 40
0.747
100
AcDbArc
 50
290.685276621
 51
9.3147237486
  0
ARC
  5
345
100
AcDbEntity
  8
0
100
AcDbCircle
 62
7
  6
CONTINUOUS
 10
31.6342730993
 20
72.0196496781
 40
0.747
100
AcDbArc
 50
350.6852752212
 51
69.3147235499
  0
ARC
  5
346
100
AcDbEntity
  8
0
100
AcDbCircle
 62
7
  6
CONTINUOUS
 10
31.9687861015
 20
72.905601173
 40
0.2
100
AcDbArc
 50
110.6852699929
 51
249.3147293691
  0
ARC
  5
347
100
AcDbEntity
  8
0
100
AcDbCircle
 62
7
  6
CONTINUOUS
 10
33.9562861015
 20
61.9615149726
 40
0.55
100
AcDbArc
 50
156.4692484575
 51
323.53076099
  0
ARC
  5
348
100
AcDbEntity
  8
0
100
AcDbCircle
 62
7
  6
CONTINUOUS
 10
33.2437861015
 20
63.195601173
 40
0.55
100
AcDbArc
 50
96.4692476151
 51
263.5307589364
  0
ARC
  5
349
100
AcDbEntity
  8
0
100
AcDbCircle
 62
7
  6
CONTINUOUS
 10
33.9562861015
 20
64.4296873734
 40
0.55
100
AcDbArc
 50
36.4692467803
 51
203.5307589364
  0
ARC
  5
34A
100
AcDbEntity
  8
0
100
AcDbCircle
 62
7
  6
CONTINUOUS
 10
33.1439606554
 20
62.3152427913
 40
0.336
100
AcDbArc
 50
336.4692289605
 51
83.5307589364
  0
ARC
  5
34B
100
AcDbEntity
  8
0
100
AcDbCircle
 62
7
  6
CONTINUOUS
 10
33.1439606554
 20
64.0759595548
 40
0.336
100
AcDbArc
 50
276.4692303393
 51
23.5307589364
  0
ARC
  5
34C
100
AcDbEntity
  8
0
100
AcDbCircle
 62
7
  6
CONTINUOUS
 10
33.1162055276
 20
72.8718346118
 40
4.8
100
AcDbArc
 50
279.1155816212
 51
353.6835243675
  0
ARC
  5
34D
100
AcDbEntity
  8
0
100
AcDbCircle
 62
7
  6
CONTINUOUS
 10
33.1687861015
 20
71.1336981832
 40
0.747
100
AcDbArc
 50
50.6852752212
 51
129.3147247788
  0
ARC
  5
34E
100
AcDbEntity
  8
0
100
AcDbCircle
 62
7
  6
CONTINUOUS
 10
32.5687861015
 20
71.8663706885
 40
0.2
100
AcDbArc
 50
170.6852752212
 51
309.3147247789
  0
ARC
  5
34F
100
AcDbEntity
  8
0
100
AcDbCircle
 62
7
  6
CONTINUOUS
 10
33.1687861015
 20
73.195601173
 40
5.3
100
AcDbArc
 50
90.0
 51
162.180253767
  0
CIRCLE
  5
350
100
AcDbEntity
  8
0
100
AcDbCircle
 62
7
  6
CONTINUOUS
 10
33.1687861015
 20
72.905601173
 40
3.9706315776
  0
CIRCLE
  5
351
100
AcDbEntity
  8
0
100
AcDbCircle
 62
7
  6
CONTINUOUS
 10
33.1687861015
 20
72.905601173
 40
3.4725342285
  0
CIRCLE
  5
352
100
AcDbEntity
  8
0
100
AcDbCircle
 62
7
  6
CONTINUOUS
 10
33.1687861015
 20
72.905601173
 40
3.2659727048
  0
CIRCLE
  5
353
100
AcDbEntity
  8
0
100
AcDbCircle
 62
7
  6
CONTINUOUS
 10
33.1687861015
 20
72.905601173
 40
3.0667337652
  0
CIRCLE
  5
354
100
AcDbEntity
  8
0
100
AcDbCircle
 62
7
  6
CONTINUOUS
 10
33.1687861015
 20
72.905601173
 40
2.8
  0
CIRCLE
  5
355
100
AcDbEntity
  8
0
100
AcDbCircle
 62
7
  6
CONTINUOUS
 10
33.1687861015
 20
72.905601173
 40
2.5555555556
  0
ARC
  5
356
100
AcDbEntity
  8
0
100
AcDbCircle
 62
7
  6
CONTINUOUS
 10
33.1687861015
 20
74.6775041628
 40
0.747
100
AcDbArc
 50
230.685274413
 51
309.3147241399
  0
ARC
  5
357
100
AcDbEntity
  8
0
100
AcDbCircle
 62
7
  6
CONTINUOUS
 10
32.5687861015
 20
73.9448316576
 40
0.2
100
AcDbArc
 50
50.6852782397
 51
189.3147286267
  0
ARC
  5
358
100
AcDbEntity
  8
0
100
AcDbCircle
 62
7
  6
CONTINUOUS
 10
33.5687861015
 20
72.895601173
 40
5.5
100
AcDbArc
 50
90.0
 51
157.9384786761
  0
ARC
  5
359
100
AcDbEntity
  8
0
100
AcDbCircle
 62
7
  6
CONTINUOUS
 10
33.7687861015
 20
71.8663706885
 40
0.2
100
AcDbArc
 50
230.6852752212
 51
9.3147301149
  0
ARC
  5
35A
100
AcDbEntity
  8
0
100
AcDbCircle
 62
7
  6
CONTINUOUS
 10
33.7687861015
 20
73.9448316576
 40
0.2
100
AcDbArc
 50
350.6852722026
 51
129.3147271652
  0
ARC
  5
35B
100
AcDbEntity
  8
0
100
AcDbCircle
 62
7
  6
CONTINUOUS
 10
34.3687861015
 20
72.905601173
 40
0.2
100
AcDbArc
 50
290.6852699929
 51
69.3147293691
  0
ARC
  5
35C
100
AcDbEntity
  8
0
100
AcDbCircle
 62
7
  6
CONTINUOUS
 10
-7.7598409409
 20
149.789637058
 40
81.4246810857
100
AcDbArc
 50
314.754411918
 51
314.9529324632
  0
ARC
  5
35D
100
AcDbEntity
  8
0
100
AcDbCircle
 62
7
  6
CONTINUOUS
 10
29.6154060273
 20
114.8957764511
 40
6.2
100
AcDbArc
 50
90.4308306716
 51
119.4320036847
  0
ARC
  5
35E
100
AcDbEntity
  8
0
100
AcDbCircle
 62
7
  6
CONTINUOUS
 10
29.5221661756
 20
114.8957764511
 40
6.2
100
AcDbArc
 50
60.5679963153
 51
89.5691693284
  0
ARC
  5
35F
100
AcDbEntity
  8
0
100
AcDbCircle
 62
7
  6
CONTINUOUS
 10
24.0621184469
 20
109.5956048778
 40
6.0
100
AcDbArc
 50
90.0
 51
119.9265057808
  0
ARC
  5
360
100
AcDbEntity
  8
0
100
AcDbCircle
 62
7
  6
CONTINUOUS
 10
24.0754537561
 20
109.5956048778
 40
6.0
100
AcDbArc
 50
60.0734942192
 51
90.0
  0
ARC
  5
361
100
AcDbEntity
  8
0
100
AcDbCircle
 62
7
  6
CONTINUOUS
 10
30.1687861015
 20
87.395601173
 40
4.8
100
AcDbArc
 50
180.0
 51
270.0
  0
ARC
  5
362
100
AcDbEntity
  8
0
100
AcDbCircle
 62
7
  6
CONTINUOUS
 10
44.6457861015
 20
18.795601173
 40
6.8
100
AcDbArc
 50
180.0
 51
252.9174167566
  0
ARC
  5
363
100
AcDbEntity
  8
0
100
AcDbCircle
 62
7
  6
CONTINUOUS
 10
44.6457861015
 20
18.795601173
 40
6.8
100
AcDbArc
 50
253.3159574461
 51
262.8848570516
  0
ARC
  5
364
100
AcDbEntity
  8
0
100
AcDbCircle
 62
7
  6
CONTINUOUS
 10
43.7457861015
 20
18.380601173
 40
5.0
100
AcDbArc
 50
0.0
 51
89.0020087015
  0
CIRCLE
  5
365
100
AcDbEntity
  8
0
100
AcDbCircle
 62
7
  6
CONTINUOUS
 10
43.7457861015
 20
17.895601173
 40
4.0
  0
ARC
  5
366
100
AcDbEntity
  8
0
100
AcDbCircle
 62
7
  6
CONTINUOUS
 10
39.8457861015
 20
25.449601173
 40
2.0
100
AcDbArc
 50
180.0
 51
269.0020087015
  0
ARC
  5
367
100
AcDbEntity
  8
0
100
AcDbCircle
 62
7
  6
CONTINUOUS
 10
45.1707861015
 20
17.895601173
 40
0.55
100
AcDbArc
 50
276.4692440445
 51
83.5307589364
  0
ARC
  5
368
100
AcDbEntity
  8
0
100
AcDbCircle
 62
7
  6
CONTINUOUS
 10
44.4582861015
 20
16.6615149726
 40
0.55
100
AcDbArc
 50
216.469237301
 51
23.5307600341
  0
ARC
  5
369
100
AcDbEntity
  8
0
100
AcDbCircle
 62
7
  6
CONTINUOUS
 10
43.0332861015
 20
16.6615149726
 40
0.55
100
AcDbArc
 50
156.4692451889
 51
323.5307589364
  0
ARC
  5
36A
100
AcDbEntity
  8
0
100
AcDbCircle
 62
7
  6
CONTINUOUS
 10
42.3207861015
 20
17.895601173
 40
0.55
100
AcDbArc
 50
96.4692462702
 51
263.5307589364
  0
ARC
  5
36B
100
AcDbEntity
  8
0
100
AcDbCircle
 62
7
  6
CONTINUOUS
 10
43.0332861015
 20
19.1296873734
 40
0.55
100
AcDbArc
 50
36.4692459416
 51
203.5307600341
  0
ARC
  5
36C
100
AcDbEntity
  8
0
100
AcDbCircle
 62
7
  6
CONTINUOUS
 10
44.4582861015
 20
19.1296873734
 40
0.55
100
AcDbArc
 50
336.4692459416
 51
143.5307589364
  0
ARC
  5
36D
100
AcDbEntity
  8
0
100
AcDbCircle
 62
7
  6
CONTINUOUS
 10
45.2706115475
 20
17.0152427913
 40
0.336
100
AcDbArc
 50
96.4692361841
 51
203.5307571397
  0
ARC
  5
36E
100
AcDbEntity
  8
0
100
AcDbCircle
 62
7
  6
CONTINUOUS
 10
43.7457861015
 20
16.1348844095
 40
0.336
100
AcDbArc
 50
36.4692472225
 51
143.5307589364
  0
ARC
  5
36F
100
AcDbEntity
  8
0
100
AcDbCircle
 62
7
  6
CONTINUOUS
 10
42.2209606554
 20
17.0152427913
 40
0.336
100
AcDbArc
 50
336.4692343108
 51
83.5307589364
  0
ARC
  5
370
100
AcDbEntity
  8
0
100
AcDbCircle
 62
7
  6
CONTINUOUS
 10
42.2209606554
 20
18.7759595548
 40
0.336
100
AcDbArc
 50
276.4692325408
 51
23.5307571397
  0
ARC
  5
371
100
AcDbEntity
  8
0
100
AcDbCircle
 62
7
  6
CONTINUOUS
 10
43.7457861015
 20
19.6563179365
 40
0.336
100
AcDbArc
 50
216.4692330786
 51
323.5307589364
  0
ARC
  5
372
100
AcDbEntity
  8
0
100
AcDbCircle
 62
7
  6
CONTINUOUS
 10
45.2706115475
 20
18.7759595548
 40
0.336
100
AcDbArc
 50
156.4692330786
 51
263.5307589364
  0
ARC
  5
373
100
AcDbEntity
  8
0
100
AcDbCircle
 62
7
  6
CONTINUOUS
 10
45.4217984025
 20
35.671186534
 40
7.4298709548
100
AcDbArc
 50
54.1916905004
 51
56.0719972075
  0
CIRCLE
  5
374
100
AcDbEntity
  8
0
100
AcDbCircle
 62
7
  6
CONTINUOUS
 10
54.8157377743
 20
22.0425528458
 40
4.0
  0
ARC
  5
375
100
AcDbEntity
  8
0
100
AcDbCircle
 62
7
  6
CONTINUOUS
 10
50.7457861015
 20
13.995601173
 40
2.0
100
AcDbArc
 50
180.0
 51
238.2116693829
  0
ARC
  5
376
100
AcDbEntity
  8
0
100
AcDbCircle
 62
7
  6
CONTINUOUS
 10
54.446920635
 20
20.6661085434
 40
0.55
100
AcDbArc
 50
171.469243518
 51
338.5307600341
  0
ARC
  5
377
100
AcDbEntity
  8
0
100
AcDbCircle
 62
7
  6
CONTINUOUS
 10
55.8233649375
 20
21.0349256826
 40
0.55
100
AcDbArc
 50
231.4692410636
 51
38.5307600341
  0
ARC
  5
378
100
AcDbEntity
  8
0
100
AcDbCircle
 62
7
  6
CONTINUOUS
 10
55.1845549136
 20
23.4189971483
 40
0.55
100
AcDbArc
 50
351.4692458165
 51
158.5307600341
  0
ARC
  5
379
100
AcDbEntity
  8
0
100
AcDbCircle
 62
7
  6
CONTINUOUS
 10
53.4392934718
 20
21.6737357065
 40
0.55
100
AcDbArc
 50
111.4692410636
 51
278.5307619425
  0
ARC
  5
37A
100
AcDbEntity
  8
0
100
AcDbCircle
 62
7
  6
CONTINUOUS
 10
53.8081106111
 20
23.050180009
 40
0.55
100
AcDbArc
 50
51.4692410636
 51
218.5307544777
  0
ARC
  5
37B
100
AcDbEntity
  8
0
100
AcDbCircle
 62
7
  6
CONTINUOUS
 10
53.5707230111
 20
20.7975380826
 40
0.336
100
AcDbArc
 50
351.4692370459
 51
98.5307540158
  0
ARC
  5
37C
100
AcDbEntity
  8
0
100
AcDbCircle
 62
7
  6
CONTINUOUS
 10
55.2714448057
 20
20.3418310512
 40
0.336
100
AcDbArc
 50
51.4692410636
 51
158.5307571397
  0
ARC
  5
37D
100
AcDbEntity
  8
0
100
AcDbCircle
 62
7
  6
CONTINUOUS
 10
54.3600307429
 20
23.7432746405
 40
0.336
100
AcDbArc
 50
231.4692410636
 51
338.5307571397
  0
ARC
  5
37E
100
AcDbEntity
  8
0
100
AcDbCircle
 62
7
  6
CONTINUOUS
 10
53.1150159796
 20
22.4982598772
 40
0.336
100
AcDbArc
 50
291.4692410636
 51
38.5307662349
  0
ARC
  5
37F
100
AcDbEntity
  8
0
100
AcDbCircle
 62
7
  6
CONTINUOUS
 10
48.3687861015
 20
39.8341083361
 40
6.0033324079
100
AcDbArc
 50
150.0183607853
 51
168.6131107056
  0
ARC
  5
380
100
AcDbEntity
  8
0
100
AcDbCircle
 62
7
  6
CONTINUOUS
 10
48.3687861015
 20
39.8341083361
 40
6.0033324079
100
AcDbArc
 50
191.9977325832
 51
209.9816393688
  0
CIRCLE
  5
381
100
AcDbEntity
  8
0
100
AcDbCircle
 62
7
  6
CONTINUOUS
 10
54.8157377743
 20
42.5486495002
 40
4.0
  0
ARC
  5
382
100
AcDbEntity
  8
0
100
AcDbCircle
 62
7
  6
CONTINUOUS
 10
54.446920635
 20
41.1722051978
 40
0.55
100
AcDbArc
 50
171.469243518
 51
338.5307600341
  0
ARC
  5
383
100
AcDbEntity
  8
0
100
AcDbCircle
 62
7
  6
CONTINUOUS
 10
55.8233649375
 20
41.541022337
 40
0.55
100
AcDbArc
 50
231.4692410636
 51
38.5307600341
  0
ARC
  5
384
100
AcDbEntity
  8
0
100
AcDbCircle
 62
7
  6
CONTINUOUS
 10
53.4392934718
 20
42.179832361
 40
0.55
100
AcDbArc
 50
111.4692410636
 51
278.5307619425
  0
ARC
  5
385
100
AcDbEntity
  8
0
100
AcDbCircle
 62
7
  6
CONTINUOUS
 10
53.8081106111
 20
43.5562766634
 40
0.55
100
AcDbArc
 50
51.4692410636
 51
218.5307544777
  0
ARC
  5
386
100
AcDbEntity
  8
0
100
AcDbCircle
 62
7
  6
CONTINUOUS
 10
53.5707230111
 20
41.303634737
 40
0.336
100
AcDbArc
 50
351.4692370459
 51
98.5307540158
  0
ARC
  5
387
100
AcDbEntity
  8
0
100
AcDbCircle
 62
7
  6
CONTINUOUS
 10
55.2714448057
 20
40.8479277056
 40
0.336
100
AcDbArc
 50
51.4692410636
 51
158.5307571397
  0
ARC
  5
388
100
AcDbEntity
  8
0
100
AcDbCircle
 62
7
  6
CONTINUOUS
 10
53.1150159796
 20
43.0043565317
 40
0.336
100
AcDbArc
 50
291.4692410636
 51
38.5307662349
  0
ARC
  5
389
100
AcDbEntity
  8
0
100
AcDbCircle
 62
7
  6
CONTINUOUS
 10
49.1687861015
 20
45.195601173
 40
14.7
100
AcDbArc
 50
180.0
 51
219.6216697202
  0
ARC
  5
38A
100
AcDbEntity
  8
0
100
AcDbCircle
 62
7
  6
CONTINUOUS
 10
44.6457861015
 20
71.595601173
 40
6.8
100
AcDbArc
 50
148.1332091443
 51
173.6835243675
  0
ARC
  5
38B
100
AcDbEntity
  8
0
100
AcDbCircle
 62
7
  6
CONTINUOUS
 10
48.3687861015
 20
72.2570940099
 40
6.0033324079
100
AcDbArc
 50
150.0183607853
 51
168.6131107056
  0
ARC
  5
38C
100
AcDbEntity
  8
0
100
AcDbCircle
 62
7
  6
CONTINUOUS
 10
48.3687861015
 20
72.2570940099
 40
6.0033324079
100
AcDbArc
 50
191.9977325832
 51
209.9816393688
  0
ARC
  5
38D
100
AcDbEntity
  8
0
100
AcDbCircle
 62
7
  6
CONTINUOUS
 10
34.6687861015
 20
63.195601173
 40
5.0
100
AcDbArc
 50
30.0316105566
 51
55.179691102
  0
ARC
  5
38E
100
AcDbEntity
  8
0
100
AcDbCircle
 62
7
  6
CONTINUOUS
 10
34.6687861015
 20
63.195601173
 40
5.0
100
AcDbArc
 50
284.9005972793
 51
330.7328664558
  0
ARC
  5
38F
100
AcDbEntity
  8
0
100
AcDbCircle
 62
7
  6
CONTINUOUS
 10
34.6687861015
 20
63.195601173
 40
5.0
100
AcDbArc
 50
99.1155816211
 51
239.3225755274
  0
CIRCLE
  5
390
100
AcDbEntity
  8
0
100
AcDbCircle
 62
7
  6
CONTINUOUS
 10
34.6687861015
 20
63.195601173
 40
4.0
  0
ARC
  5
391
100
AcDbEntity
  8
0
100
AcDbCircle
 62
7
  6
CONTINUOUS
 10
49.3728234191
 20
72.3295492648
 40
2.802943663
100
AcDbArc
 50
274.0090001207
 51
278.1211530095
  0
ARC
  5
392
100
AcDbEntity
  8
0
100
AcDbCircle
 62
7
  6
CONTINUOUS
 10
38.6658182597
 20
68.9422292214
 40
2.0
100
AcDbArc
 50
144.6982082963
 51
235.179691102
  0
ARC
  5
393
100
AcDbEntity
  8
0
100
AcDbCircle
 62
7
  6
CONTINUOUS
 10
36.4687861015
 20
56.4309873629
 40
2.0
100
AcDbArc
 50
104.9005952091
 51
180.0
  0
ARC
  5
394
100
AcDbEntity
  8
0
100
AcDbCircle
 62
7
  6
CONTINUOUS
 10
34.7032991037
 20
73.7915526679
 40
0.747
100
AcDbArc
 50
170.6852760293
 51
249.3147235499
  0
ARC
  5
395
100
AcDbEntity
  8
0
100
AcDbCircle
 62
7
  6
CONTINUOUS
 10
34.7032991037
 20
72.0196496781
 40
0.747
100
AcDbArc
 50
110.685276621
 51
189.3147233502
  0
ARC
  5
396
100
AcDbEntity
  8
0
100
AcDbCircle
 62
7
  6
CONTINUOUS
 10
50.6687861015
 20
53.600601173
 40
0.6
100
AcDbArc
 50
90.0
 51
161.4208310563
  0
ARC
  5
397
100
AcDbEntity
  8
0
100
AcDbCircle
 62
7
  6
CONTINUOUS
 10
36.0937861015
 20
63.195601173
 40
0.55
100
AcDbArc
 50
276.4692462702
 51
83.5307589364
  0
ARC
  5
398
100
AcDbEntity
  8
0
100
AcDbCircle
 62
7
  6
CONTINUOUS
 10
35.3812861015
 20
61.9615149726
 40
0.55
100
AcDbArc
 50
216.4692374231
 51
23.5307589364
  0
ARC
  5
399
100
AcDbEntity
  8
0
100
AcDbCircle
 62
7
  6
CONTINUOUS
 10
35.3812861015
 20
64.4296873734
 40
0.55
100
AcDbArc
 50
336.4692467539
 51
143.5307589364
  0
ARC
  5
39A
100
AcDbEntity
  8
0
100
AcDbCircle
 62
7
  6
CONTINUOUS
 10
55.1845549136
 20
43.9250938027
 40
0.55
100
AcDbArc
 50
351.4692458165
 51
158.5307600341
  0
ARC
  5
39B
100
AcDbEntity
  8
0
100
AcDbCircle
 62
7
  6
CONTINUOUS
 10
36.1936115475
 20
62.3152427913
 40
0.336
100
AcDbArc
 50
96.4692325408
 51
203.5307589364
  0
ARC
  5
39C
100
AcDbEntity
  8
0
100
AcDbCircle
 62
7
  6
CONTINUOUS
 10
34.6687861015
 20
61.4348844095
 40
0.336
100
AcDbArc
 50
36.4692470227
 51
143.530755575
  0
ARC
  5
39D
100
AcDbEntity
  8
0
100
AcDbCircle
 62
7
  6
CONTINUOUS
 10
34.6687861015
 20
64.9563179365
 40
0.336
100
AcDbArc
 50
216.4692317058
 51
323.5307589364
  0
ARC
  5
39E
100
AcDbEntity
  8
0
100
AcDbCircle
 62
7
  6
CONTINUOUS
 10
36.1936115475
 20
64.0759595548
 40
0.336
100
AcDbArc
 50
156.469231749
 51
263.5307589364
  0
ARC
  5
39F
100
AcDbEntity
  8
0
100
AcDbCircle
 62
7
  6
CONTINUOUS
 10
54.3600307429
 20
44.2493712949
 40
0.336
100
AcDbArc
 50
231.4692410636
 51
338.5307571397
  0
ARC
  5
3A0
100
AcDbEntity
  8
0
100
AcDbCircle
 62
7
  6
CONTINUOUS
 10
56.1921820767
 20
22.4113699851
 40
0.55
100
AcDbArc
 50
291.469244491
 51
98.5307589364
  0
ARC
  5
3A1
100
AcDbEntity
  8
0
100
AcDbCircle
 62
7
  6
CONTINUOUS
 10
56.5164595689
 20
21.5868458144
 40
0.336
100
AcDbArc
 50
111.4692354532
 51
218.5307571397
  0
ARC
  5
3A2
100
AcDbEntity
  8
0
100
AcDbCircle
 62
7
  6
CONTINUOUS
 10
56.0607525375
 20
23.287567609
 40
0.336
100
AcDbArc
 50
171.4692332834
 51
278.5307589364
  0
ARC
  5
3A3
100
AcDbEntity
  8
0
100
AcDbCircle
 62
7
  6
CONTINUOUS
 10
56.1921820767
 20
42.9174666395
 40
0.55
100
AcDbArc
 50
291.469244491
 51
98.5307589364
  0
ARC
  5
3A4
100
AcDbEntity
  8
0
100
AcDbCircle
 62
7
  6
CONTINUOUS
 10
56.5164595689
 20
42.0929424688
 40
0.336
100
AcDbArc
 50
111.4692354532
 51
218.5307571397
  0
ARC
  5
3A5
100
AcDbEntity
  8
0
100
AcDbCircle
 62
7
  6
CONTINUOUS
 10
56.0607525375
 20
43.7936642634
 40
0.336
100
AcDbArc
 50
171.4692332834
 51
278.5307589364
  0
ARC
  5
3A6
100
AcDbEntity
  8
0
100
AcDbCircle
 62
7
  6
CONTINUOUS
 10
75.5687861015
 20
18.795601173
 40
6.8
100
AcDbArc
 50
287.0825832434
 51
342.9174167566
  0
ARC
  5
3A7
100
AcDbEntity
  8
0
100
AcDbCircle
 62
7
  6
CONTINUOUS
 10
75.5687861015
 20
18.795601173
 40
6.8
100
AcDbArc
 50
270.0000000001
 51
286.6840425539
  0
ARC
  5
3A8
100
AcDbEntity
  8
0
100
AcDbCircle
 62
7
  6
CONTINUOUS
 10
75.5687861015
 20
18.795601173
 40
6.8
100
AcDbArc
 50
343.3159574461
 51
360.0
  0
CIRCLE
  5
3A9
100
AcDbEntity
  8
0
100
AcDbCircle
 62
7
  6
CONTINUOUS
 10
75.3218344287
 20
22.0425528458
 40
4.0
  0
ARC
  5
3AA
100
AcDbEntity
  8
0
100
AcDbCircle
 62
7
  6
CONTINUOUS
 10
74.9530172894
 20
20.6661085434
 40
0.55
100
AcDbArc
 50
171.469243518
 51
338.5307600341
  0
ARC
  5
3AB
100
AcDbEntity
  8
0
100
AcDbCircle
 62
7
  6
CONTINUOUS
 10
76.3294615919
 20
21.0349256826
 40
0.55
100
AcDbArc
 50
231.4692410636
 51
38.5307600341
  0
ARC
  5
3AC
100
AcDbEntity
  8
0
100
AcDbCircle
 62
7
  6
CONTINUOUS
 10
76.6982787312
 20
22.4113699851
 40
0.55
100
AcDbArc
 50
291.469244491
 51
98.5307589364
  0
ARC
  5
3AD
100
AcDbEntity
  8
0
100
AcDbCircle
 62
7
  6
CONTINUOUS
 10
75.690651568
 20
23.4189971483
 40
0.55
100
AcDbArc
 50
351.4692458165
 51
158.5307600341
  0
ARC
  5
3AE
100
AcDbEntity
  8
0
100
AcDbCircle
 62
7
  6
CONTINUOUS
 10
73.9453901262
 20
21.6737357065
 40
0.55
100
AcDbArc
 50
111.4692410636
 51
278.5307619425
  0
ARC
  5
3AF
100
AcDbEntity
  8
0
100
AcDbCircle
 62
7
  6
CONTINUOUS
 10
74.3142072655
 20
23.050180009
 40
0.55
100
AcDbArc
 50
51.4692410636
 51
218.5307544778
  0
ARC
  5
3B0
100
AcDbEntity
  8
0
100
AcDbCircle
 62
7
  6
CONTINUOUS
 10
74.0768196655
 20
20.7975380826
 40
0.336
100
AcDbArc
 50
351.4692370459
 51
98.5307540158
  0
ARC
  5
3B1
100
AcDbEntity
  8
0
100
AcDbCircle
 62
7
  6
CONTINUOUS
 10
75.7775414601
 20
20.3418310512
 40
0.336
100
AcDbArc
 50
51.4692410636
 51
158.5307571397
  0
ARC
  5
3B2
100
AcDbEntity
  8
0
100
AcDbCircle
 62
7
  6
CONTINUOUS
 10
77.0225562233
 20
21.5868458144
 40
0.336
100
AcDbArc
 50
111.4692354532
 51
218.5307571397
  0
ARC
  5
3B3
100
AcDbEntity
  8
0
100
AcDbCircle
 62
7
  6
CONTINUOUS
 10
76.5668491919
 20
23.287567609
 40
0.336
100
AcDbArc
 50
171.4692332834
 51
278.5307589364
  0
ARC
  5
3B4
100
AcDbEntity
  8
0
100
AcDbCircle
 62
7
  6
CONTINUOUS
 10
74.8661273973
 20
23.7432746405
 40
0.336
100
AcDbArc
 50
231.4692410636
 51
338.5307571397
  0
ARC
  5
3B5
100
AcDbEntity
  8
0
100
AcDbCircle
 62
7
  6
CONTINUOUS
 10
73.621112634
 20
22.4982598772
 40
0.336
100
AcDbArc
 50
291.4692410636
 51
38.5307662349
  0
CIRCLE
  5
3B6
100
AcDbEntity
  8
0
100
AcDbCircle
 62
7
  6
CONTINUOUS
 10
75.3218344287
 20
42.5486495002
 40
4.0
  0
ARC
  5
3B7
100
AcDbEntity
  8
0
100
AcDbCircle
 62
7
  6
CONTINUOUS
 10
74.9530172894
 20
41.1722051978
 40
0.55
100
AcDbArc
 50
171.469243518
 51
338.5307600341
  0
ARC
  5
3B8
100
AcDbEntity
  8
0
100
AcDbCircle
 62
7
  6
CONTINUOUS
 10
76.3294615919
 20
41.541022337
 40
0.55
100
AcDbArc
 50
231.4692410636
 51
38.5307600341
  0
ARC
  5
3B9
100
AcDbEntity
  8
0
100
AcDbCircle
 62
7
  6
CONTINUOUS
 10
76.6982787312
 20
42.9174666395
 40
0.55
100
AcDbArc
 50
291.469244491
 51
98.5307589364
  0
ARC
  5
3BA
100
AcDbEntity
  8
0
100
AcDbCircle
 62
7
  6
CONTINUOUS
 10
73.9453901262
 20
42.179832361
 40
0.55
100
AcDbArc
 50
111.4692410636
 51
278.5307619425
  0
ARC
  5
3BB
100
AcDbEntity
  8
0
100
AcDbCircle
 62
7
  6
CONTINUOUS
 10
74.3142072655
 20
43.5562766634
 40
0.55
100
AcDbArc
 50
51.4692410636
 51
218.5307544777
  0
ARC
  5
3BC
100
AcDbEntity
  8
0
100
AcDbCircle
 62
7
  6
CONTINUOUS
 10
74.0768196655
 20
41.303634737
 40
0.336
100
AcDbArc
 50
351.4692370459
 51
98.5307540158
  0
ARC
  5
3BD
100
AcDbEntity
  8
0
100
AcDbCircle
 62
7
  6
CONTINUOUS
 10
75.7775414601
 20
40.8479277056
 40
0.336
100
AcDbArc
 50
51.4692410636
 51
158.5307571397
  0
ARC
  5
3BE
100
AcDbEntity
  8
0
100
AcDbCircle
 62
7
  6
CONTINUOUS
 10
77.0225562233
 20
42.0929424688
 40
0.336
100
AcDbArc
 50
111.4692354532
 51
218.5307571397
  0
ARC
  5
3BF
100
AcDbEntity
  8
0
100
AcDbCircle
 62
7
  6
CONTINUOUS
 10
76.5668491919
 20
43.7936642634
 40
0.336
100
AcDbArc
 50
171.4692332834
 51
278.5307589364
  0
ARC
  5
3C0
100
AcDbEntity
  8
0
100
AcDbCircle
 62
7
  6
CONTINUOUS
 10
73.621112634
 20
43.0043565317
 40
0.336
100
AcDbArc
 50
291.4692410636
 51
38.5307662349
  0
ARC
  5
3C1
100
AcDbEntity
  8
0
100
AcDbCircle
 62
7
  6
CONTINUOUS
 10
64.8187861015
 20
72.2570940099
 40
3.0
100
AcDbArc
 50
0.0
 51
90.0
  0
ARC
  5
3C2
100
AcDbEntity
  8
0
100
AcDbCircle
 62
7
  6
CONTINUOUS
 10
75.690651568
 20
43.9250938027
 40
0.55
100
AcDbArc
 50
351.4692458165
 51
158.5307600341
  0
ARC
  5
3C3
100
AcDbEntity
  8
0
100
AcDbCircle
 62
7
  6
CONTINUOUS
 10
74.8661273973
 20
44.2493712949
 40
0.336
100
AcDbArc
 50
231.4692410636
 51
338.5307571397
  0
ARC
  5
3C4
100
AcDbEntity
  8
0
100
AcDbCircle
 62
7
  6
CONTINUOUS
 10
35.6687861015
 20
97.195601173
 40
7.0
100
AcDbArc
 50
90.0
 51
270.0
  0
ARC
  5
3C5
100
AcDbEntity
  8
0
100
AcDbCircle
 62
7
  6
CONTINUOUS
 10
48.3687861015
 20
92.295601173
 40
6.0033324079
100
AcDbArc
 50
150.0183607853
 51
168.6131107056
  0
ARC
  5
3C6
100
AcDbEntity
  8
0
100
AcDbCircle
 62
7
  6
CONTINUOUS
 10
48.3687861015
 20
92.295601173
 40
6.0033324079
100
AcDbArc
 50
191.9977325832
 51
209.9816393688
  0
ARC
  5
3C7
100
AcDbEntity
  8
0
100
AcDbCircle
 62
7
  6
CONTINUOUS
 10
49.1687861015
 20
97.195601173
 40
4.75
100
AcDbArc
 50
333.3736514224
 51
207.6459893315
  0
CIRCLE
  5
3C8
100
AcDbEntity
  8
0
100
AcDbCircle
 62
7
  6
CONTINUOUS
 10
35.6687861015
 20
97.195601173
 40
4.0
  0
CIRCLE
  5
3C9
100
AcDbEntity
  8
0
100
AcDbCircle
 62
7
  6
CONTINUOUS
 10
35.6687861015
 20
97.195601173
 40
3.5
  0
ARC
  5
3CA
100
AcDbEntity
  8
0
100
AcDbCircle
 62
7
  6
CONTINUOUS
 10
49.1687861015
 20
97.195601173
 40
3.5
100
AcDbArc
 50
318.6382002205
 51
217.6901226293
  0
ARC
  5
3CB
100
AcDbEntity
  8
0
100
AcDbCircle
 62
7
  6
CONTINUOUS
 10
49.1687861015
 20
97.195601173
 40
3.0
100
AcDbArc
 50
311.0338528217
 51
223.2264360889
  0
CIRCLE
  5
3CC
100
AcDbEntity
  8
0
100
AcDbCircle
 62
7
  6
CONTINUOUS
 10
35.6687861015
 20
97.195601173
 40
2.9
  0
ARC
  5
3CD
100
AcDbEntity
  8
0
100
AcDbCircle
 62
7
  6
CONTINUOUS
 10
53.6154060273
 20
114.8957764511
 40
6.2
100
AcDbArc
 50
90.4308306716
 51
119.4320036847
  0
ARC
  5
3CE
100
AcDbEntity
  8
0
100
AcDbCircle
 62
7
  6
CONTINUOUS
 10
53.5221661756
 20
114.8957764511
 40
6.2
100
AcDbArc
 50
60.5679963153
 51
89.5691693284
  0
CIRCLE
  5
3CF
100
AcDbEntity
  8
0
100
AcDbCircle
 62
7
  6
CONTINUOUS
 10
41.5687861015
 20
123.695601173
 40
2.0
  0
ARC
  5
3D0
100
AcDbEntity
  8
0
100
AcDbCircle
 62
7
  6
CONTINUOUS
 10
62.6687861015
 20
97.195601173
 40
7.0
100
AcDbArc
 50
317.5175309057
 51
90.0
  0
ARC
  5
3D1
100
AcDbEntity
  8
0
100
AcDbCircle
 62
7
  6
CONTINUOUS
 10
62.6687861015
 20
97.195601173
 40
4.75
100
AcDbArc
 50
326.7486668499
 51
205.3353787903
  0
ARC
  5
3D2
100
AcDbEntity
  8
0
100
AcDbCircle
 62
7
  6
CONTINUOUS
 10
62.6687861015
 20
97.195601173
 40
3.5
100
AcDbArc
 50
319.6258199356
 51
218.994787748
  0
ARC
  5
3D3
100
AcDbEntity
  8
0
100
AcDbCircle
 62
7
  6
CONTINUOUS
 10
62.6687861015
 20
97.195601173
 40
3.0
100
AcDbArc
 50
319.8075269353
 51
225.0357968173
  0
ARC
  5
3D4
100
AcDbEntity
  8
0
100
AcDbCircle
 62
7
  6
CONTINUOUS
 10
64.8187861015
 20
92.295601173
 40
3.0
100
AcDbArc
 50
0.0
 51
90.0
  0
ARC
  5
3D5
100
AcDbEntity
  8
0
100
AcDbCircle
 62
7
  6
CONTINUOUS
 10
64.8162733439
 20
121.2665949452
 40
29.1261662944
100
AcDbArc
 50
270.0049429918
 51
275.9169292765
  0
ARC
  5
3D6
100
AcDbEntity
  8
0
100
AcDbCircle
 62
7
  6
CONTINUOUS
 10
70.5625354127
 20
112.9956036776
 40
7.8
100
AcDbArc
 50
90.0
 51
120.7984176416
  0
ARC
  5
3D7
100
AcDbEntity
  8
0
100
AcDbCircle
 62
7
  6
CONTINUOUS
 10
70.5750367902
 20
112.9956036776
 40
7.8
100
AcDbArc
 50
59.2015823584
 51
90.0
  0
ARC
  5
3D8
100
AcDbEntity
  8
0
100
AcDbCircle
 62
7
  6
CONTINUOUS
 10
74.2754537561
 20
109.5956048778
 40
6.0
100
AcDbArc
 50
60.0734942192
 51
90.0
  0
ARC
  5
3D9
100
AcDbEntity
  8
0
100
AcDbCircle
 62
7
  6
CONTINUOUS
 10
74.2621184469
 20
109.5956048778
 40
6.0
100
AcDbArc
 50
90.0
 51
119.9265057808
  0
SPLINE
  5
3DA
100
AcDbEntity
  8
0
100
AcDbSpline
 62
7
  6
CONTINUOUS
 70
0
 71
3
 72
17
 73
13
 74
0
 42
0.0000001
 43
0.0000001
 44
0.0000000001
 40
0.0
 40
0.0
 40
0.0
 40
0.0
 40
0.1250282702
 40
0.2500557742
 40
0.3750811642
 40
0.5001006679
 40
0.6251008408
 40
0.7500417335
 40
0.8125567183
 40
0.875059797
 40
0.9375380589
 40
1.0
 40
1.0
 40
1.0
 40
1.0
 10
18.5669259934
 20
99.1456608658
 30
0.0
 10
18.4553141599
 20
99.0915017194
 30
0.0
 10
18.2336068613
 20
98.980011449
 30
0.0
 10
17.9071121634
 20
98.801172242
 30
0.0
 10
17.5889844123
 20
98.6077431383
 30
0.0
 10
17.2829493894
 20
98.3954374289
 30
0.0
 10
16.9958004798
 20
98.158081781
 30
0.0
 10
16.7822996102
 20
97.9311290479
 30
0.0
 10
16.6412440044
 20
97.7264903078
 30
0.0
 10
16.5563147211
 20
97.5601873772
 30
0.0
 10
16.4999358659
 20
97.3819107212
 30
0.0
 10
16.4866065564
 20
97.2575784387
 30
0.0
 10
16.4866065564
 20
97.195601173
 30
0.0
  0
SPLINE
  5
3DB
100
AcDbEntity
  8
0
100
AcDbSpline
 62
7
  6
CONTINUOUS
 70
0
 71
3
 72
31
 73
27
 74
0
 42
0.0000001
 43
0.0000001
 44
0.0000000001
 40
0.0
 40
0.0
 40
0.0
 40
0.0
 40
0.0720406016
 40
0.1431364425
 40
0.2129296624
 40
0.2808352738
 40
0.3137903155
 40
0.3458403569
 40
0.3767175606
 40
0.4060572955
 40
0.4333838167
 40
0.4581686838
 40
0.4801362853
 40
0.4999940996
 40
0.5198526981
 40
0.5418222172
 40
0.566609025
 40
0.5939370291
 40
0.6232776845
 40
0.6541556593
 40
0.686206648
 40
0.7191624396
 40
0.7870689809
 40
0.8568627917
 40
0.9279590851
 40
1.0
 40
1.0
 40
1.0
 40
1.0
 10
18.566826269
 20
102.5007339421
 30
0.0
 10
18.4558125174
 20
102.4737987156
 30
0.0
 10
18.235673705
 20
102.418470194
 30
0.0
 10
17.90997549
 20
102.3293327397
 30
0.0
 10
17.5931321799
 20
102.2331092246
 30
0.0
 10
17.3372799634
 20
102.1446163233
 30
0.0
 10
17.1412735512
 20
102.0670612024
 30
0.0
 10
17.0020307146
 20
102.0058955351
 30
0.0
 10
16.871026711
 20
101.940578615
 30
0.0
 10
16.7510504464
 20
101.8704819492
 30
0.0
 10
16.6459348453
 20
101.7949488162
 30
0.0
 10
16.5608017061
 20
101.7132079896
 30
0.0
 10
16.5018372192
 20
101.6238692106
 30
0.0
 10
16.4793675815
 20
101.5256899187
 30
0.0
 10
16.5018704544
 20
101.4275160901
 30
0.0
 10
16.5608566806
 20
101.3381842422
 30
0.0
 10
16.6460067776
 20
101.2564491388
 30
0.0
 10
16.751134494
 20
101.1809214278
 30
0.0
 10
16.8711188144
 20
101.1108287531
 30
0.0
 10
17.0021286598
 20
101.0455142121
 30
0.0
 10
17.1413772789
 20
100.9843519621
 30
0.0
 10
17.3373896842
 20
100.9068007389
 30
0.0
 10
17.5932466357
 20
100.8183106559
 30
0.0
 10
17.9100940311
 20
100.7220898211
 30
0.0
 10
18.2357951414
 20
100.6329548469
 30
0.0
 10
18.4559353848
 20
100.5776270344
 30
0.0
 10
18.5669498361
 20
100.5506925854
 30
0.0
  0
SPLINE
  5
3DC
100
AcDbEntity
  8
0
100
AcDbSpline
 62
7
  6
CONTINUOUS
 70
0
 71
3
 72
17
 73
13
 74
0
 42
0.0000001
 43
0.0000001
 44
0.0000000001
 40
0.0
 40
0.0
 40
0.0
 40
0.0
 40
0.1250282712
 40
0.2500557761
 40
0.3750811681
 40
0.500100676
 40
0.6251008584
 40
0.7500417717
 40
0.812556774
 40
0.8750598594
 40
0.9375381027
 40
1.0
 40
1.0
 40
1.0
 40
1.0
 10
18.5669248689
 20
95.2455420233
 30
0.0
 10
18.4553130877
 20
95.2997011605
 30
0.0
 10
18.2336058889
 20
95.4111914021
 30
0.0
 10
17.9071113455
 20
95.5900305748
 30
0.0
 10
17.588983744
 20
95.7834596378
 30
0.0
 10
17.2829488665
 20
95.9957653106
 30
0.0
 10
16.9958000879
 20
96.2331209253
 30
0.0
 10
16.7822993222
 20
96.4600736447
 30
0.0
 10
16.6412438114
 20
96.6647123779
 30
0.0
 10
16.5563146044
 20
96.8310152659
 30
0.0
 10
16.4999358398
 20
97.0092918094
 30
0.0
 10
16.4866065564
 20
97.1336239767
 30
0.0
 10
16.4866065564
 20
97.195601173
 30
0.0
  0
SPLINE
  5
3DD
100
AcDbEntity
  8
0
100
AcDbSpline
 62
7
  6
CONTINUOUS
 70
0
 71
3
 72
31
 73
27
 74
0
 42
0.0000001
 43
0.0000001
 44
0.0000000001
 40
0.0
 40
0.0
 40
0.0
 40
0.0
 40
0.0720406016
 40
0.1431364425
 40
0.2129296624
 40
0.2808352738
 40
0.3137903155
 40
0.3458403569
 40
0.3767175606
 40
0.4060572955
 40
0.4333838167
 40
0.4581686838
 40
0.4801362853
 40
0.4999940996
 40
0.5198526981
 40
0.5418222172
 40
0.566609025
 40
0.5939370291
 40
0.6232776845
 40
0.6541556593
 40
0.686206648
 40
0.7191624396
 40
0.7870689809
 40
0.8568627917
 40
0.9279590851
 40
1.0
 40
1.0
 40
1.0
 40
1.0
 10
18.566826269
 20
93.8404799042
 30
0.0
 10
18.4558125174
 20
93.8135446778
 30
0.0
 10
18.235673705
 20
93.7582161561
 30
0.0
 10
17.90997549
 20
93.6690787018
 30
0.0
 10
17.5931321799
 20
93.5728551867
 30
0.0
 10
17.3372799634
 20
93.4843622854
 30
0.0
 10
17.1412735512
 20
93.4068071646
 30
0.0
 10
17.0020307146
 20
93.3456414972
 30
0.0
 10
16.871026711
 20
93.2803245772
 30
0.0
 10
16.7510504464
 20
93.2102279114
 30
0.0
 10
16.6459348453
 20
93.1346947784
 30
0.0
 10
16.5608017061
 20
93.0529539518
 30
0.0
 10
16.5018372192
 20
92.9636151727
 30
0.0
 10
16.4793675815
 20
92.8654358809
 30
0.0
 10
16.5018704544
 20
92.7672620522
 30
0.0
 10
16.5608566806
 20
92.6779302043
 30
0.0
 10
16.6460067776
 20
92.596195101
 30
0.0
 10
16.751134494
 20
92.52066739
 30
0.0
 10
16.8711188144
 20
92.4505747152
 30
0.0
 10
17.0021286598
 20
92.3852601743
 30
0.0
 10
17.1413772789
 20
92.3240979242
 30
0.0
 10
17.3373896842
 20
92.2465467011
 30
0.0
 10
17.5932466357
 20
92.1580566181
 30
0.0
 10
17.9100940311
 20
92.0618357832
 30
0.0
 10
18.2357951414
 20
91.972700809
 30
0.0
 10
18.4559353848
 20
91.9173729965
 30
0.0
 10
18.5669498361
 20
91.8904385476
 30
0.0
  0
SPLINE
  5
3DE
100
AcDbEntity
  8
0
100
AcDbSpline
 62
7
  6
CONTINUOUS
 70
0
 71
3
 72
13
 73
9
 74
0
 42
0.0000001
 43
0.0000001
 44
0.0000000001
 40
0.0
 40
0.0
 40
0.0
 40
0.0
 40
0.0250524974
 40
0.0847406086
 40
0.1802587095
 40
0.307627387
 40
0.6333438118
 40
1.0
 40
1.0
 40
1.0
 40
1.0
 10
42.5254719916
 20
91.0563737849
 30
0.0
 10
42.5274394229
 20
91.0563792592
 30
0.0
 10
42.5306331669
 20
91.0646422538
 30
0.0
 10
42.5308784231
 20
91.0772618308
 30
0.0
 10
42.5308787229
 20
91.1002721338
 30
0.0
 10
42.5274005809
 20
91.1428047391
 30
0.0
 10
42.5192231625
 20
91.206966948
 30
0.0
 10
42.509932891
 20
91.2604746838
 30
0.0
 10
42.5044491846
 20
91.2887421752
 30
0.0
  0
SPLINE
  5
3DF
100
AcDbEntity
  8
0
100
AcDbSpline
 62
7
  6
CONTINUOUS
 70
0
 71
3
 72
13
 73
9
 74
0
 42
0.0000001
 43
0.0000001
 44
0.0000000001
 40
0.0
 40
0.0
 40
0.0
 40
0.0
 40
0.0250524974
 40
0.0847406086
 40
0.1802587095
 40
0.307627387
 40
0.6333438118
 40
1.0
 40
1.0
 40
1.0
 40
1.0
 10
42.5254719916
 20
38.594880948
 30
0.0
 10
42.5274394229
 20
38.5948864223
 30
0.0
 10
42.5306331669
 20
38.6031494169
 30
0.0
 10
42.5308784231
 20
38.6157689939
 30
0.0
 10
42.5308787229
 20
38.6387792969
 30
0.0
 10
42.5274005809
 20
38.6813119022
 30
0.0
 10
42.5192231625
 20
38.7454741111
 30
0.0
 10
42.509932891
 20
38.798981847
 30
0.0
 10
42.5044491846
 20
38.8272493383
 30
0.0
  0
SPLINE
  5
3E0
100
AcDbEntity
  8
0
100
AcDbSpline
 62
7
  6
CONTINUOUS
 70
0
 71
3
 72
13
 73
9
 74
0
 42
0.0000001
 43
0.0000001
 44
0.0000000001
 40
0.0
 40
0.0
 40
0.0
 40
0.0
 40
0.0250524974
 40
0.0847406086
 40
0.1802587095
 40
0.307627387
 40
0.6333438118
 40
1.0
 40
1.0
 40
1.0
 40
1.0
 10
42.5254719916
 20
71.0178666218
 30
0.0
 10
42.5274394229
 20
71.0178720961
 30
0.0
 10
42.5306331669
 20
71.0261350907
 30
0.0
 10
42.5308784231
 20
71.0387546677
 30
0.0
 10
42.5308787229
 20
71.0617649706
 30
0.0
 10
42.5274005809
 20
71.104297576
 30
0.0
 10
42.5192231625
 20
71.1684597848
 30
0.0
 10
42.509932891
 20
71.2219675207
 30
0.0
 10
42.5044491846
 20
71.2502350121
 30
0.0
  0
SPLINE
  5
3E1
100
AcDbEntity
  8
0
100
AcDbSpline
 62
7
  6
CONTINUOUS
 70
0
 71
3
 72
12
 73
8
 74
0
 42
0.0000001
 43
0.0000001
 44
0.0000000001
 40
0.0
 40
0.0
 40
0.0
 40
0.0
 40
0.0709774895
 40
0.1622664847
 40
0.3999297174
 40
0.6905269956
 40
1.0
 40
1.0
 40
1.0
 40
1.0
 10
42.5044491846
 20
92.4827081413
 30
0.0
 10
42.4951019312
 20
92.4999555851
 30
0.0
 10
42.4796641115
 20
92.5424927124
 30
0.0
 10
42.4576150361
 20
92.650952597
 30
0.0
 10
42.4497619154
 20
92.8228823539
 30
0.0
 10
42.4637678792
 20
93.0541467637
 30
0.0
 10
42.4881595901
 20
93.2184903274
 30
0.0
 10
42.5044491846
 20
93.3024601708
 30
0.0
  0
SPLINE
  5
3E2
100
AcDbEntity
  8
0
100
AcDbSpline
 62
7
  6
CONTINUOUS
 70
0
 71
3
 72
13
 73
9
 74
0
 42
0.0000001
 43
0.0000001
 44
0.0000000001
 40
0.0
 40
0.0
 40
0.0
 40
0.0
 40
0.3666599501
 40
0.6924027652
 40
0.8197740741
 40
0.9152764273
 40
0.9749622467
 40
1.0
 40
1.0
 40
1.0
 40
1.0
 10
42.5044491846
 20
93.3024601708
 30
0.0
 10
42.5099329015
 20
93.330727716
 30
0.0
 10
42.5192135577
 20
93.3842387403
 30
0.0
 10
42.5274011894
 20
93.4484022821
 30
0.0
 10
42.5308821491
 20
93.4909342452
 30
0.0
 10
42.5308777864
 20
93.5139454868
 30
0.0
 10
42.5306284312
 20
93.5265580689
 30
0.0
 10
42.5274410368
 20
93.5348242857
 30
0.0
 10
42.5254747788
 20
93.5348293495
 30
0.0
  0
SPLINE
  5
3E3
100
AcDbEntity
  8
0
100
AcDbSpline
 62
7
  6
CONTINUOUS
 70
0
 71
3
 72
10
 73
6
 74
0
 42
0.0000001
 43
0.0000001
 44
0.0000000001
 40
0.0
 40
0.0
 40
0.0
 40
0.0
 40
0.1637356695
 40
0.3975900892
 40
1.0
 40
1.0
 40
1.0
 40
1.0
 10
42.5044491846
 20
92.1084942047
 30
0.0
 10
42.5093914807
 20
92.1176136723
 30
0.0
 10
42.5169693845
 20
92.1419477121
 30
0.0
 10
42.5283439008
 20
92.204203994
 30
0.0
 10
42.5309774247
 20
92.2574386854
 30
0.0
 10
42.5309774245
 20
92.2956011787
 30
0.0
  0
SPLINE
  5
3E4
100
AcDbEntity
  8
0
100
AcDbSpline
 62
7
  6
CONTINUOUS
 70
0
 71
3
 72
10
 73
6
 74
0
 42
0.0000001
 43
0.0000001
 44
0.0000000001
 40
0.0
 40
0.0
 40
0.0
 40
0.0
 40
0.6023996677
 40
0.8362533998
 40
1.0
 40
1.0
 40
1.0
 40
1.0
 10
42.5309774245
 20
92.2956011787
 30
0.0
 10
42.5309774242
 20
92.3337632483
 30
0.0
 10
42.5283456498
 20
92.3869969314
 30
0.0
 10
42.5169762463
 20
92.4492554796
 30
0.0
 10
42.5093918398
 20
92.4735880111
 30
0.0
 10
42.5044491846
 20
92.4827081413
 30
0.0
  0
SPLINE
  5
3E5
100
AcDbEntity
  8
0
100
AcDbSpline
 62
7
  6
CONTINUOUS
 70
0
 71
3
 72
12
 73
8
 74
0
 42
0.0000001
 43
0.0000001
 44
0.0000000001
 40
0.0
 40
0.0
 40
0.0
 40
0.0
 40
0.0710121319
 40
0.1622745959
 40
0.3999284924
 40
0.6904658199
 40
1.0
 40
1.0
 40
1.0
 40
1.0
 10
42.5044491846
 20
92.1084942047
 30
0.0
 10
42.49509744
 20
92.0912384737
 30
0.0
 10
42.4796931627
 20
92.0486853175
 30
0.0
 10
42.4576495153
 20
91.9402298149
 30
0.0
 10
42.4497940512
 20
91.7683292698
 30
0.0
 10
42.4636704787
 20
91.5370590035
 30
0.0
 10
42.4881564935
 20
91.3727279808
 30
0.0
 10
42.5044491846
 20
91.2887421752
 30
0.0
  0
SPLINE
  5
3E6
100
AcDbEntity
  8
0
100
AcDbSpline
 62
7
  6
CONTINUOUS
 70
0
 71
3
 72
12
 73
8
 74
0
 42
0.0000001
 43
0.0000001
 44
0.0000000001
 40
0.0
 40
0.0
 40
0.0
 40
0.0
 40
0.0709774895
 40
0.1622664847
 40
0.3999297174
 40
0.6905269956
 40
1.0
 40
1.0
 40
1.0
 40
1.0
 10
42.5044491846
 20
40.0212153044
 30
0.0
 10
42.4951019312
 20
40.0384627483
 30
0.0
 10
42.4796641115
 20
40.0809998756
 30
0.0
 10
42.4576150361
 20
40.1894597601
 30
0.0
 10
42.4497619154
 20
40.361389517
 30
0.0
 10
42.4637678792
 20
40.5926539268
 30
0.0
 10
42.4881595901
 20
40.7569974905
 30
0.0
 10
42.5044491846
 20
40.840967334
 30
0.0
  0
SPLINE
  5
3E7
100
AcDbEntity
  8
0
100
AcDbSpline
 62
7
  6
CONTINUOUS
 70
0
 71
3
 72
13
 73
9
 74
0
 42
0.0000001
 43
0.0000001
 44
0.0000000001
 40
0.0
 40
0.0
 40
0.0
 40
0.0
 40
0.3666599501
 40
0.6924027652
 40
0.8197740741
 40
0.9152764273
 40
0.9749622467
 40
1.0
 40
1.0
 40
1.0
 40
1.0
 10
42.5044491846
 20
40.840967334
 30
0.0
 10
42.5099329015
 20
40.8692348792
 30
0.0
 10
42.5192135577
 20
40.9227459035
 30
0.0
 10
42.5274011894
 20
40.9869094452
 30
0.0
 10
42.5308821491
 20
41.0294414083
 30
0.0
 10
42.5308777864
 20
41.0524526499
 30
0.0
 10
42.5306284312
 20
41.065065232
 30
0.0
 10
42.5274410368
 20
41.0733314488
 30
0.0
 10
42.5254747788
 20
41.0733365126
 30
0.0
  0
SPLINE
  5
3E8
100
AcDbEntity
  8
0
100
AcDbSpline
 62
7
  6
CONTINUOUS
 70
0
 71
3
 72
10
 73
6
 74
0
 42
0.0000001
 43
0.0000001
 44
0.0000000001
 40
0.0
 40
0.0
 40
0.0
 40
0.0
 40
0.1637356695
 40
0.3975900892
 40
1.0
 40
1.0
 40
1.0
 40
1.0
 10
42.5044491846
 20
39.6470013678
 30
0.0
 10
42.5093914807
 20
39.6561208355
 30
0.0
 10
42.5169693845
 20
39.6804548752
 30
0.0
 10
42.5283439008
 20
39.7427111571
 30
0.0
 10
42.5309774247
 20
39.7959458485
 30
0.0
 10
42.5309774245
 20
39.8341083418
 30
0.0
  0
SPLINE
  5
3E9
100
AcDbEntity
  8
0
100
AcDbSpline
 62
7
  6
CONTINUOUS
 70
0
 71
3
 72
10
 73
6
 74
0
 42
0.0000001
 43
0.0000001
 44
0.0000000001
 40
0.0
 40
0.0
 40
0.0
 40
0.0
 40
0.6023996677
 40
0.8362533998
 40
1.0
 40
1.0
 40
1.0
 40
1.0
 10
42.5309774245
 20
39.8341083418
 30
0.0
 10
42.5309774242
 20
39.8722704114
 30
0.0
 10
42.5283456498
 20
39.9255040946
 30
0.0
 10
42.5169762463
 20
39.9877626427
 30
0.0
 10
42.5093918398
 20
40.0120951742
 30
0.0
 10
42.5044491846
 20
40.0212153044
 30
0.0
  0
SPLINE
  5
3EA
100
AcDbEntity
  8
0
100
AcDbSpline
 62
7
  6
CONTINUOUS
 70
0
 71
3
 72
12
 73
8
 74
0
 42
0.0000001
 43
0.0000001
 44
0.0000000001
 40
0.0
 40
0.0
 40
0.0
 40
0.0
 40
0.0710121319
 40
0.1622745959
 40
0.3999284924
 40
0.6904658199
 40
1.0
 40
1.0
 40
1.0
 40
1.0
 10
42.5044491846
 20
39.6470013678
 30
0.0
 10
42.49509744
 20
39.6297456368
 30
0.0
 10
42.4796931627
 20
39.5871924806
 30
0.0
 10
42.4576495153
 20
39.4787369781
 30
0.0
 10
42.4497940512
 20
39.306836433
 30
0.0
 10
42.4636704787
 20
39.0755661666
 30
0.0
 10
42.4881564935
 20
38.911235144
 30
0.0
 10
42.5044491846
 20
38.8272493383
 30
0.0
  0
SPLINE
  5
3EB
100
AcDbEntity
  8
0
100
AcDbSpline
 62
7
  6
CONTINUOUS
 70
0
 71
3
 72
12
 73
8
 74
0
 42
0.0000001
 43
0.0000001
 44
0.0000000001
 40
0.0
 40
0.0
 40
0.0
 40
0.0
 40
0.0709774895
 40
0.1622664847
 40
0.3999297174
 40
0.6905269956
 40
1.0
 40
1.0
 40
1.0
 40
1.0
 10
42.5044491846
 20
72.4442009782
 30
0.0
 10
42.4951019312
 20
72.461448422
 30
0.0
 10
42.4796641115
 20
72.5039855493
 30
0.0
 10
42.4576150361
 20
72.6124454339
 30
0.0
 10
42.4497619154
 20
72.7843751908
 30
0.0
 10
42.4637678792
 20
73.0156396006
 30
0.0
 10
42.4881595901
 20
73.1799831642
 30
0.0
 10
42.5044491846
 20
73.2639530077
 30
0.0
  0
SPLINE
  5
3EC
100
AcDbEntity
  8
0
100
AcDbSpline
 62
7
  6
CONTINUOUS
 70
0
 71
3
 72
13
 73
9
 74
0
 42
0.0000001
 43
0.0000001
 44
0.0000000001
 40
0.0
 40
0.0
 40
0.0
 40
0.0
 40
0.3666599501
 40
0.6924027652
 40
0.8197740741
 40
0.9152764273
 40
0.9749622467
 40
1.0
 40
1.0
 40
1.0
 40
1.0
 10
42.5044491846
 20
73.2639530077
 30
0.0
 10
42.5099329015
 20
73.2922205529
 30
0.0
 10
42.5192135577
 20
73.3457315772
 30
0.0
 10
42.5274011894
 20
73.409895119
 30
0.0
 10
42.5308821491
 20
73.4524270821
 30
0.0
 10
42.5308777864
 20
73.4754383237
 30
0.0
 10
42.5306284312
 20
73.4880509057
 30
0.0
 10
42.5274410368
 20
73.4963171226
 30
0.0
 10
42.5254747788
 20
73.4963221864
 30
0.0
  0
SPLINE
  5
3ED
100
AcDbEntity
  8
0
100
AcDbSpline
 62
7
  6
CONTINUOUS
 70
0
 71
3
 72
10
 73
6
 74
0
 42
0.0000001
 43
0.0000001
 44
0.0000000001
 40
0.0
 40
0.0
 40
0.0
 40
0.0
 40
0.1637356695
 40
0.3975900892
 40
1.0
 40
1.0
 40
1.0
 40
1.0
 10
42.5044491846
 20
72.0699870416
 30
0.0
 10
42.5093914807
 20
72.0791065092
 30
0.0
 10
42.5169693845
 20
72.1034405489
 30
0.0
 10
42.5283439008
 20
72.1656968308
 30
0.0
 10
42.5309774247
 20
72.2189315223
 30
0.0
 10
42.5309774245
 20
72.2570940155
 30
0.0
  0
SPLINE
  5
3EE
100
AcDbEntity
  8
0
100
AcDbSpline
 62
7
  6
CONTINUOUS
 70
0
 71
3
 72
10
 73
6
 74
0
 42
0.0000001
 43
0.0000001
 44
0.0000000001
 40
0.0
 40
0.0
 40
0.0
 40
0.0
 40
0.6023996677
 40
0.8362533998
 40
1.0
 40
1.0
 40
1.0
 40
1.0
 10
42.5309774245
 20
72.2570940155
 30
0.0
 10
42.5309774242
 20
72.2952560852
 30
0.0
 10
42.5283456498
 20
72.3484897683
 30
0.0
 10
42.5169762463
 20
72.4107483164
 30
0.0
 10
42.5093918398
 20
72.4350808479
 30
0.0
 10
42.5044491846
 20
72.4442009782
 30
0.0
  0
SPLINE
  5
3EF
100
AcDbEntity
  8
0
100
AcDbSpline
 62
7
  6
CONTINUOUS
 70
0
 71
3
 72
12
 73
8
 74
0
 42
0.0000001
 43
0.0000001
 44
0.0000000001
 40
0.0
 40
0.0
 40
0.0
 40
0.0
 40
0.0710121319
 40
0.1622745959
 40
0.3999284924
 40
0.6904658199
 40
1.0
 40
1.0
 40
1.0
 40
1.0
 10
42.5044491846
 20
72.0699870416
 30
0.0
 10
42.49509744
 20
72.0527313105
 30
0.0
 10
42.4796931627
 20
72.0101781544
 30
0.0
 10
42.4576495153
 20
71.9017226518
 30
0.0
 10
42.4497940512
 20
71.7298221067
 30
0.0
 10
42.4636704787
 20
71.4985518404
 30
0.0
 10
42.4881564935
 20
71.3342208177
 30
0.0
 10
42.5044491846
 20
71.2502350121
 30
0.0
  0
SPLINE
  5
3F0
100
AcDbEntity
  8
0
100
AcDbSpline
 62
7
  6
CONTINUOUS
 70
0
 71
3
 72
9
 73
5
 74
0
 42
0.0000001
 43
0.0000001
 44
0.0000000001
 40
0.0
 40
0.0
 40
0.0
 40
0.0
 40
0.4992527385
 40
1.0
 40
1.0
 40
1.0
 40
1.0
 10
50.4525303028
 20
47.895601173
 30
0.0
 10
50.4686851019
 20
47.8532655464
 30
0.0
 10
50.5299779991
 20
47.7769701394
 30
0.0
 10
50.6233372917
 20
47.7516667778
 30
0.0
 10
50.6687861015
 20
47.7516667778
 30
0.0
  0
SPLINE
  5
3F1
100
AcDbEntity
  8
0
100
AcDbSpline
 62
7
  6
CONTINUOUS
 70
0
 71
3
 72
10
 73
6
 74
0
 42
0.0000001
 43
0.0000001
 44
0.0000000001
 40
0.0
 40
0.0
 40
0.0
 40
0.0
 40
0.4998123158
 40
0.7499679792
 40
1.0
 40
1.0
 40
1.0
 40
1.0
 10
50.3371236224
 20
48.700601173
 30
0.0
 10
50.3371236224
 20
48.5645311746
 30
0.0
 10
50.3481650751
 20
48.3599304913
 30
0.0
 10
50.3916520423
 20
48.0910025918
 30
0.0
 10
50.4282626242
 20
47.9591975922
 30
0.0
 10
50.4525303028
 20
47.895601173
 30
0.0
  0
SPLINE
  5
3F2
100
AcDbEntity
  8
0
100
AcDbSpline
 62
7
  6
CONTINUOUS
 70
0
 71
3
 72
11
 73
7
 74
0
 42
0.0000001
 43
0.0000001
 44
0.0000000001
 40
0.0
 40
0.0
 40
0.0
 40
0.0
 40
0.0858901646
 40
0.2750277939
 40
0.5790887102
 40
1.0
 40
1.0
 40
1.0
 40
1.0
 10
50.1070368771
 20
53.8006068277
 30
0.0
 10
50.1094017379
 20
53.800603004
 30
0.0
 10
50.1142579804
 20
53.7925001168
 30
0.0
 10
50.118092072
 20
53.7783543804
 30
0.0
 10
50.1235550824
 20
53.7530523618
 30
0.0
 10
50.1265942626
 20
53.7335468828
 30
0.0
 10
50.1283289809
 20
53.7220882526
 30
0.0
  0
SPLINE
  5
3F3
100
AcDbEntity
  8
0
100
AcDbSpline
 62
7
  6
CONTINUOUS
 70
0
 71
3
 72
14
 73
10
 74
0
 42
0.0000001
 43
0.0000001
 44
0.0000000001
 40
0.0
 40
0.0
 40
0.0
 40
0.0
 40
0.0462283335
 40
0.1212903948
 40
0.2229239118
 40
0.3480710829
 40
0.4929562645
 40
0.6531577402
 40
1.0
 40
1.0
 40
1.0
 40
1.0
 10
50.1283289809
 20
53.7220882526
 30
0.0
 10
50.1399255494
 20
53.6454874619
 30
0.0
 10
50.1608996372
 20
53.4431765149
 30
0.0
 10
50.1907692739
 20
53.0708148492
 30
0.0
 10
50.2229068815
 20
52.5659417548
 30
0.0
 10
50.2565272211
 20
51.9439807457
 30
0.0
 10
50.2882676788
 20
51.2236361085
 30
0.0
 10
50.3246156371
 20
50.1316702255
 30
0.0
 10
50.3371236224
 20
49.2818707721
 30
0.0
 10
50.3371236224
 20
48.700601173
 30
0.0
  0
LINE
  5
3F4
100
AcDbEntity
  8
0
100
AcDbLine
 62
7
  6
CONTINUOUS
 10
64.8187861015
 20
69.2976225071
 11
49.7687861015
 21
69.5547147234
  0
SPLINE
  5
3F5
100
AcDbEntity
  8
0
100
AcDbSpline
 62
7
  6
CONTINUOUS
 70
0
 71
3
 72
10
 73
6
 74
0
 42
0.0000001
 43
0.0000001
 44
0.0000000001
 40
0.0
 40
0.0
 40
0.0
 40
0.0
 40
0.2484949409
 40
0.6253007886
 40
1.0
 40
1.0
 40
1.0
 40
1.0
 10
49.2687861015
 20
72.8122738183
 30
0.0
 10
49.2779276499
 20
72.718346834
 30
0.0
 10
49.3118209893
 20
72.4829348172
 30
0.0
 10
49.4073959496
 20
72.1143962893
 30
0.0
 10
49.5101827995
 20
71.8474179401
 30
0.0
 10
49.5687861015
 20
71.7177462412
 30
0.0
  0
SPLINE
  5
3F6
100
AcDbEntity
  8
0
100
AcDbSpline
 62
7
  6
CONTINUOUS
 70
0
 71
3
 72
31
 73
27
 74
0
 42
0.0000001
 43
0.0000001
 44
0.0000000001
 40
0.0
 40
0.0
 40
0.0
 40
0.0
 40
0.1256214386
 40
0.1884025185
 40
0.2511497718
 40
0.3138416619
 40
0.3451567567
 40
0.3764364825
 40
0.4076591171
 40
0.43877156
 40
0.4542677867
 40
0.4696660207
 40
0.4849516486
 40
0.4999156813
 40
0.5149438627
 40
0.5302177401
 40
0.5456231242
 40
0.561121951
 40
0.5922476166
 40
0.6234807416
 40
0.6547700631
 40
0.6860939521
 40
0.7488015311
 40
0.8115626417
 40
0.874356261
 40
1.0
 40
1.0
 40
1.0
 40
1.0
 10
49.2687861015
 20
73.3624381724
 30
0.0
 10
49.1966906982
 20
73.3501121952
 30
0.0
 10
49.0887503841
 20
73.3304651104
 30
0.0
 10
48.9455974705
 20
73.3005853179
 30
0.0
 10
48.83885735
 20
73.275713984
 30
0.0
 10
48.7506595585
 20
73.2521205773
 30
0.0
 10
48.6809680449
 20
73.230541545
 30
0.0
 10
48.629370102
 20
73.2125569753
 30
0.0
 10
48.5788473134
 20
73.1920471856
 30
0.0
 10
48.5382078409
 20
73.1717612135
 30
0.0
 10
48.5078537792
 20
73.1521171092
 30
0.0
 10
48.4870715901
 20
73.134936614
 30
0.0
 10
48.4699698065
 20
73.1141836399
 30
0.0
 10
48.4620613956
 20
73.0877540353
 30
0.0
 10
48.469901933
 20
73.0612751031
 30
0.0
 10
48.4871261724
 20
73.0405776362
 30
0.0
 10
48.5078472611
 20
73.0233374252
 30
0.0
 10
48.5382160166
 20
73.0036820057
 30
0.0
 10
48.5788444669
 20
72.9833485961
 30
0.0
 10
48.6293702101
 20
72.9627906
 30
0.0
 10
48.6809673608
 20
72.944754131
 30
0.0
 10
48.7506585554
 20
72.9231065817
 30
0.0
 10
48.8388558877
 20
72.8994256511
 30
0.0
 10
48.9455964458
 20
72.8744483355
 30
0.0
 10
49.0887485537
 20
72.8444263233
 30
0.0
 10
49.1966898536
 20
72.8246716989
 30
0.0
 10
49.2687861015
 20
72.8122738183
 30
0.0
  0
SPLINE
  5
3F7
100
AcDbEntity
  8
0
100
AcDbSpline
 62
7
  6
CONTINUOUS
 70
0
 71
3
 72
9
 73
5
 74
0
 42
0.0000001
 43
0.0000001
 44
0.0000000001
 40
0.0
 40
0.0
 40
0.0
 40
0.0
 40
0.4739234855
 40
1.0
 40
1.0
 40
1.0
 40
1.0
 10
49.5687861015
 20
74.2569858222
 30
0.0
 10
49.4873963399
 20
74.1308937966
 30
0.0
 10
49.3510514762
 20
73.8410394817
 30
0.0
 10
49.2860373307
 20
73.5281362489
 30
0.0
 10
49.2687861015
 20
73.3624381724
 30
0.0
  0
SPLINE
  5
3F8
100
AcDbEntity
  8
0
100
AcDbSpline
 62
7
  6
CONTINUOUS
 70
0
 71
3
 72
11
 73
7
 74
0
 42
0.0000001
 43
0.0000001
 44
0.0000000001
 40
0.0
 40
0.0
 40
0.0
 40
0.0
 40
0.2530043502
 40
0.50476801
 40
0.7541233245
 40
1.0
 40
1.0
 40
1.0
 40
1.0
 10
64.8187861015
 20
69.2976225071
 30
0.0
 10
65.1283246906
 20
69.2976225071
 30
0.0
 10
65.7499798608
 20
69.3925685088
 30
0.0
 10
66.5904407643
 20
69.8058964566
 30
0.0
 10
67.2614729318
 20
70.4469413661
 30
0.0
 10
67.5549613863
 20
70.9907142463
 30
0.0
 10
67.6534920562
 20
71.2749382968
 30
0.0
  0
SPLINE
  5
3F9
100
AcDbEntity
  8
0
100
AcDbSpline
 62
7
  6
CONTINUOUS
 70
0
 71
3
 72
14
 73
10
 74
0
 42
0.0000001
 43
0.0000001
 44
0.0000000001
 40
0.0
 40
0.0
 40
0.0
 40
0.0
 40
0.3385085938
 40
0.4863028194
 40
0.6171875103
 40
0.7309307598
 40
0.8295662547
 40
0.9172178004
 40
1.0
 40
1.0
 40
1.0
 40
1.0
 10
49.5687861015
 20
38.4736723536
 30
0.0
 10
49.5074397884
 20
38.3279265287
 30
0.0
 10
49.4303517746
 20
38.1129315375
 30
0.0
 10
49.3722589686
 20
37.8300743806
 30
0.0
 10
49.3567102669
 20
37.6468367453
 30
0.0
 10
49.3685775836
 20
37.4860841514
 30
0.0
 10
49.4077171916
 20
37.3500963961
 30
0.0
 10
49.474492933
 20
37.2415464845
 30
0.0
 10
49.5360068527
 20
37.1887180147
 30
0.0
 10
49.5687861015
 20
37.1682010083
 30
0.0
  0
ELLIPSE
  5
3FA
100
AcDbEntity
  8
0
100
AcDbEllipse
 62
7
  6
CONTINUOUS
 10
15.9543682179
 20
41.120601173
 30
0.0
 11
-0.0
 21
1.2
 31
0.0
 40
0.0174550649
 41
-2.3824037133
 42
-1.5707963268
  0
ELLIPSE
  5
3FB
100
AcDbEntity
  8
0
100
AcDbEllipse
 62
7
  6
CONTINUOUS
 10
15.9543682179
 20
49.270601173
 30
0.0
 11
-0.0
 21
1.2
 31
0.0
 40
0.0174550649
 41
-1.5707963268
 42
-0.7591889403
  0
ELLIPSE
  5
3FC
100
AcDbEntity
  8
0
100
AcDbEllipse
 62
7
  6
CONTINUOUS
 10
82.360058569
 20
33.195601173
 30
0.0
 11
-0.0
 21
0.5
 31
0.0
 40
0.0174550649
 41
-4.7123889804
 42
-3.1415926536
  0
ELLIPSE
  5
3FD
100
AcDbEntity
  8
0
100
AcDbEllipse
 62
7
  6
CONTINUOUS
 10
82.2937293223
 20
21.245601173
 30
0.0
 11
0.0
 21
1.2
 31
0.0
 40
0.0174550649
 41
-4.7123889804
 42
-3.1415926536
  0
ELLIPSE
  5
3FE
100
AcDbEntity
  8
0
100
AcDbEllipse
 62
7
  6
CONTINUOUS
 10
82.2937293223
 20
28.995601173
 30
0.0
 11
0.0
 21
1.2
 31
0.0
 40
0.0174550649
 41
-0.0
 42
1.5707963268
  0
ENDSEC
  0
SECTION
  2
OBJECTS
  0
DICTIONARY
  5
C
100
AcDbDictionary
280
0
281
1
  3
ACAD_GROUP
350
D
  3
ACAD_MLINESTYLE
350
17
  3
ACAD_LAYOUT
350
1A
  3
ACAD_PLOTSETTINGS
350
19
  3
ACAD_PLOTSTYLENAME
350
E
  0
DICTIONARY
  5
D
102
{ACAD_REACTORS
330
C
102
}
100
AcDbDictionary
280
0
281
1
  0
ACDBDICTIONARYWDFLT
  5
E
102
{ACAD_REACTORS
330
C
102
}
100
AcDbDictionary
281
1
  3
Normal
350
F
100
AcDbDictionaryWithDefault
340
F
  0
DICTIONARY
  5
17
102
{ACAD_REACTORS
330
C
102
}
100
AcDbDictionary
280
0
281
1
  3
Standard
350
18
  0
DICTIONARY
  5
19
102
{ACAD_REACTORS
330
C
102
}
100
AcDbDictionary
281
1
  0
DICTIONARY
  5
1A
102
{ACAD_REACTORS
330
C
102
}
100
AcDbDictionary
281
1
  3
Model
350
3FF
  3
Layout1
350
400
  0
ACDBPLACEHOLDER
  5
F
102
{ACAD_REACTORS
330
E
102
}
  0
MLINESTYLE
  5
18
102
{ACAD_REACTORS
330
17
102
}
100
AcDbMlineStyle
  2
STANDARD
 70
0
  3

 62
256
 51
90.0
 52
90.0
 71
2
 49
0.5
 62
256
  6
BYLAYER
 49
-0.5
 62
256
  6
BYLAYER
  0
LAYOUT
  5
3FF
102
{ACAD_REACTORS
330
1A
102
}
100
AcDbPlotSettings
  1

  2
none_device
  4

  6

 40
0.0
 41
0.0
 42
0.0
 43
0.0
 44
210.0
 45
297.0
 46
0.0
 47
0.0
 48
0.0
 49
0.0
140
0.0
141
0.0
142
1.0
143
1.0
 70
1024
 72
1
 73
0
 74
0
  7

 75
0
147
1.0
148
0.0
149
0.0
100
AcDbLayout
  1
Model
 70
0
 71
0
 10
0.0
 20
0.0
 11
210.0
 21
297.0
 12
0.0
 22
0.0
 32
0.0
 14
0.0
 24
0.0
 34
0.0
 15
0.0
 25
0.0
 35
0.0
146
0.0
 13
0.0
 23
0.0
 33
0.0
 16
1.0
 26
0.0
 36
0.0
 17
0.0
 27
1.0
 37
0.0
 76
0
330
210
345
0
346
0
  0
LAYOUT
  5
400
102
{ACAD_REACTORS
330
1A
102
}
100
AcDbPlotSettings
  1

  2
none_device
  4

  6

 40
0.0
 41
0.0
 42
0.0
 43
0.0
 44
210.0
 45
297.0
 46
0.0
 47
0.0
 48
0.0
 49
0.0
140
0.0
141
0.0
142
1.0
143
1.0
 70
0
 72
1
 73
0
 74
0
  7

 75
0
147
1.0
148
0.0
149
0.0
100
AcDbLayout
  1
Layout1
 70
0
 71
1
 10
0.0
 20
0.0
 11
210.0
 21
297.0
 12
0.0
 22
0.0
 32
0.0
 14
0.0
 24
0.0
 34
0.0
 15
0.0
 25
0.0
 35
0.0
146
0.0
 13
0.0
 23
0.0
 33
0.0
 16
1.0
 26
0.0
 36
0.0
 17
0.0
 27
1.0
 37
0.0
 76
0
330
211
345
0
346
0
  0
ENDSEC
  0
EOF
