999
DXF file: C:\2D\Gen2D\CAD\GV3P80_3D-CAD\drw0001_1.dxf
999
Pro/ENGINEER 2019471 by Parametric Technology Corporation
  0
SECTION
  2
HEADER
  9
$ACADVER
  1
AC1024
  9
$DWGCODEPAGE
  3
ANSI_1252
  9
$EXTMAX
 10
159.1223978561
 20
225.0445341107
 30
0.0
  9
$EXTMIN
 10
0.0
 20
0.0
 30
0.0
  9
$LIMMIN
 10
0.0
 20
0.0
  9
$LIMMAX
 10
159.1223978561
 20
225.0445341107
  9
$VIEWCTR
 10
79.561198928
 20
112.5222670554
  9
$VIEWSIZE
 40
225.0445341107
  9
$CLAYER
  8
0
  9
$LTSCALE
 40
14.6695696309
  9
$CELTYPE
  6
BYLAYER
  9
$DIMSCALE
 40
1.0
  9
$DIMASZ
 40
1.8943142602
  9
$DIMEXO
 40
1.0
  9
$DIMDLI
 40
10.1353390177
  9
$DIMEXE
 40
1.0
  9
$DIMCEN
 40
2.4004750305
  9
$DIMLFAC
 40
1.0
  9
$DIMBLK
  1
_FILLED
  9
$DIMALT
 70
0
  9
$DIMALTF
 40
0.0393700787
  9
$DIMTXT
 40
2.6520399643
  9
$DIMTOL
 70
1
  9
$DIMLIM
 70
0
  9
$DIMTFAC
 40
1.0
  9
$DIMTP
 40
0.01
  9
$DIMTM
 40
0.01
  9
$DIMGAP
 40
0.625
  9
$DIMDSEP
 70
46
  9
$AUNITS
 70
0
  9
$PDMODE
 70
3
  9
$PDSIZE
 40
0.3125
  9
$HANDSEED
  5
5C3
  9
$TILEMODE
 70
1
  9
$MEASUREMENT
 70
1
  9
$INSUNITS
 70
4
  0
ENDSEC
  0
SECTION
  2
CLASSES
  0
CLASS
  1
ACDBDICTIONARYWDFLT
  2
AcDbDictionaryWithDefault
  3
AutoCAD 2000
 90
0
 91
1
280
0
281
0
  0
CLASS
  1
ACDBPLACEHOLDER
  2
AcDbPlaceHolder
  3
AutoCAD 2000
 90
0
 91
1
280
0
281
0
  0
CLASS
  1
LAYOUT
  2
AcDbLayout
  3
AutoCAD 2000
 90
0
 91
0
280
0
281
0
  0
ENDSEC
  0
SECTION
  2
TABLES
  0
TABLE
  2
VPORT
  5
8
100
AcDbSymbolTable
 70
2
  0
VPORT
  5
1F4
100
AcDbSymbolTableRecord
100
AcDbViewportTableRecord
  2
*ACTIVE
 70
0
 10
0.0
 20
0.0
 11
1.0
 21
1.0
 12
79.561198928
 22
112.5222670554
 13
0.0
 23
0.0
 14
1.0
 24
1.0
 15
0.0
 25
0.0
 16
0.0
 26
0.0
 36
1.0
 17
0.0
 27
0.0
 37
0.0
 40
225.0445341107
 41
0.7070707071
 42
50.0
 43
0.0
 44
0.0
 50
0.0
 51
0.0
 71
0
 72
100
 73
1
 74
1
 75
0
 76
0
 77
0
 78
0
  0
ENDTAB
  0
TABLE
  2
LTYPE
  5
5
100
AcDbSymbolTable
 70
6
  0
LTYPE
  5
14
100
AcDbSymbolTableRecord
100
AcDbLinetypeTableRecord
  2
BYBLOCK
 70
0
  3

 72
65
 73
0
 40
0.0
  0
LTYPE
  5
15
100
AcDbSymbolTableRecord
100
AcDbLinetypeTableRecord
  2
BYLAYER
 70
0
  3

 72
65
 73
0
 40
0.0
  0
LTYPE
  5
16
100
AcDbSymbolTableRecord
100
AcDbLinetypeTableRecord
  2
CONTINUOUS
 70
64
  3
Solid line
 72
65
 73
0
 40
0.0
  0
LTYPE
  5
1F5
100
AcDbSymbolTableRecord
100
AcDbLinetypeTableRecord
  2
CENTER
 70
64
  3
____ _ ____ _ ____ _ ____ _ ____ _ ____ _ ____
 72
65
 73
4
 40
0.6
 49
0.375
 74
0
 49
-0.075
 74
0
 49
0.075
 74
0
 49
-0.075
 74
0
  0
LTYPE
  5
1F6
100
AcDbSymbolTableRecord
100
AcDbLinetypeTableRecord
  2
HIDDEN
 70
64
  3
- - - - - - - - - - - - - - - - - - - -
 72
65
 73
2
 40
0.2
 49
0.1
 74
0
 49
-0.1
 74
0
  0
LTYPE
  5
1F7
100
AcDbSymbolTableRecord
100
AcDbLinetypeTableRecord
  2
PHANTOM
 70
64
  3
_____ _ _ _____ _ _ _____ _ _ _____
 72
65
 73
6
 40
0.8
 49
0.45
 74
0
 49
-0.05
 74
0
 49
0.1
 74
0
 49
-0.05
 74
0
 49
0.1
 74
0
 49
-0.05
 74
0
  0
LTYPE
  5
1F8
100
AcDbSymbolTableRecord
100
AcDbLinetypeTableRecord
  2
DOT
 70
64
  3
. . . . . . . . . . . . . . . . . . . .
 72
65
 73
2
 40
0.2
 49
0.1
 74
0
 49
-0.1
 74
0
  0
LTYPE
  5
1F9
100
AcDbSymbolTableRecord
100
AcDbLinetypeTableRecord
  2
DASHED
 70
64
  3
- - - - - - - - - - - - - - - - - - - -
 72
65
 73
2
 40
0.2
 49
0.1
 74
0
 49
-0.1
 74
0
  0
ENDTAB
  0
TABLE
  2
LAYER
  5
2
100
AcDbSymbolTable
 70
36
  0
LAYER
  5
10
100
AcDbSymbolTableRecord
100
AcDbLayerTableRecord
  2
0
 70
0
 62
7
  6
CONTINUOUS
370
-3
390
F
  0
LAYER
  5
1FA
100
AcDbSymbolTableRecord
100
AcDbLayerTableRecord
  2
DEFAULT_1
 70
0
 62
7
  6
CENTER
370
-3
390
F
  0
LAYER
  5
1FB
100
AcDbSymbolTableRecord
100
AcDbLayerTableRecord
  2
DEFAULT_2
 70
0
 62
8
  6
HIDDEN
370
-3
390
F
  0
LAYER
  5
1FC
100
AcDbSymbolTableRecord
100
AcDbLayerTableRecord
  2
DEFAULT_3
 70
0
 62
7
  6
PHANTOM
370
-3
390
F
  0
LAYER
  5
1FD
100
AcDbSymbolTableRecord
100
AcDbLayerTableRecord
  2
00_COMPONENTS
 70
0
 62
7
  6
CONTINUOUS
370
-3
390
F
  0
LAYER
  5
1FE
100
AcDbSymbolTableRecord
100
AcDbLayerTableRecord
  2
00_COMPONENTS_1
 70
0
 62
7
  6
CONTINUOUS
370
-3
390
F
  0
LAYER
  5
1FF
100
AcDbSymbolTableRecord
100
AcDbLayerTableRecord
  2
01_1_DEFAULT_DATUMS
 70
0
 62
7
  6
CONTINUOUS
370
-3
390
F
  0
LAYER
  5
200
100
AcDbSymbolTableRecord
100
AcDbLayerTableRecord
  2
01_PLANES
 70
0
 62
7
  6
CONTINUOUS
370
-3
390
F
  0
LAYER
  5
201
100
AcDbSymbolTableRecord
100
AcDbLayerTableRecord
  2
02_COORD_SYS
 70
0
 62
7
  6
CONTINUOUS
370
-3
390
F
  0
LAYER
  5
202
100
AcDbSymbolTableRecord
100
AcDbLayerTableRecord
  2
03_AXES
 70
0
 62
7
  6
CONTINUOUS
370
-3
390
F
  0
LAYER
  5
203
100
AcDbSymbolTableRecord
100
AcDbLayerTableRecord
  2
04_POINTS
 70
0
 62
7
  6
CONTINUOUS
370
-3
390
F
  0
LAYER
  5
204
100
AcDbSymbolTableRecord
100
AcDbLayerTableRecord
  2
05_CURVES
 70
0
 62
7
  6
CONTINUOUS
370
-3
390
F
  0
LAYER
  5
205
100
AcDbSymbolTableRecord
100
AcDbLayerTableRecord
  2
06_SURFS
 70
0
 62
7
  6
CONTINUOUS
370
-3
390
F
  0
LAYER
  5
206
100
AcDbSymbolTableRecord
100
AcDbLayerTableRecord
  2
07_COSMETICS
 70
0
 62
7
  6
CONTINUOUS
370
-3
390
F
  0
LAYER
  5
207
100
AcDbSymbolTableRecord
100
AcDbLayerTableRecord
  2
10_NOTES
 70
0
 62
7
  6
CONTINUOUS
370
-3
390
F
  0
LAYER
  5
208
100
AcDbSymbolTableRecord
100
AcDbLayerTableRecord
  2
11_NOTES_PUB
 70
0
 62
7
  6
CONTINUOUS
370
-3
390
F
  0
LAYER
  5
209
100
AcDbSymbolTableRecord
100
AcDbLayerTableRecord
  2
13_REF_GTOL
 70
0
 62
7
  6
CONTINUOUS
370
-3
390
F
  0
LAYER
  5
20A
100
AcDbSymbolTableRecord
100
AcDbLayerTableRecord
  2
16_MISC
 70
0
 62
7
  6
CONTINUOUS
370
-3
390
F
  0
LAYER
  5
20B
100
AcDbSymbolTableRecord
100
AcDbLayerTableRecord
  2
17_NO_PRINT
 70
0
 62
7
  6
CONTINUOUS
370
-3
390
F
  0
LAYER
  5
20C
100
AcDbSymbolTableRecord
100
AcDbLayerTableRecord
  2
18_DATUM_CAMS_JOINTS
 70
0
 62
7
  6
CONTINUOUS
370
-3
390
F
  0
LAYER
  5
20D
100
AcDbSymbolTableRecord
100
AcDbLayerTableRecord
  2
19_DATUM_FUNCTIONAL
 70
0
 62
7
  6
CONTINUOUS
370
-3
390
F
  0
LAYER
  5
20E
100
AcDbSymbolTableRecord
100
AcDbLayerTableRecord
  2
20_DATUM_KINEMATIC_SCHEME
 70
0
 62
7
  6
CONTINUOUS
370
-3
390
F
  0
LAYER
  5
20F
100
AcDbSymbolTableRecord
100
AcDbLayerTableRecord
  2
INTFCLR_5
 70
0
 62
7
  6
CONTINUOUS
370
-3
390
F
  0
ENDTAB
  0
TABLE
  2
STYLE
  5
3
100
AcDbSymbolTable
 70
1
  0
STYLE
  5
11
100
AcDbSymbolTableRecord
100
AcDbTextStyleTableRecord
  2
STANDARD
 70
0
 40
0.0
 41
0.8
 50
0.0
 71
0
 42
0.2
  3
txt
  4

  0
STYLE
  5
210
100
AcDbSymbolTableRecord
100
AcDbTextStyleTableRecord
  2
TEXTSTYLE_1
 70
0
 40
0.0
 41
0.8
 50
0.0
 71
0
 42
0.2
  3
gdt
  4

  0
ENDTAB
  0
TABLE
  2
VIEW
  5
6
100
AcDbSymbolTable
 70
0
  0
ENDTAB
  0
TABLE
  2
UCS
  5
7
100
AcDbSymbolTable
 70
0
  0
ENDTAB
  0
TABLE
  2
APPID
  5
9
100
AcDbSymbolTable
 70
1
  0
APPID
  5
211
100
AcDbSymbolTableRecord
100
AcDbRegAppTableRecord
  2
ACAD
 70
0
  0
ENDTAB
  0
TABLE
  2
BLOCK_RECORD
  5
1
100
AcDbSymbolTable
 70
0
  0
BLOCK_RECORD
  5
212
100
AcDbSymbolTableRecord
100
AcDbBlockTableRecord
  2
*Model_Space
  0
BLOCK_RECORD
  5
213
100
AcDbSymbolTableRecord
100
AcDbBlockTableRecord
  2
*Paper_Space
  0
BLOCK_RECORD
  5
214
100
AcDbSymbolTableRecord
100
AcDbBlockTableRecord
  2
_FILLED
  0
ENDTAB
  0
TABLE
  2
DIMSTYLE
  5
A
100
AcDbSymbolTable
 70
1
100
AcDbDimStyleTable
 71
0
  0
DIMSTYLE
105
215
100
AcDbSymbolTableRecord
100
AcDbDimStyleTableRecord
  2
STANDARD
 70
0
  3

  4

 40
1.0
 41
1.8943142602
 42
1.0
 43
0.38
 44
1.0
 45
0.0
 46
0.0
 47
0.01
 48
0.01
140
2.6520399643
141
0.09
142
0.0
143
25.4
144
1.0
145
0.0
146
1.0
147
0.625
 71
1
 72
0
 73
0
 74
0
 75
0
 76
0
 77
1
 78
8
 79
2
170
0
171
1
172
0
173
0
174
0
175
0
176
0
177
0
178
0
270
2
179
2
271
2
272
2
273
2
274
2
275
0
280
0
281
0
282
0
283
1
284
8
285
0
286
0
287
3
288
0
340
11
278
46
341
214
342
214
343
214
344
214
  0
ENDTAB
  0
ENDSEC
  0
SECTION
  2
BLOCKS
  0
BLOCK
  5
20
100
AcDbEntity
  8
0
100
AcDbBlockBegin
  2
*Model_Space
 70
0
 10
0.0
 20
0.0
 30
0.0
  3
*Model_Space
  1

  0
ENDBLK
  5
21
100
AcDbEntity
  8
0
100
AcDbBlockEnd
  0
BLOCK
  5
1C
100
AcDbEntity
  8
0
100
AcDbBlockBegin
  2
*Paper_Space
 70
0
 10
0.0
 20
0.0
 30
0.0
  3
*Paper_Space
  1

  0
ENDBLK
  5
1D
100
AcDbEntity
  8
0
100
AcDbBlockEnd
  0
BLOCK
  5
216
100
AcDbEntity
  8
0
100
AcDbBlockBegin
  2
_FILLED
 70
64
 10
0.0
 20
0.0
  3
_FILLED
  1

  0
SOLID
  5
217
100
AcDbEntity
  8
0
  6
BYBLOCK
 62
0
100
AcDbTrace
 10
0.0
 20
0.0
 11
-1.0
 21
0.25
 12
-1.0
 22
-0.25
 13
-1.0
 23
-0.25
  0
ENDBLK
  5
218
100
AcDbEntity
  8
0
  6
BYBLOCK
 62
0
100
AcDbBlockEnd
  0
ENDSEC
  0
SECTION
  2
ENTITIES
  0
LINE
  5
219
100
AcDbEntity
  8
00_COMPONENTS_1
100
AcDbLine
 62
7
  6
CONTINUOUS
 10
60.7562799239
 20
38.5980046373
 11
22.0066669858
 21
60.969597985
  0
LINE
  5
21A
100
AcDbEntity
  8
00_COMPONENTS_1
100
AcDbLine
 62
7
  6
CONTINUOUS
 10
63.2460858659
 20
40.0354149349
 11
63.5009092308
 21
39.8965231135
  0
LINE
  5
21B
100
AcDbEntity
  8
00_COMPONENTS_1
100
AcDbLine
 62
7
  6
CONTINUOUS
 10
63.2482423724
 20
40.0367312398
 11
63.5009092308
 21
39.8965231135
  0
LINE
  5
21C
100
AcDbEntity
  8
00_COMPONENTS_1
100
AcDbLine
 62
7
  6
CONTINUOUS
 10
63.5877537487
 20
43.7120599512
 11
66.6009701817
 21
41.9724179885
  0
LINE
  5
21D
100
AcDbEntity
  8
00_COMPONENTS_1
100
AcDbLine
 62
7
  6
CONTINUOUS
 10
43.1492477677
 20
56.5607975085
 11
39.613699142
 21
58.6020012811
  0
LINE
  5
21E
100
AcDbEntity
  8
00_COMPONENTS_1
100
AcDbLine
 62
7
  6
CONTINUOUS
 10
19.178251637
 20
84.2803432957
 11
19.178251637
 21
108.8983180893
  0
LINE
  5
21F
100
AcDbEntity
  8
00_COMPONENTS_1
100
AcDbLine
 62
7
  6
CONTINUOUS
 10
20.2389162247
 20
84.8927146256
 11
20.2389162247
 21
95.2627434043
  0
LINE
  5
220
100
AcDbEntity
  8
00_COMPONENTS_1
100
AcDbLine
 62
7
  6
CONTINUOUS
 10
40.064837288
 20
161.2515162414
 11
82.3933346839
 21
185.6897397308
  0
LINE
  5
221
100
AcDbEntity
  8
00_COMPONENTS_1
100
AcDbLine
 62
7
  6
CONTINUOUS
 10
40.064837288
 20
160.0267626157
 11
37.5629514045
 21
158.5823067496
  0
LINE
  5
222
100
AcDbEntity
  8
00_COMPONENTS_1
100
AcDbLine
 62
7
  6
CONTINUOUS
 10
72.2492824518
 20
40.330477238
 11
70.6162824911
 21
41.2732688761
  0
LINE
  5
223
100
AcDbEntity
  8
00_COMPONENTS_1
100
AcDbLine
 62
7
  6
CONTINUOUS
 10
43.1492477677
 20
57.867167923
 11
40.7450652815
 21
59.2551919273
  0
LINE
  5
224
100
AcDbEntity
  8
00_COMPONENTS_1
100
AcDbLine
 62
7
  6
CONTINUOUS
 10
47.8161719537
 20
55.4177631212
 11
43.1492477677
 21
58.112152101
  0
LINE
  5
225
100
AcDbEntity
  8
00_COMPONENTS_1
100
AcDbLine
 62
7
  6
CONTINUOUS
 10
39.613699142
 20
60.1533558736
 11
34.946774956
 21
62.8477448535
  0
LINE
  5
226
100
AcDbEntity
  8
00_COMPONENTS_1
100
AcDbLine
 62
7
  6
CONTINUOUS
 10
35.0351636717
 20
62.9151076096
 11
47.7277832381
 21
55.587186066
  0
LINE
  5
227
100
AcDbEntity
  8
00_COMPONENTS_1
100
AcDbLine
 62
7
  6
CONTINUOUS
 10
72.4929617208
 20
42.2309959019
 11
72.3840420842
 21
42.2938792608
  0
LINE
  5
228
100
AcDbEntity
  8
00_COMPONENTS_1
100
AcDbLine
 62
7
  6
CONTINUOUS
 10
22.0066905376
 20
73.7887559689
 11
22.6077338039
 21
73.4417513276
  0
LINE
  5
229
100
AcDbEntity
  8
00_COMPONENTS_1
100
AcDbLine
 62
7
  6
CONTINUOUS
 10
36.2549514993
 20
65.5627047653
 11
55.0994256744
 21
54.6830886574
  0
LINE
  5
22A
100
AcDbEntity
  8
00_COMPONENTS_1
100
AcDbLine
 62
7
  6
CONTINUOUS
 10
36.2549514993
 20
66.3791862744
 11
23.3148376412
 21
73.8499954815
  0
LINE
  5
22B
100
AcDbEntity
  8
00_COMPONENTS_1
100
AcDbLine
 62
7
  6
CONTINUOUS
 10
22.7138002627
 20
74.4877999879
 11
36.0384828295
 21
66.7949649563
  0
LINE
  5
22C
100
AcDbEntity
  8
00_COMPONENTS_1
100
AcDbLine
 62
7
  6
CONTINUOUS
 10
20.6844879687
 20
77.1611668151
 11
18.8218096072
 21
78.2365603398
  0
LINE
  5
22D
100
AcDbEntity
  8
00_COMPONENTS_1
100
AcDbLine
 62
7
  6
CONTINUOUS
 10
35.2870931978
 20
68.8353031128
 11
36.2995218988
 21
68.2507903533
  0
LINE
  5
22E
100
AcDbEntity
  8
00_COMPONENTS_1
100
AcDbLine
 62
7
  6
CONTINUOUS
 10
21.2348369855
 20
77.2543818881
 11
27.4727413301
 21
73.6530076095
  0
LINE
  5
22F
100
AcDbEntity
  8
00_COMPONENTS_1
100
AcDbLine
 62
7
  6
CONTINUOUS
 10
20.6844879687
 20
82.9991590975
 11
22.0910802241
 21
80.5628833701
  0
LINE
  5
230
100
AcDbEntity
  8
00_COMPONENTS_1
100
AcDbLine
 62
7
  6
CONTINUOUS
 10
22.5060725191
 20
80.0686377852
 11
21.2348369885
 21
82.2704700897
  0
LINE
  5
231
100
AcDbEntity
  8
00_COMPONENTS_1
100
AcDbLine
 62
7
  6
CONTINUOUS
 10
22.0568442369
 20
82.7450517757
 11
21.6037229571
 21
83.5298764976
  0
LINE
  5
232
100
AcDbEntity
  8
00_COMPONENTS_1
100
AcDbLine
 62
7
  6
CONTINUOUS
 10
20.4553848945
 20
92.8057295877
 11
20.4553848945
 21
85.0176921243
  0
LINE
  5
233
100
AcDbEntity
  8
00_COMPONENTS_1
100
AcDbLine
 62
7
  6
CONTINUOUS
 10
20.9460200619
 20
93.0889962429
 11
20.9460200619
 21
94.8545060491
  0
LINE
  5
234
100
AcDbEntity
  8
00_COMPONENTS_1
100
AcDbLine
 62
7
  6
CONTINUOUS
 10
22.0066669858
 20
60.969597985
 11
22.0066669858
 21
73.7887559689
  0
LINE
  5
235
100
AcDbEntity
  8
00_COMPONENTS_1
100
AcDbLine
 62
7
  6
CONTINUOUS
 10
22.0066669858
 20
111.8841367347
 11
22.0066669858
 21
126.4530918388
  0
LINE
  5
236
100
AcDbEntity
  8
00_COMPONENTS_1
100
AcDbLine
 62
7
  6
CONTINUOUS
 10
22.0774015101
 20
88.9348812293
 11
22.0774015101
 21
89.3839531815
  0
LINE
  5
237
100
AcDbEntity
  8
00_COMPONENTS_1
100
AcDbLine
 62
7
  6
CONTINUOUS
 10
22.6077338039
 20
76.4617574719
 11
22.6077338039
 21
73.4417513276
  0
LINE
  5
238
100
AcDbEntity
  8
00_COMPONENTS_1
100
AcDbLine
 62
7
  6
CONTINUOUS
 10
22.7138002627
 20
76.4005213587
 11
22.7138002627
 21
74.4877999879
  0
LINE
  5
239
100
AcDbEntity
  8
00_COMPONENTS_1
100
AcDbLine
 62
7
  6
CONTINUOUS
 10
23.3148376412
 20
73.8499954815
 11
23.3148376412
 21
74.1407987459
  0
LINE
  5
23A
100
AcDbEntity
  8
00_COMPONENTS_1
100
AcDbLine
 62
7
  6
CONTINUOUS
 10
23.845175823
 20
88.3633512952
 11
23.845175823
 21
86.9747771472
  0
LINE
  5
23B
100
AcDbEntity
  8
00_COMPONENTS_1
100
AcDbLine
 62
7
  6
CONTINUOUS
 10
24.5522855481
 20
92.7724748018
 11
24.5522855481
 21
90.6903936381
  0
LINE
  5
23C
100
AcDbEntity
  8
00_COMPONENTS_1
100
AcDbLine
 62
7
  6
CONTINUOUS
 10
72.4534763728
 20
176.1543234837
 11
79.6781510392
 21
180.3254664488
  0
LINE
  5
23D
100
AcDbEntity
  8
00_COMPONENTS_1
100
AcDbLine
 62
7
  6
CONTINUOUS
 10
64.7192039457
 20
171.3623705475
 11
71.6807412842
 21
175.3815920122
  0
LINE
  5
23E
100
AcDbEntity
  8
00_COMPONENTS_1
100
AcDbLine
 62
7
  6
CONTINUOUS
 10
86.1410809891
 20
183.5260263423
 11
104.3842640212
 21
194.0586701054
  0
LINE
  5
23F
100
AcDbEntity
  8
00_COMPONENTS_1
100
AcDbLine
 62
7
  6
CONTINUOUS
 10
72.4534763728
 20
175.3378210666
 11
79.6781510392
 21
179.5089640317
  0
LINE
  5
240
100
AcDbEntity
  8
00_COMPONENTS_1
100
AcDbLine
 62
7
  6
CONTINUOUS
 10
65.2046282253
 20
170.8261262959
 11
71.6807412842
 21
174.5650895951
  0
LINE
  5
241
100
AcDbEntity
  8
00_COMPONENTS_1
100
AcDbLine
 62
7
  6
CONTINUOUS
 10
79.5467059631
 20
178.9840060653
 11
66.6226700572
 21
171.5223549961
  0
LINE
  5
242
100
AcDbEntity
  8
00_COMPONENTS_1
100
AcDbLine
 62
7
  6
CONTINUOUS
 10
72.069651633
 20
174.3405571801
 11
73.4838593074
 21
175.1570454879
  0
LINE
  5
243
100
AcDbEntity
  8
00_COMPONENTS_1
100
AcDbLine
 62
7
  6
CONTINUOUS
 10
105.7631279932
 20
193.4877990498
 11
104.4903410862
 21
192.7529595729
  0
LINE
  5
244
100
AcDbEntity
  8
00_COMPONENTS_1
100
AcDbLine
 62
7
  6
CONTINUOUS
 10
102.015480592
 20
190.9708784031
 11
100.742693685
 21
190.2360389261
  0
LINE
  5
245
100
AcDbEntity
  8
00_COMPONENTS_1
100
AcDbLine
 62
7
  6
CONTINUOUS
 10
104.9738231625
 20
192.5480749724
 11
106.5539270244
 21
193.4603532817
  0
LINE
  5
246
100
AcDbEntity
  8
00_COMPONENTS_1
100
AcDbLine
 62
7
  6
CONTINUOUS
 10
100.5475448713
 20
188.7351764493
 11
88.8330520922
 21
181.9718512615
  0
LINE
  5
247
100
AcDbEntity
  8
00_COMPONENTS_1
100
AcDbLine
 62
7
  6
CONTINUOUS
 10
106.9298696301
 20
191.7015658152
 11
105.0114371319
 21
190.5939649075
  0
LINE
  5
248
100
AcDbEntity
  8
00_COMPONENTS_1
100
AcDbLine
 62
7
  6
CONTINUOUS
 10
106.9298696301
 20
190.3028281369
 11
106.2227657929
 21
189.894583983
  0
LINE
  5
249
100
AcDbEntity
  8
00_COMPONENTS_1
100
AcDbLine
 62
7
  6
CONTINUOUS
 10
78.5397056181
 20
171.4216566934
 11
79.8781284868
 21
171.8677955613
  0
LINE
  5
24A
100
AcDbEntity
  8
00_COMPONENTS_1
100
AcDbLine
 62
7
  6
CONTINUOUS
 10
36.3203073241
 20
68.2458296858
 11
36.3099685958
 21
68.2501790746
  0
LINE
  5
24B
100
AcDbEntity
  8
00_COMPONENTS_1
100
AcDbLine
 62
7
  6
CONTINUOUS
 10
36.3185466277
 20
68.26177422
 11
36.3080998848
 21
68.2672263877
  0
LINE
  5
24C
100
AcDbEntity
  8
00_COMPONENTS_1
100
AcDbLine
 62
7
  6
CONTINUOUS
 10
22.5060725161
 20
77.9883510485
 11
36.596717611
 21
69.9952880615
  0
LINE
  5
24D
100
AcDbEntity
  8
00_COMPONENTS_1
100
AcDbLine
 62
7
  6
CONTINUOUS
 10
37.5261919267
 20
70.68206831
 11
37.6573733668
 21
70.6076542923
  0
LINE
  5
24E
100
AcDbEntity
  8
00_COMPONENTS_1
100
AcDbLine
 62
7
  6
CONTINUOUS
 10
22.2954927413
 20
77.8667481189
 11
22.0960496899
 21
77.9818940133
  0
LINE
  5
24F
100
AcDbEntity
  8
00_COMPONENTS_1
100
AcDbLine
 62
7
  6
CONTINUOUS
 10
36.6024699159
 20
70.0736172836
 11
23.0910843875
 21
77.8742428818
  0
LINE
  5
250
100
AcDbEntity
  8
00_COMPONENTS_1
100
AcDbLine
 62
7
  6
CONTINUOUS
 10
23.0910843875
 20
79.5072477161
 11
36.6024699159
 21
71.7066221179
  0
LINE
  5
251
100
AcDbEntity
  8
00_COMPONENTS_1
100
AcDbLine
 62
7
  6
CONTINUOUS
 10
37.445240408
 20
72.2814853167
 11
37.5217049042
 21
72.2373395179
  0
LINE
  5
252
100
AcDbEntity
  8
00_COMPONENTS_1
100
AcDbLine
 62
7
  6
CONTINUOUS
 10
27.4727413301
 20
78.6690958129
 11
21.2348369885
 21
82.2704700897
  0
LINE
  5
253
100
AcDbEntity
  8
00_COMPONENTS_1
100
AcDbLine
 62
7
  6
CONTINUOUS
 10
36.2995218988
 20
73.8792553695
 11
35.2870931978
 21
74.463768129
  0
LINE
  5
254
100
AcDbEntity
  8
00_COMPONENTS_1
100
AcDbLine
 62
7
  6
CONTINUOUS
 10
18.8218096072
 20
84.0745526223
 11
20.6844879687
 21
82.9991590975
  0
LINE
  5
255
100
AcDbEntity
  8
00_COMPONENTS_1
100
AcDbLine
 62
7
  6
CONTINUOUS
 10
22.2954927443
 20
82.8828363205
 11
21.8181984788
 21
83.1583960592
  0
LINE
  5
256
100
AcDbEntity
  8
00_COMPONENTS_1
100
AcDbLine
 62
7
  6
CONTINUOUS
 10
20.4934595168
 20
84.1708728924
 11
21.6037229571
 21
83.5298764976
  0
LINE
  5
257
100
AcDbEntity
  8
00_COMPONENTS_1
100
AcDbLine
 62
7
  6
CONTINUOUS
 10
36.596717611
 20
71.7915933757
 11
22.5060725191
 21
80.0686377852
  0
LINE
  5
258
100
AcDbEntity
  8
00_COMPONENTS_1
100
AcDbLine
 62
7
  6
CONTINUOUS
 10
26.8511819016
 20
87.4377047414
 11
26.8573940517
 21
87.8450702773
  0
LINE
  5
259
100
AcDbEntity
  8
00_COMPONENTS_1
100
AcDbLine
 62
7
  6
CONTINUOUS
 10
27.827461024
 20
121.351906025
 11
27.7342557595
 21
121.1459108053
  0
LINE
  5
25A
100
AcDbEntity
  8
00_COMPONENTS_1
100
AcDbLine
 62
7
  6
CONTINUOUS
 10
27.827461024
 20
120.0046770367
 11
27.7342557595
 21
119.798681817
  0
LINE
  5
25B
100
AcDbEntity
  8
00_COMPONENTS_1
100
AcDbLine
 62
7
  6
CONTINUOUS
 10
27.827461024
 20
118.6574480485
 11
27.7342557595
 21
118.4514528287
  0
LINE
  5
25C
100
AcDbEntity
  8
00_COMPONENTS_1
100
AcDbLine
 62
7
  6
CONTINUOUS
 10
29.7623796705
 20
119.715193322
 11
29.855584935
 21
119.9211885417
  0
LINE
  5
25D
100
AcDbEntity
  8
00_COMPONENTS_1
100
AcDbLine
 62
7
  6
CONTINUOUS
 10
29.7623796705
 20
118.3679643337
 11
29.855584935
 21
118.5739595534
  0
LINE
  5
25E
100
AcDbEntity
  8
00_COMPONENTS_1
100
AcDbLine
 62
7
  6
CONTINUOUS
 10
29.7623796705
 20
117.0207353454
 11
29.855584935
 21
117.2267305652
  0
LINE
  5
25F
100
AcDbEntity
  8
00_COMPONENTS_1
100
AcDbLine
 62
7
  6
CONTINUOUS
 10
31.5044315948
 20
119.2290541015
 11
31.4112263303
 21
119.0230588818
  0
LINE
  5
260
100
AcDbEntity
  8
00_COMPONENTS_1
100
AcDbLine
 62
7
  6
CONTINUOUS
 10
31.5044315948
 20
117.8818251132
 11
31.4112263303
 21
117.6758298935
  0
LINE
  5
261
100
AcDbEntity
  8
00_COMPONENTS_1
100
AcDbLine
 62
7
  6
CONTINUOUS
 10
44.1759006104
 20
150.2453346819
 11
43.4960207926
 21
149.278090904
  0
LINE
  5
262
100
AcDbEntity
  8
00_COMPONENTS_1
100
AcDbLine
 62
7
  6
CONTINUOUS
 10
45.9455207336
 20
146.2308986127
 11
46.1250438125
 21
146.4863004889
  0
LINE
  5
263
100
AcDbEntity
  8
00_COMPONENTS_1
100
AcDbLine
 62
7
  6
CONTINUOUS
 10
72.4534763728
 20
176.1543234837
 11
71.6807412842
 21
175.3815920123
  0
LINE
  5
264
100
AcDbEntity
  8
00_COMPONENTS_1
100
AcDbLine
 62
7
  6
CONTINUOUS
 10
71.6807412842
 20
174.5650895951
 11
72.4534763728
 21
175.3378210666
  0
LINE
  5
265
100
AcDbEntity
  8
00_COMPONENTS_1
100
AcDbLine
 62
7
  6
CONTINUOUS
 10
78.5397056181
 20
171.4216566934
 11
71.5781682797
 21
167.4024352286
  0
LINE
  5
266
100
AcDbEntity
  8
00_COMPONENTS_1
100
AcDbLine
 62
7
  6
CONTINUOUS
 10
87.1028031532
 20
176.0389385263
 11
79.8781284868
 21
171.8677955613
  0
LINE
  5
267
100
AcDbEntity
  8
00_COMPONENTS_1
100
AcDbLine
 62
7
  6
CONTINUOUS
 10
50.3545504939
 20
154.6183295296
 11
49.7883009388
 21
154.291407148
  0
LINE
  5
268
100
AcDbEntity
  8
00_COMPONENTS_1
100
AcDbLine
 62
7
  6
CONTINUOUS
 10
109.1485903101
 20
188.2054460159
 11
111.5260828435
 21
189.5780837766
  0
LINE
  5
269
100
AcDbEntity
  8
00_COMPONENTS_1
100
AcDbLine
 62
7
  6
CONTINUOUS
 10
47.4062249106
 20
151.5706795387
 11
49.8860779162
 21
153.0024147927
  0
LINE
  5
26A
100
AcDbEntity
  8
00_COMPONENTS_1
100
AcDbLine
 62
7
  6
CONTINUOUS
 10
44.6113875625
 20
149.922044365
 11
43.4960207926
 21
149.278090904
  0
LINE
  5
26B
100
AcDbEntity
  8
00_COMPONENTS_1
100
AcDbLine
 62
7
  6
CONTINUOUS
 10
56.1245304646
 20
156.1941592722
 11
89.5705419648
 21
175.5041077503
  0
LINE
  5
26C
100
AcDbEntity
  8
00_COMPONENTS_1
100
AcDbLine
 62
7
  6
CONTINUOUS
 10
50.5338977192
 20
152.4132565298
 11
47.4763619106
 21
150.6479981468
  0
LINE
  5
26D
100
AcDbEntity
  8
00_COMPONENTS_1
100
AcDbLine
 62
7
  6
CONTINUOUS
 10
114.1647577283
 20
189.066337532
 11
113.4313769797
 21
188.6429224868
  0
LINE
  5
26E
100
AcDbEntity
  8
00_COMPONENTS_1
100
AcDbLine
 62
7
  6
CONTINUOUS
 10
109.5108542769
 20
186.1854927745
 11
110.7836411838
 21
186.9203322515
  0
LINE
  5
26F
100
AcDbEntity
  8
00_COMPONENTS_1
100
AcDbLine
 62
7
  6
CONTINUOUS
 10
113.9656113953
 20
188.3758576149
 11
115.2383983023
 21
189.1106970918
  0
LINE
  5
270
100
AcDbEntity
  8
00_COMPONENTS_1
100
AcDbLine
 62
7
  6
CONTINUOUS
 10
108.3257513895
 20
185.0814850483
 11
95.8864225413
 21
177.8996780588
  0
LINE
  5
271
100
AcDbEntity
  8
00_COMPONENTS_1
100
AcDbLine
 62
7
  6
CONTINUOUS
 10
91.1261833602
 20
174.6059780904
 11
57.68017186
 21
155.2960296122
  0
LINE
  5
272
100
AcDbEntity
  8
00_COMPONENTS_1
100
AcDbLine
 62
7
  6
CONTINUOUS
 10
45.722832128
 20
147.9879290308
 11
44.3125207729
 21
147.1736902507
  0
LINE
  5
273
100
AcDbEntity
  8
00_COMPONENTS_1
100
AcDbLine
 62
7
  6
CONTINUOUS
 10
109.9167483656
 20
184.2690030997
 11
97.3855677201
 21
177.0341657668
  0
LINE
  5
274
100
AcDbEntity
  8
00_COMPONENTS_1
100
AcDbLine
 62
7
  6
CONTINUOUS
 10
66.6009701817
 20
59.0366105301
 11
62.1725778096
 21
61.5932862185
  0
LINE
  5
275
100
AcDbEntity
  8
00_COMPONENTS_1
100
AcDbLine
 62
7
  6
CONTINUOUS
 10
29.1858743022
 20
80.8057396264
 11
31.6881499632
 21
79.3610827824
  0
LINE
  5
276
100
AcDbEntity
  8
00_COMPONENTS_1
100
AcDbLine
 62
7
  6
CONTINUOUS
 10
21.2445597896
 20
85.4733197428
 11
21.0774199491
 21
85.5698157916
  0
LINE
  5
277
100
AcDbEntity
  8
00_COMPONENTS_1
100
AcDbLine
 62
7
  6
CONTINUOUS
 10
33.270999272
 20
79.4270227925
 11
29.9420780109
 21
81.3489328994
  0
LINE
  5
278
100
AcDbEntity
  8
00_COMPONENTS_1
100
AcDbLine
 62
7
  6
CONTINUOUS
 10
30.8410067442
 20
81.6464294033
 11
33.9781031092
 21
79.8352669464
  0
LINE
  5
279
100
AcDbEntity
  8
00_COMPONENTS_1
100
AcDbLine
 62
7
  6
CONTINUOUS
 10
23.4213349225
 20
86.7300739499
 11
23.1166093344
 21
86.9060033701
  0
LINE
  5
27A
100
AcDbEntity
  8
00_COMPONENTS_1
100
AcDbLine
 62
7
  6
CONTINUOUS
 10
22.0774029821
 20
88.9348812293
 11
23.4916224324
 21
88.1183997202
  0
LINE
  5
27B
100
AcDbEntity
  8
00_COMPONENTS_1
100
AcDbLine
 62
7
  6
CONTINUOUS
 10
22.0774015101
 20
89.3839531815
 11
23.845175823
 21
88.3633512952
  0
LINE
  5
27C
100
AcDbEntity
  8
00_COMPONENTS_1
100
AcDbLine
 62
7
  6
CONTINUOUS
 10
34.9680420059
 20
82.9964838432
 11
27.0130575967
 21
87.5891923322
  0
LINE
  5
27D
100
AcDbEntity
  8
00_COMPONENTS_1
100
AcDbLine
 62
7
  6
CONTINUOUS
 10
26.8573940517
 20
87.8450702773
 11
26.1049791305
 21
88.2794674072
  0
LINE
  5
27E
100
AcDbEntity
  8
00_COMPONENTS_1
100
AcDbLine
 62
7
  6
CONTINUOUS
 10
43.7948225732
 20
78.2066434005
 11
42.7823938726
 21
78.7911561599
  0
LINE
  5
27F
100
AcDbEntity
  8
00_COMPONENTS_1
100
AcDbLine
 62
7
  6
CONTINUOUS
 10
25.6750772358
 20
89.7922069844
 11
20.4553848945
 21
92.8057295877
  0
LINE
  5
280
100
AcDbEntity
  8
00_COMPONENTS_1
100
AcDbLine
 62
7
  6
CONTINUOUS
 10
24.5522855481
 20
90.6903936381
 11
25.805278815
 21
89.9669940036
  0
LINE
  5
281
100
AcDbEntity
  8
00_COMPONENTS_1
100
AcDbLine
 62
7
  6
CONTINUOUS
 10
33.9781031092
 20
79.6311448695
 11
33.9781031092
 21
79.8352669464
  0
LINE
  5
282
100
AcDbEntity
  8
00_COMPONENTS_1
100
AcDbLine
 62
7
  6
CONTINUOUS
 10
34.946774956
 20
62.8477448535
 11
34.946774956
 21
67.1344452676
  0
LINE
  5
283
100
AcDbEntity
  8
00_COMPONENTS_1
100
AcDbLine
 62
7
  6
CONTINUOUS
 10
35.0351636717
 20
67.0834151733
 11
35.0351636717
 21
62.9151076096
  0
LINE
  5
284
100
AcDbEntity
  8
00_COMPONENTS_1
100
AcDbLine
 62
7
  6
CONTINUOUS
 10
36.0384828295
 20
66.7949649563
 11
36.0384828295
 21
68.4014979207
  0
LINE
  5
285
100
AcDbEntity
  8
00_COMPONENTS_1
100
AcDbLine
 62
7
  6
CONTINUOUS
 10
36.2549514993
 20
68.2507903533
 11
36.2549514993
 21
65.5627047653
  0
LINE
  5
286
100
AcDbEntity
  8
00_COMPONENTS_1
100
AcDbLine
 62
7
  6
CONTINUOUS
 10
37.5629514045
 20
135.434463224
 11
37.5629514045
 21
158.5823067496
  0
LINE
  5
287
100
AcDbEntity
  8
00_COMPONENTS_1
100
AcDbLine
 62
7
  6
CONTINUOUS
 10
39.613699142
 20
58.6020012811
 11
39.613699142
 21
60.1533558736
  0
LINE
  5
288
100
AcDbEntity
  8
00_COMPONENTS_1
100
AcDbLine
 62
7
  6
CONTINUOUS
 10
40.064837288
 20
160.0267626157
 11
40.064837288
 21
161.2515162414
  0
LINE
  5
289
100
AcDbEntity
  8
00_COMPONENTS_1
100
AcDbLine
 62
7
  6
CONTINUOUS
 10
40.7450652815
 20
59.2551919273
 11
40.7450652815
 21
59.6185689558
  0
LINE
  5
28A
100
AcDbEntity
  8
00_COMPONENTS_1
100
AcDbLine
 62
7
  6
CONTINUOUS
 10
31.5044315948
 20
116.534596125
 11
31.4112263303
 21
116.3286009052
  0
LINE
  5
28B
100
AcDbEntity
  8
00_COMPONENTS_1
100
AcDbLine
 62
7
  6
CONTINUOUS
 10
33.4393502412
 20
117.5923413985
 11
33.5325555057
 21
117.7983366182
  0
LINE
  5
28C
100
AcDbEntity
  8
00_COMPONENTS_1
100
AcDbLine
 62
7
  6
CONTINUOUS
 10
33.4393502412
 20
116.2451124102
 11
33.5325555057
 21
116.4511076299
  0
LINE
  5
28D
100
AcDbEntity
  8
00_COMPONENTS_1
100
AcDbLine
 62
7
  6
CONTINUOUS
 10
33.4393502412
 20
114.8978834219
 11
33.5325555057
 21
115.1038786417
  0
LINE
  5
28E
100
AcDbEntity
  8
00_COMPONENTS_1
100
AcDbLine
 62
7
  6
CONTINUOUS
 10
35.1814021656
 20
117.106202178
 11
35.0881969011
 21
116.9002069582
  0
LINE
  5
28F
100
AcDbEntity
  8
00_COMPONENTS_1
100
AcDbLine
 62
7
  6
CONTINUOUS
 10
35.1814021656
 20
115.7589731897
 11
35.0881969011
 21
115.55297797
  0
LINE
  5
290
100
AcDbEntity
  8
00_COMPONENTS_1
100
AcDbLine
 62
7
  6
CONTINUOUS
 10
35.1814021656
 20
114.4117442014
 11
35.0881969011
 21
114.2057489817
  0
LINE
  5
291
100
AcDbEntity
  8
00_COMPONENTS_1
100
AcDbLine
 62
7
  6
CONTINUOUS
 10
37.116320812
 20
115.469489475
 11
37.2095260765
 21
115.6754846947
  0
LINE
  5
292
100
AcDbEntity
  8
00_COMPONENTS_1
100
AcDbLine
 62
7
  6
CONTINUOUS
 10
37.116320812
 20
114.1222604867
 11
37.2095260765
 21
114.3282557064
  0
LINE
  5
293
100
AcDbEntity
  8
00_COMPONENTS_1
100
AcDbLine
 62
7
  6
CONTINUOUS
 10
54.9507637074
 20
151.9647646252
 11
54.1670740859
 21
151.5123039121
  0
LINE
  5
294
100
AcDbEntity
  8
00_COMPONENTS_1
100
AcDbLine
 62
7
  6
CONTINUOUS
 10
84.8278965629
 20
169.0101102796
 11
92.0525712292
 21
173.1812532447
  0
LINE
  5
295
100
AcDbEntity
  8
00_COMPONENTS_1
100
AcDbLine
 62
7
  6
CONTINUOUS
 10
77.0936241358
 20
164.2181573433
 11
84.0551614742
 21
168.2373788081
  0
LINE
  5
296
100
AcDbEntity
  8
00_COMPONENTS_1
100
AcDbLine
 62
7
  6
CONTINUOUS
 10
98.7341337949
 20
176.2555883943
 11
111.3309678159
 21
183.5283304949
  0
LINE
  5
297
100
AcDbEntity
  8
00_COMPONENTS_1
100
AcDbLine
 62
7
  6
CONTINUOUS
 10
84.8278965629
 20
168.1936078625
 11
92.0525712292
 21
172.3647508276
  0
LINE
  5
298
100
AcDbEntity
  8
00_COMPONENTS_1
100
AcDbLine
 62
7
  6
CONTINUOUS
 10
51.589705269
 20
148.9202049158
 11
54.0656990506
 21
150.3497120591
  0
LINE
  5
299
100
AcDbEntity
  8
00_COMPONENTS_1
100
AcDbLine
 62
7
  6
CONTINUOUS
 10
77.5790484153
 20
163.6819130917
 11
84.0551614742
 21
167.420876391
  0
LINE
  5
29A
100
AcDbEntity
  8
00_COMPONENTS_1
100
AcDbLine
 62
7
  6
CONTINUOUS
 10
91.9211261531
 20
171.8397928612
 11
78.9970902473
 21
164.378141792
  0
LINE
  5
29B
100
AcDbEntity
  8
00_COMPONENTS_1
100
AcDbLine
 62
7
  6
CONTINUOUS
 10
84.4440718231
 20
167.196343976
 11
85.8582794975
 21
168.0128322838
  0
LINE
  5
29C
100
AcDbEntity
  8
00_COMPONENTS_1
100
AcDbLine
 62
7
  6
CONTINUOUS
 10
112.9219647187
 20
182.6743322961
 11
100.2692335577
 21
175.3693181831
  0
LINE
  5
29D
100
AcDbEntity
  8
00_COMPONENTS_1
100
AcDbLine
 62
7
  6
CONTINUOUS
 10
37.5629514045
 20
135.434463224
 11
22.0066669858
 21
126.4530918388
  0
LINE
  5
29E
100
AcDbEntity
  8
00_COMPONENTS_1
100
AcDbLine
 62
7
  6
CONTINUOUS
 10
90.9141258082
 20
164.2774434893
 11
92.2525486769
 21
164.7235823571
  0
LINE
  5
29F
100
AcDbEntity
  8
00_COMPONENTS_1
100
AcDbLine
 62
7
  6
CONTINUOUS
 10
24.5522855481
 20
91.2405882815
 11
21.1483466549
 21
93.2058088585
  0
LINE
  5
2A0
100
AcDbEntity
  8
00_COMPONENTS_1
100
AcDbLine
 62
7
  6
CONTINUOUS
 10
20.2389162247
 20
95.2627434043
 11
24.5522855481
 21
92.7724748018
  0
LINE
  5
2A1
100
AcDbEntity
  8
00_COMPONENTS_1
100
AcDbLine
 62
7
  6
CONTINUOUS
 10
43.1492477677
 20
58.112152101
 11
43.1492477677
 21
56.5607975085
  0
LINE
  5
2A2
100
AcDbEntity
  8
00_COMPONENTS_1
100
AcDbLine
 62
7
  6
CONTINUOUS
 10
37.116320812
 20
112.7750314984
 11
37.2095260765
 21
112.9810267182
  0
LINE
  5
2A3
100
AcDbEntity
  8
00_COMPONENTS_1
100
AcDbLine
 62
7
  6
CONTINUOUS
 10
38.8583727363
 20
114.9833502545
 11
38.7651674718
 21
114.7773550347
  0
LINE
  5
2A4
100
AcDbEntity
  8
00_COMPONENTS_1
100
AcDbLine
 62
7
  6
CONTINUOUS
 10
38.8583727363
 20
113.6361212662
 11
38.7651674718
 21
113.4301260465
  0
LINE
  5
2A5
100
AcDbEntity
  8
00_COMPONENTS_1
100
AcDbLine
 62
7
  6
CONTINUOUS
 10
38.8583727363
 20
112.2888922779
 11
38.7651674718
 21
112.0828970582
  0
LINE
  5
2A6
100
AcDbEntity
  8
00_COMPONENTS_1
100
AcDbLine
 62
7
  6
CONTINUOUS
 10
40.7932913828
 20
113.3466375514
 11
40.8864966473
 21
113.5526327712
  0
LINE
  5
2A7
100
AcDbEntity
  8
00_COMPONENTS_1
100
AcDbLine
 62
7
  6
CONTINUOUS
 10
40.7932913828
 20
111.9994085632
 11
40.8864966473
 21
112.2054037829
  0
LINE
  5
2A8
100
AcDbEntity
  8
00_COMPONENTS_1
100
AcDbLine
 62
7
  6
CONTINUOUS
 10
40.7932913828
 20
110.6521795749
 11
40.8864966473
 21
110.8581747947
  0
LINE
  5
2A9
100
AcDbEntity
  8
00_COMPONENTS_1
100
AcDbLine
 62
7
  6
CONTINUOUS
 10
42.5353433071
 20
112.860498331
 11
42.4421380426
 21
112.6545031112
  0
LINE
  5
2AA
100
AcDbEntity
  8
00_COMPONENTS_1
100
AcDbLine
 62
7
  6
CONTINUOUS
 10
42.5353433071
 20
111.5132693427
 11
42.4421380426
 21
111.307274123
  0
LINE
  5
2AB
100
AcDbEntity
  8
00_COMPONENTS_1
100
AcDbLine
 62
7
  6
CONTINUOUS
 10
42.5353433071
 20
110.1660403544
 11
42.4421380426
 21
109.9600451347
  0
LINE
  5
2AC
100
AcDbEntity
  8
00_COMPONENTS_1
100
AcDbLine
 62
7
  6
CONTINUOUS
 10
56.2151857354
 20
142.6243352901
 11
55.8704409827
 21
142.1338776999
  0
LINE
  5
2AD
100
AcDbEntity
  8
00_COMPONENTS_1
100
AcDbLine
 62
7
  6
CONTINUOUS
 10
84.8278965629
 20
169.0101102796
 11
84.0551614742
 21
168.2373788081
  0
LINE
  5
2AE
100
AcDbEntity
  8
00_COMPONENTS_1
100
AcDbLine
 62
7
  6
CONTINUOUS
 10
84.0551614742
 20
167.420876391
 11
84.8278965629
 21
168.1936078625
  0
LINE
  5
2AF
100
AcDbEntity
  8
00_COMPONENTS_1
100
AcDbLine
 62
7
  6
CONTINUOUS
 10
90.9141258082
 20
164.2774434893
 11
83.9525884697
 21
160.2582220245
  0
LINE
  5
2B0
100
AcDbEntity
  8
00_COMPONENTS_1
100
AcDbLine
 62
7
  6
CONTINUOUS
 10
99.4772233433
 20
168.8947253222
 11
92.2525486769
 21
164.7235823571
  0
LINE
  5
2B1
100
AcDbEntity
  8
00_COMPONENTS_1
100
AcDbLine
 62
7
  6
CONTINUOUS
 10
62.728970389
 20
147.4741164958
 11
61.9452807587
 21
147.0216557776
  0
LINE
  5
2B2
100
AcDbEntity
  8
00_COMPONENTS_1
100
AcDbLine
 62
7
  6
CONTINUOUS
 10
59.5769563787
 20
144.3088676386
 11
62.0529501599
 21
145.7383747817
  0
LINE
  5
2B3
100
AcDbEntity
  8
00_COMPONENTS_1
100
AcDbLine
 62
7
  6
CONTINUOUS
 10
56.4146685424
 20
142.4480857524
 11
55.8704409827
 21
142.1338776999
  0
LINE
  5
2B4
100
AcDbEntity
  8
00_COMPONENTS_1
100
AcDbLine
 62
7
  6
CONTINUOUS
 10
68.4989506547
 20
149.0499460681
 11
101.9449621549
 21
168.3598945462
  0
LINE
  5
2B5
100
AcDbEntity
  8
00_COMPONENTS_1
100
AcDbLine
 62
7
  6
CONTINUOUS
 10
62.9083176152
 20
145.2690434855
 11
59.6540431661
 21
143.3901986738
  0
LINE
  5
2B6
100
AcDbEntity
  8
00_COMPONENTS_1
100
AcDbLine
 62
7
  6
CONTINUOUS
 10
120.7001716535
 20
178.1836840129
 11
108.0474405197
 21
170.8786698919
  0
LINE
  5
2B7
100
AcDbEntity
  8
00_COMPONENTS_1
100
AcDbLine
 62
7
  6
CONTINUOUS
 10
103.5006035502
 20
167.4617648863
 11
70.05459205
 21
148.1518164081
  0
LINE
  5
2B8
100
AcDbEntity
  8
00_COMPONENTS_1
100
AcDbLine
 62
7
  6
CONTINUOUS
 10
57.725772819
 20
140.6292433182
 11
56.686940963
 21
140.0294770466
  0
LINE
  5
2B9
100
AcDbEntity
  8
00_COMPONENTS_1
100
AcDbLine
 62
7
  6
CONTINUOUS
 10
122.2911685558
 20
177.2005987997
 11
109.6943345348
 21
169.9278566991
  0
LINE
  5
2BA
100
AcDbEntity
  8
00_COMPONENTS_1
100
AcDbLine
 62
7
  6
CONTINUOUS
 10
67.3251842181
 20
144.820551236
 11
66.7589346838
 21
144.4936288664
  0
LINE
  5
2BB
100
AcDbEntity
  8
00_COMPONENTS_1
100
AcDbLine
 62
7
  6
CONTINUOUS
 10
97.2023167529
 20
161.8658970755
 11
104.4269914193
 21
166.0370400406
  0
LINE
  5
2BC
100
AcDbEntity
  8
00_COMPONENTS_1
100
AcDbLine
 62
7
  6
CONTINUOUS
 10
89.4680443259
 20
157.0739441392
 11
96.4295816643
 21
161.093165604
  0
LINE
  5
2BD
100
AcDbEntity
  8
00_COMPONENTS_1
100
AcDbLine
 62
7
  6
CONTINUOUS
 10
97.2023167529
 20
161.0493946584
 11
104.4269914193
 21
165.2205376234
  0
LINE
  5
2BE
100
AcDbEntity
  8
00_COMPONENTS_1
100
AcDbLine
 62
7
  6
CONTINUOUS
 10
111.1742073606
 20
169.0734710536
 11
123.7053880061
 21
176.3083083864
  0
LINE
  5
2BF
100
AcDbEntity
  8
00_COMPONENTS_1
100
AcDbLine
 62
7
  6
CONTINUOUS
 10
64.1678141884
 20
141.8935903821
 11
66.647667194
 21
143.3253256361
  0
LINE
  5
2C0
100
AcDbEntity
  8
00_COMPONENTS_1
100
AcDbLine
 62
7
  6
CONTINUOUS
 10
89.9534686054
 20
156.5376998876
 11
96.4295816643
 21
160.2766631869
  0
LINE
  5
2C1
100
AcDbEntity
  8
00_COMPONENTS_1
100
AcDbLine
 62
7
  6
CONTINUOUS
 10
103.2885459982
 20
157.1332302852
 11
104.626968867
 21
157.579369153
  0
LINE
  5
2C2
100
AcDbEntity
  8
00_COMPONENTS_1
100
AcDbLine
 62
7
  6
CONTINUOUS
 10
69.7997825108
 20
43.3776695294
 11
70.6162824911
 21
41.2732688761
  0
LINE
  5
2C3
100
AcDbEntity
  8
00_COMPONENTS_1
100
AcDbLine
 62
7
  6
CONTINUOUS
 10
72.3840420842
 20
42.2938792608
 11
72.288983537
 21
42.5388777588
  0
LINE
  5
2C4
100
AcDbEntity
  8
00_COMPONENTS_1
100
AcDbLine
 62
7
  6
CONTINUOUS
 10
50.5338977192
 20
152.4132565297
 11
50.3545504939
 21
154.6183295296
  0
LINE
  5
2C5
100
AcDbEntity
  8
00_COMPONENTS_1
100
AcDbLine
 62
7
  6
CONTINUOUS
 10
47.4062249106
 20
151.5706795387
 11
47.4763619106
 21
150.6479981468
  0
LINE
  5
2C6
100
AcDbEntity
  8
00_COMPONENTS_1
100
AcDbLine
 62
7
  6
CONTINUOUS
 10
49.7883009388
 20
154.291407148
 11
49.8860779162
 21
153.0024147927
  0
LINE
  5
2C7
100
AcDbEntity
  8
00_COMPONENTS_1
100
AcDbLine
 62
7
  6
CONTINUOUS
 10
47.7277832381
 20
55.587186066
 11
47.7277832381
 21
58.9390121205
  0
LINE
  5
2C8
100
AcDbEntity
  8
00_COMPONENTS_1
100
AcDbLine
 62
7
  6
CONTINUOUS
 10
47.8161719537
 20
58.8879820262
 11
47.8161719537
 21
55.4177631212
  0
LINE
  5
2C9
100
AcDbEntity
  8
00_COMPONENTS_1
100
AcDbLine
 62
7
  6
CONTINUOUS
 10
54.18015948
 20
101.386943292
 11
54.18015948
 21
107.8781375082
  0
LINE
  5
2CA
100
AcDbEntity
  8
00_COMPONENTS_1
100
AcDbLine
 62
7
  6
CONTINUOUS
 10
51.5171415257
 20
148.0879346168
 11
51.589705269
 21
148.9202049158
  0
LINE
  5
2CB
100
AcDbEntity
  8
00_COMPONENTS_1
100
AcDbLine
 62
7
  6
CONTINUOUS
 10
54.0656990506
 20
150.3497120591
 11
54.1670740859
 21
151.5123039121
  0
LINE
  5
2CC
100
AcDbEntity
  8
00_COMPONENTS_1
100
AcDbLine
 62
7
  6
CONTINUOUS
 10
44.4702619535
 20
111.2237856279
 11
44.563467218
 21
111.4297808477
  0
LINE
  5
2CD
100
AcDbEntity
  8
00_COMPONENTS_1
100
AcDbLine
 62
7
  6
CONTINUOUS
 10
44.4702619535
 20
109.8765566397
 11
44.563467218
 21
110.0825518594
  0
LINE
  5
2CE
100
AcDbEntity
  8
00_COMPONENTS_1
100
AcDbLine
 62
7
  6
CONTINUOUS
 10
44.4702619535
 20
108.5293276514
 11
44.563467218
 21
108.7353228711
  0
LINE
  5
2CF
100
AcDbEntity
  8
00_COMPONENTS_1
100
AcDbLine
 62
7
  6
CONTINUOUS
 10
46.2123138778
 20
110.7376464075
 11
46.1191086133
 21
110.5316511877
  0
LINE
  5
2D0
100
AcDbEntity
  8
00_COMPONENTS_1
100
AcDbLine
 62
7
  6
CONTINUOUS
 10
46.2123138778
 20
109.3904174192
 11
46.1191086133
 21
109.1844221995
  0
LINE
  5
2D1
100
AcDbEntity
  8
00_COMPONENTS_1
100
AcDbLine
 62
7
  6
CONTINUOUS
 10
46.2123138778
 20
108.0431884309
 11
46.1191086133
 21
107.8371932112
  0
LINE
  5
2D2
100
AcDbEntity
  8
00_COMPONENTS_1
100
AcDbLine
 62
7
  6
CONTINUOUS
 10
48.1472325243
 20
109.1009337044
 11
48.2404377888
 21
109.3069289242
  0
LINE
  5
2D3
100
AcDbEntity
  8
00_COMPONENTS_1
100
AcDbLine
 62
7
  6
CONTINUOUS
 10
48.1472325243
 20
107.7537047162
 11
48.2404377888
 21
107.9596999359
  0
LINE
  5
2D4
100
AcDbEntity
  8
00_COMPONENTS_1
100
AcDbLine
 62
7
  6
CONTINUOUS
 10
48.1472325243
 20
106.4064757279
 11
48.2404377888
 21
106.6124709476
  0
LINE
  5
2D5
100
AcDbEntity
  8
00_COMPONENTS_1
100
AcDbLine
 62
7
  6
CONTINUOUS
 10
49.8892844486
 20
108.614794484
 11
49.7960791841
 21
108.4087992642
  0
LINE
  5
2D6
100
AcDbEntity
  8
00_COMPONENTS_1
100
AcDbLine
 62
7
  6
CONTINUOUS
 10
90.1008174869
 20
182.2236646795
 11
89.9543691504
 21
182.0005306473
  0
LINE
  5
2D7
100
AcDbEntity
  8
00_COMPONENTS_1
100
AcDbLine
 62
7
  6
CONTINUOUS
 10
92.2221289985
 20
183.4483971411
 11
92.075680662
 21
183.2252631089
  0
LINE
  5
2D8
100
AcDbEntity
  8
00_COMPONENTS_1
100
AcDbLine
 62
7
  6
CONTINUOUS
 10
94.3434405101
 20
184.6731296027
 11
94.1969921737
 21
184.4499955705
  0
LINE
  5
2D9
100
AcDbEntity
  8
00_COMPONENTS_1
100
AcDbLine
 62
7
  6
CONTINUOUS
 10
96.4647520218
 20
185.8978620643
 11
96.3183036853
 21
185.6747280321
  0
LINE
  5
2DA
100
AcDbEntity
  8
00_COMPONENTS_1
100
AcDbLine
 62
7
  6
CONTINUOUS
 10
97.1718974813
 20
178.8966990102
 11
97.3182561174
 21
179.0582144467
  0
LINE
  5
2DB
100
AcDbEntity
  8
00_COMPONENTS_1
100
AcDbLine
 62
7
  6
CONTINUOUS
 10
99.293208993
 20
180.1214314718
 11
99.4395676291
 21
180.2829469083
  0
LINE
  5
2DC
100
AcDbEntity
  8
00_COMPONENTS_1
100
AcDbLine
 62
7
  6
CONTINUOUS
 10
101.4145205046
 20
181.3461639334
 11
101.5608791407
 21
181.5076793699
  0
LINE
  5
2DD
100
AcDbEntity
  8
00_COMPONENTS_1
100
AcDbLine
 62
7
  6
CONTINUOUS
 10
103.5358320162
 20
182.570896395
 11
103.6821906524
 21
182.7324118315
  0
LINE
  5
2DE
100
AcDbEntity
  8
00_COMPONENTS_1
100
AcDbLine
 62
7
  6
CONTINUOUS
 10
104.2955463432
 20
164.6955796571
 11
91.3715104373
 21
157.2339285879
  0
LINE
  5
2DF
100
AcDbEntity
  8
00_COMPONENTS_1
100
AcDbLine
 62
7
  6
CONTINUOUS
 10
28.6888648858
 20
120.9622055252
 11
28.0524551358
 21
120.594776378
  0
LINE
  5
2E0
100
AcDbEntity
  8
00_COMPONENTS_1
100
AcDbLine
 62
7
  6
CONTINUOUS
 10
96.8184920131
 20
160.0521307719
 11
98.2326996876
 21
160.8686190797
  0
LINE
  5
2E1
100
AcDbEntity
  8
00_COMPONENTS_1
100
AcDbLine
 62
7
  6
CONTINUOUS
 10
28.6888648858
 20
119.6149765369
 11
28.0524551358
 21
119.2475473897
  0
LINE
  5
2E2
100
AcDbEntity
  8
00_COMPONENTS_1
100
AcDbLine
 62
7
  6
CONTINUOUS
 10
125.2963849872
 20
175.283706863
 11
112.8570561084
 21
168.1018998559
  0
LINE
  5
2E3
100
AcDbEntity
  8
00_COMPONENTS_1
100
AcDbLine
 62
7
  6
CONTINUOUS
 10
132.2797426783
 20
179.2720949079
 11
131.0069557713
 21
178.5372554309
  0
LINE
  5
2E4
100
AcDbEntity
  8
00_COMPONENTS_1
100
AcDbLine
 62
7
  6
CONTINUOUS
 10
29.5373855587
 20
119.7374707935
 11
29.8555876842
 21
119.9211837798
  0
LINE
  5
2E5
100
AcDbEntity
  8
00_COMPONENTS_1
100
AcDbLine
 62
7
  6
CONTINUOUS
 10
128.5320952824
 20
176.6734893146
 11
127.2593083754
 21
175.9386498376
  0
LINE
  5
2E6
100
AcDbEntity
  8
00_COMPONENTS_1
100
AcDbLine
 62
7
  6
CONTINUOUS
 10
28.6888648858
 20
118.2677475487
 11
28.0524551358
 21
117.9003184015
  0
LINE
  5
2E7
100
AcDbEntity
  8
00_COMPONENTS_1
100
AcDbLine
 62
7
  6
CONTINUOUS
 10
29.5373855587
 20
118.3902418053
 11
29.8555876842
 21
118.5739547915
  0
LINE
  5
2E8
100
AcDbEntity
  8
00_COMPONENTS_1
100
AcDbLine
 62
7
  6
CONTINUOUS
 10
132.2844661751
 20
177.6974867704
 11
133.0705417174
 21
178.1513249872
  0
LINE
  5
2E9
100
AcDbEntity
  8
00_COMPONENTS_1
100
AcDbLine
 62
7
  6
CONTINUOUS
 10
32.3658354566
 20
118.8393536017
 11
31.7294257066
 21
118.4719244545
  0
LINE
  5
2EA
100
AcDbEntity
  8
00_COMPONENTS_1
100
AcDbLine
 62
7
  6
CONTINUOUS
 10
29.5373855587
 20
117.043012817
 11
29.8555876842
 21
117.2267258032
  0
LINE
  5
2EB
100
AcDbEntity
  8
00_COMPONENTS_1
100
AcDbLine
 62
7
  6
CONTINUOUS
 10
133.4464843231
 20
176.9226203864
 11
131.0689917897
 21
175.5499826258
  0
LINE
  5
2EC
100
AcDbEntity
  8
00_COMPONENTS_1
100
AcDbLine
 62
7
  6
CONTINUOUS
 10
22.8351148402
 20
112.3624384713
 11
20.0066994913
 21
110.7294618558
  0
LINE
  5
2ED
100
AcDbEntity
  8
00_COMPONENTS_1
100
AcDbLine
 62
7
  6
CONTINUOUS
 10
32.3658354566
 20
117.4921246134
 11
31.7294257066
 21
117.1246954662
  0
LINE
  5
2EE
100
AcDbEntity
  8
00_COMPONENTS_1
100
AcDbLine
 62
7
  6
CONTINUOUS
 10
33.2143561294
 20
117.61461887
 11
33.532558255
 21
117.7983318563
  0
LINE
  5
2EF
100
AcDbEntity
  8
00_COMPONENTS_1
100
AcDbLine
 62
7
  6
CONTINUOUS
 10
133.4464843231
 20
174.9937998424
 11
132.7393804859
 21
174.5855556885
  0
LINE
  5
2F0
100
AcDbEntity
  8
00_COMPONENTS_1
100
AcDbLine
 62
7
  6
CONTINUOUS
 10
24.8351058864
 20
112.1643413552
 11
22.0066905376
 21
110.5313647398
  0
LINE
  5
2F1
100
AcDbEntity
  8
00_COMPONENTS_1
100
AcDbLine
 62
7
  6
CONTINUOUS
 10
103.2885459982
 20
157.1332302852
 11
96.3270086598
 21
153.1140088204
  0
LINE
  5
2F2
100
AcDbEntity
  8
00_COMPONENTS_1
100
AcDbLine
 62
7
  6
CONTINUOUS
 10
32.3658354566
 20
116.1448956252
 11
31.7294257066
 21
115.777466478
  0
LINE
  5
2F3
100
AcDbEntity
  8
00_COMPONENTS_1
100
AcDbLine
 62
7
  6
CONTINUOUS
 10
111.8516435334
 20
161.7505121181
 11
104.626968867
 21
157.579369153
  0
LINE
  5
2F4
100
AcDbEntity
  8
00_COMPONENTS_1
100
AcDbLine
 62
7
  6
CONTINUOUS
 10
33.2143561294
 20
116.2673898818
 11
33.532558255
 21
116.451102868
  0
LINE
  5
2F5
100
AcDbEntity
  8
00_COMPONENTS_1
100
AcDbLine
 62
7
  6
CONTINUOUS
 10
55.0994256744
 20
91.4256974282
 11
22.0066905376
 21
110.5313647398
  0
LINE
  5
2F6
100
AcDbEntity
  8
00_COMPONENTS_1
100
AcDbLine
 62
7
  6
CONTINUOUS
 10
57.9278410233
 20
93.0586740437
 11
24.8351058864
 21
112.1643413552
  0
LINE
  5
2F7
100
AcDbEntity
  8
00_COMPONENTS_1
100
AcDbLine
 62
7
  6
CONTINUOUS
 10
65.7234427072
 20
37.2179649466
 11
65.6439291534
 21
38.1352332796
  0
LINE
  5
2F8
100
AcDbEntity
  8
00_COMPONENTS_1
100
AcDbLine
 62
7
  6
CONTINUOUS
 10
57.927864575
 20
86.5267247416
 11
57.927864575
 21
56.3161353078
  0
LINE
  5
2F9
100
AcDbEntity
  8
00_COMPONENTS_1
100
AcDbLine
 62
7
  6
CONTINUOUS
 10
60.7562799239
 20
97.5903042749
 11
60.7562799239
 21
88.1597013571
  0
LINE
  5
2FA
100
AcDbEntity
  8
00_COMPONENTS_1
100
AcDbLine
 62
7
  6
CONTINUOUS
 10
60.7562799239
 20
57.9491119233
 11
60.7562799239
 21
38.5980046373
  0
LINE
  5
2FB
100
AcDbEntity
  8
00_COMPONENTS_1
100
AcDbLine
 62
7
  6
CONTINUOUS
 10
49.8892844486
 20
107.2675654957
 11
49.7960791841
 21
107.061570276
  0
LINE
  5
2FC
100
AcDbEntity
  8
00_COMPONENTS_1
100
AcDbLine
 62
7
  6
CONTINUOUS
 10
49.8892844486
 20
105.9203365074
 11
49.7960791841
 21
105.7143412877
  0
LINE
  5
2FD
100
AcDbEntity
  8
00_COMPONENTS_1
100
AcDbLine
 62
7
  6
CONTINUOUS
 10
51.8242030951
 20
106.9780817809
 11
51.9174083596
 21
107.1840770007
  0
LINE
  5
2FE
100
AcDbEntity
  8
00_COMPONENTS_1
100
AcDbLine
 62
7
  6
CONTINUOUS
 10
51.8242030951
 20
105.6308527927
 11
51.9174083596
 21
105.8368480124
  0
LINE
  5
2FF
100
AcDbEntity
  8
00_COMPONENTS_1
100
AcDbLine
 62
7
  6
CONTINUOUS
 10
51.8242030951
 20
104.2836238044
 11
51.9174083596
 21
104.4896190241
  0
LINE
  5
300
100
AcDbEntity
  8
00_COMPONENTS_1
100
AcDbLine
 62
7
  6
CONTINUOUS
 10
68.9811907904
 20
136.0372176405
 11
68.2448611728
 21
134.9896644958
  0
LINE
  5
301
100
AcDbEntity
  8
00_COMPONENTS_1
100
AcDbLine
 62
7
  6
CONTINUOUS
 10
97.2023167529
 20
161.8658970755
 11
96.4295816643
 21
161.093165604
  0
LINE
  5
302
100
AcDbEntity
  8
00_COMPONENTS_1
100
AcDbLine
 62
7
  6
CONTINUOUS
 10
96.4295816643
 20
160.2766631869
 11
97.2023167529
 21
161.0493946584
  0
LINE
  5
303
100
AcDbEntity
  8
00_COMPONENTS_1
100
AcDbLine
 62
7
  6
CONTINUOUS
 10
36.0428060273
 20
116.7165016782
 11
35.4063962774
 21
116.349072531
  0
LINE
  5
304
100
AcDbEntity
  8
00_COMPONENTS_1
100
AcDbLine
 62
7
  6
CONTINUOUS
 10
33.2143561294
 20
114.9201608935
 11
33.532558255
 21
115.1038738797
  0
LINE
  5
305
100
AcDbEntity
  8
00_COMPONENTS_1
100
AcDbLine
 62
7
  6
CONTINUOUS
 10
69.446213407
 20
135.6832613914
 11
68.2448611728
 21
134.9896644958
  0
LINE
  5
306
100
AcDbEntity
  8
00_COMPONENTS_1
100
AcDbLine
 62
7
  6
CONTINUOUS
 10
36.0428060273
 20
115.3692726899
 11
35.4063962774
 21
115.0018435427
  0
LINE
  5
307
100
AcDbEntity
  8
00_COMPONENTS_1
100
AcDbLine
 62
7
  6
CONTINUOUS
 10
36.8913267002
 20
115.4917669465
 11
37.2095288258
 21
115.6754799328
  0
LINE
  5
308
100
AcDbEntity
  8
00_COMPONENTS_1
100
AcDbLine
 62
7
  6
CONTINUOUS
 10
136.1242650384
 20
172.6313717086
 11
138.0426975365
 21
173.7389726163
  0
LINE
  5
309
100
AcDbEntity
  8
00_COMPONENTS_1
100
AcDbLine
 62
7
  6
CONTINUOUS
 10
134.345112309
 20
171.0812692734
 11
134.6839498938
 21
171.2768960765
  0
LINE
  5
30A
100
AcDbEntity
  8
00_COMPONENTS_1
100
AcDbLine
 62
7
  6
CONTINUOUS
 10
78.814450226
 20
138.8799228937
 11
121.142947622
 21
163.3181463831
  0
LINE
  5
30B
100
AcDbEntity
  8
00_COMPONENTS_1
100
AcDbLine
 62
7
  6
CONTINUOUS
 10
36.0428060273
 20
114.0220437017
 11
35.4063962774
 21
113.6546145545
  0
LINE
  5
30C
100
AcDbEntity
  8
00_COMPONENTS_1
100
AcDbLine
 62
7
  6
CONTINUOUS
 10
133.0745914973
 20
169.9561020315
 11
121.142947622
 21
163.0674053481
  0
LINE
  5
30D
100
AcDbEntity
  8
00_COMPONENTS_1
100
AcDbLine
 62
7
  6
CONTINUOUS
 10
70.8291207461
 20
133.9058742272
 11
69.0613611531
 21
132.8852638425
  0
LINE
  5
30E
100
AcDbEntity
  8
00_COMPONENTS_1
100
AcDbLine
 62
7
  6
CONTINUOUS
 10
36.8913267002
 20
114.1445379582
 11
37.2095288258
 21
114.3282509445
  0
LINE
  5
30F
100
AcDbEntity
  8
00_COMPONENTS_1
100
AcDbLine
 62
7
  6
CONTINUOUS
 10
140.6813724213
 20
173.7573092375
 11
139.6207166655
 21
173.1449430067
  0
LINE
  5
310
100
AcDbEntity
  8
00_COMPONENTS_1
100
AcDbLine
 62
7
  6
CONTINUOUS
 10
78.814450226
 20
137.655169268
 11
76.3125643426
 21
136.2107134019
  0
LINE
  5
311
100
AcDbEntity
  8
00_COMPONENTS_1
100
AcDbLine
 62
7
  6
CONTINUOUS
 10
39.7197765981
 20
114.5936497547
 11
39.0833668481
 21
114.2262206075
  0
LINE
  5
312
100
AcDbEntity
  8
00_COMPONENTS_1
100
AcDbLine
 62
7
  6
CONTINUOUS
 10
36.8913267002
 20
112.79730897
 11
37.2095288258
 21
112.9810219562
  0
LINE
  5
313
100
AcDbEntity
  8
00_COMPONENTS_1
100
AcDbLine
 62
7
  6
CONTINUOUS
 10
136.0274689699
 20
169.8648252756
 11
137.3002558769
 21
170.5996647525
  0
LINE
  5
314
100
AcDbEntity
  8
00_COMPONENTS_1
100
AcDbLine
 62
7
  6
CONTINUOUS
 10
140.4822260883
 20
171.9735051724
 11
141.7550129953
 21
172.7083446493
  0
LINE
  5
315
100
AcDbEntity
  8
00_COMPONENTS_1
100
AcDbLine
 62
7
  6
CONTINUOUS
 10
39.7197765981
 20
113.2464207664
 11
39.0833668481
 21
112.8789916192
  0
LINE
  5
316
100
AcDbEntity
  8
00_COMPONENTS_1
100
AcDbLine
 62
7
  6
CONTINUOUS
 10
40.5682972709
 20
113.368915023
 11
40.8864993965
 21
113.5526280093
  0
LINE
  5
317
100
AcDbEntity
  8
00_COMPONENTS_1
100
AcDbLine
 62
7
  6
CONTINUOUS
 10
143.1338769593
 20
171.6870767577
 11
121.142947622
 21
158.9906835723
  0
LINE
  5
318
100
AcDbEntity
  8
00_COMPONENTS_1
100
AcDbLine
 62
7
  6
CONTINUOUS
 10
39.7197765981
 20
111.8991917782
 11
39.0833668481
 21
111.531762631
  0
LINE
  5
319
100
AcDbEntity
  8
00_COMPONENTS_1
100
AcDbLine
 62
7
  6
CONTINUOUS
 10
63.5877537487
 20
95.5606714153
 11
66.6009701817
 21
93.8210294526
  0
LINE
  5
31A
100
AcDbEntity
  8
00_COMPONENTS_1
100
AcDbLine
 62
7
  6
CONTINUOUS
 10
54.18015948
 20
101.386943292
 11
60.7562799239
 21
97.5903042749
  0
LINE
  5
31B
100
AcDbEntity
  8
00_COMPONENTS_1
100
AcDbLine
 62
7
  6
CONTINUOUS
 10
51.5992089832
 20
104.305901276
 11
50.1142785604
 21
105.1632068605
  0
LINE
  5
31C
100
AcDbEntity
  8
00_COMPONENTS_1
100
AcDbLine
 62
7
  6
CONTINUOUS
 10
47.9222384125
 20
106.4287531995
 11
46.4373079897
 21
107.286058784
  0
LINE
  5
31D
100
AcDbEntity
  8
00_COMPONENTS_1
100
AcDbLine
 62
7
  6
CONTINUOUS
 10
44.2452678417
 20
108.551605123
 11
42.7603374189
 21
109.4089107075
  0
LINE
  5
31E
100
AcDbEntity
  8
00_COMPONENTS_1
100
AcDbLine
 62
7
  6
CONTINUOUS
 10
40.5682972709
 20
110.6744570465
 11
39.0833668481
 21
111.531762631
  0
LINE
  5
31F
100
AcDbEntity
  8
00_COMPONENTS_1
100
AcDbLine
 62
7
  6
CONTINUOUS
 10
36.8913267002
 20
112.79730897
 11
35.4063962774
 21
113.6546145545
  0
LINE
  5
320
100
AcDbEntity
  8
00_COMPONENTS_1
100
AcDbLine
 62
7
  6
CONTINUOUS
 10
33.2143561294
 20
114.9201608935
 11
31.7294257066
 21
115.777466478
  0
LINE
  5
321
100
AcDbEntity
  8
00_COMPONENTS_1
100
AcDbLine
 62
7
  6
CONTINUOUS
 10
29.5373855587
 20
117.043012817
 11
28.0524551358
 21
117.9003184015
  0
LINE
  5
322
100
AcDbEntity
  8
00_COMPONENTS_1
100
AcDbLine
 62
7
  6
CONTINUOUS
 10
65.7524385115
 20
96.7000621528
 11
63.5877537487
 21
97.9498152101
  0
LINE
  5
323
100
AcDbEntity
  8
00_COMPONENTS_1
100
AcDbLine
 62
7
  6
CONTINUOUS
 10
28.0524551358
 20
118.6351705769
 11
29.5373855587
 21
117.7778649924
  0
LINE
  5
324
100
AcDbEntity
  8
00_COMPONENTS_1
100
AcDbLine
 62
7
  6
CONTINUOUS
 10
31.7294257066
 20
116.5123186534
 11
33.2143561294
 21
115.6550130689
  0
LINE
  5
325
100
AcDbEntity
  8
00_COMPONENTS_1
100
AcDbLine
 62
7
  6
CONTINUOUS
 10
35.4063962774
 20
114.3894667299
 11
36.8913267002
 21
113.5321611454
  0
LINE
  5
326
100
AcDbEntity
  8
00_COMPONENTS_1
100
AcDbLine
 62
7
  6
CONTINUOUS
 10
39.0833668481
 20
112.2666148064
 11
40.5682972709
 21
111.4093092219
  0
LINE
  5
327
100
AcDbEntity
  8
00_COMPONENTS_1
100
AcDbLine
 62
7
  6
CONTINUOUS
 10
42.7603374189
 20
110.1437628829
 11
44.2452678417
 21
109.2864572984
  0
LINE
  5
328
100
AcDbEntity
  8
00_COMPONENTS_1
100
AcDbLine
 62
7
  6
CONTINUOUS
 10
46.4373079897
 20
108.0209109594
 11
47.9222384125
 21
107.1636053749
  0
LINE
  5
329
100
AcDbEntity
  8
00_COMPONENTS_1
100
AcDbLine
 62
7
  6
CONTINUOUS
 10
50.1142785604
 20
105.8980590359
 11
51.5992089832
 21
105.0407534514
  0
LINE
  5
32A
100
AcDbEntity
  8
00_COMPONENTS_1
100
AcDbLine
 62
7
  6
CONTINUOUS
 10
51.5992089832
 20
105.6531302642
 11
50.1142785604
 21
106.5104358487
  0
LINE
  5
32B
100
AcDbEntity
  8
00_COMPONENTS_1
100
AcDbLine
 62
7
  6
CONTINUOUS
 10
47.9222384125
 20
107.7759821877
 11
46.4373079897
 21
108.6332877722
  0
LINE
  5
32C
100
AcDbEntity
  8
00_COMPONENTS_1
100
AcDbLine
 62
7
  6
CONTINUOUS
 10
44.2452678417
 20
109.8988341112
 11
42.7603374189
 21
110.7561396957
  0
LINE
  5
32D
100
AcDbEntity
  8
00_COMPONENTS_1
100
AcDbLine
 62
7
  6
CONTINUOUS
 10
40.5682972709
 20
112.0216860347
 11
39.0833668481
 21
112.8789916192
  0
LINE
  5
32E
100
AcDbEntity
  8
00_COMPONENTS_1
100
AcDbLine
 62
7
  6
CONTINUOUS
 10
36.8913267002
 20
114.1445379582
 11
35.4063962774
 21
115.0018435427
  0
LINE
  5
32F
100
AcDbEntity
  8
00_COMPONENTS_1
100
AcDbLine
 62
7
  6
CONTINUOUS
 10
33.2143561294
 20
116.2673898818
 11
31.7294257066
 21
117.1246954662
  0
LINE
  5
330
100
AcDbEntity
  8
00_COMPONENTS_1
100
AcDbLine
 62
7
  6
CONTINUOUS
 10
29.5373855587
 20
118.3902418053
 11
28.0524551358
 21
119.2475473897
  0
LINE
  5
331
100
AcDbEntity
  8
00_COMPONENTS_1
100
AcDbLine
 62
7
  6
CONTINUOUS
 10
63.5877537487
 20
99.2250466918
 11
57.0823442774
 21
102.9808616334
  0
LINE
  5
332
100
AcDbEntity
  8
00_COMPONENTS_1
100
AcDbLine
 62
7
  6
CONTINUOUS
 10
28.0524551358
 20
119.9823995652
 11
29.5373855587
 21
119.1250939807
  0
LINE
  5
333
100
AcDbEntity
  8
00_COMPONENTS_1
100
AcDbLine
 62
7
  6
CONTINUOUS
 10
31.7294257066
 20
117.8595476417
 11
33.2143561294
 21
117.0022420572
  0
LINE
  5
334
100
AcDbEntity
  8
00_COMPONENTS_1
100
AcDbLine
 62
7
  6
CONTINUOUS
 10
35.4063962774
 20
115.7366957182
 11
36.8913267002
 21
114.8793901337
  0
LINE
  5
335
100
AcDbEntity
  8
00_COMPONENTS_1
100
AcDbLine
 62
7
  6
CONTINUOUS
 10
39.0833668481
 20
113.6138437946
 11
40.5682972709
 21
112.7565382102
  0
LINE
  5
336
100
AcDbEntity
  8
00_COMPONENTS_1
100
AcDbLine
 62
7
  6
CONTINUOUS
 10
42.7603374189
 20
111.4909918711
 11
44.2452678417
 21
110.6336862867
  0
LINE
  5
337
100
AcDbEntity
  8
00_COMPONENTS_1
100
AcDbLine
 62
7
  6
CONTINUOUS
 10
46.4373079897
 20
109.3681399476
 11
47.9222384125
 21
108.5108343631
  0
LINE
  5
338
100
AcDbEntity
  8
00_COMPONENTS_1
100
AcDbLine
 62
7
  6
CONTINUOUS
 10
50.1142785604
 20
107.2452880241
 11
51.5992089832
 21
106.3879824396
  0
LINE
  5
339
100
AcDbEntity
  8
00_COMPONENTS_1
100
AcDbLine
 62
7
  6
CONTINUOUS
 10
51.5992089832
 20
107.0003592525
 11
50.1142785604
 21
107.857664837
  0
LINE
  5
33A
100
AcDbEntity
  8
00_COMPONENTS_1
100
AcDbLine
 62
7
  6
CONTINUOUS
 10
47.9222384125
 20
109.123211176
 11
46.4373079897
 21
109.9805167605
  0
LINE
  5
33B
100
AcDbEntity
  8
00_COMPONENTS_1
100
AcDbLine
 62
7
  6
CONTINUOUS
 10
44.2452678417
 20
111.2460630995
 11
42.7603374189
 21
112.103368684
  0
LINE
  5
33C
100
AcDbEntity
  8
00_COMPONENTS_1
100
AcDbLine
 62
7
  6
CONTINUOUS
 10
40.5682972709
 20
113.368915023
 11
39.0833668481
 21
114.2262206075
  0
LINE
  5
33D
100
AcDbEntity
  8
00_COMPONENTS_1
100
AcDbLine
 62
7
  6
CONTINUOUS
 10
36.8913267002
 20
115.4917669465
 11
35.4063962774
 21
116.349072531
  0
LINE
  5
33E
100
AcDbEntity
  8
00_COMPONENTS_1
100
AcDbLine
 62
7
  6
CONTINUOUS
 10
33.2143561294
 20
117.61461887
 11
31.7294257066
 21
118.4719244545
  0
LINE
  5
33F
100
AcDbEntity
  8
00_COMPONENTS_1
100
AcDbLine
 62
7
  6
CONTINUOUS
 10
29.5373855587
 20
119.7374707935
 11
28.0524551358
 21
120.594776378
  0
LINE
  5
340
100
AcDbEntity
  8
00_COMPONENTS_1
100
AcDbLine
 62
7
  6
CONTINUOUS
 10
43.4960207926
 20
149.278090904
 11
44.3125207729
 21
147.1736902507
  0
LINE
  5
341
100
AcDbEntity
  8
00_COMPONENTS_1
100
AcDbLine
 62
7
  6
CONTINUOUS
 10
59.5769563787
 20
144.3088676386
 11
59.6540431661
 21
143.3901986738
  0
LINE
  5
342
100
AcDbEntity
  8
00_COMPONENTS_1
100
AcDbLine
 62
7
  6
CONTINUOUS
 10
61.9452807587
 20
147.0216557776
 11
62.0529501599
 21
145.7383747817
  0
LINE
  5
343
100
AcDbEntity
  8
00_COMPONENTS_1
100
AcDbLine
 62
7
  6
CONTINUOUS
 10
62.9083176152
 20
145.2690434855
 11
62.728970389
 21
147.4741164958
  0
LINE
  5
344
100
AcDbEntity
  8
00_COMPONENTS_1
100
AcDbLine
 62
7
  6
CONTINUOUS
 10
63.5634273999
 20
113.29553743
 11
63.5634273999
 21
106.8043432139
  0
LINE
  5
345
100
AcDbEntity
  8
00_COMPONENTS_1
100
AcDbLine
 62
7
  6
CONTINUOUS
 10
63.5877537487
 20
40.2327470542
 11
63.5877537487
 21
57.2983108081
  0
LINE
  5
346
100
AcDbEntity
  8
00_COMPONENTS_1
100
AcDbLine
 62
7
  6
CONTINUOUS
 10
63.5877537487
 20
92.079987306
 11
63.5877537487
 21
99.2250466918
  0
LINE
  5
347
100
AcDbEntity
  8
00_COMPONENTS_1
100
AcDbLine
 62
7
  6
CONTINUOUS
 10
65.7524385115
 20
94.310918358
 11
65.7524385115
 21
101.4546065315
  0
LINE
  5
348
100
AcDbEntity
  8
00_COMPONENTS_1
100
AcDbLine
 62
7
  6
CONTINUOUS
 10
66.6009701817
 20
100.9647176261
 11
66.6009701817
 21
93.8210294526
  0
LINE
  5
349
100
AcDbEntity
  8
00_COMPONENTS_1
100
AcDbLine
 62
7
  6
CONTINUOUS
 10
66.6009701817
 20
59.0366105301
 11
66.6009701817
 21
41.9724179885
  0
LINE
  5
34A
100
AcDbEntity
  8
00_COMPONENTS_1
100
AcDbLine
 62
7
  6
CONTINUOUS
 10
64.0883006346
 20
141.0573076243
 11
64.1678141884
 21
141.8935903821
  0
LINE
  5
34B
100
AcDbEntity
  8
00_COMPONENTS_1
100
AcDbLine
 62
7
  6
CONTINUOUS
 10
66.647667194
 20
143.3253256361
 11
66.7589346838
 21
144.4936288664
  0
LINE
  5
34C
100
AcDbEntity
  8
00_COMPONENTS_1
100
AcDbLine
 62
7
  6
CONTINUOUS
 10
62.8855020539
 20
106.3312963384
 11
61.0400437423
 21
100.6959344739
  0
LINE
  5
34D
100
AcDbEntity
  8
00_COMPONENTS_1
100
AcDbLine
 62
7
  6
CONTINUOUS
 10
102.1216605355
 20
176.4388110134
 11
101.9752976419
 21
176.2009700219
  0
LINE
  5
34E
100
AcDbEntity
  8
00_COMPONENTS_1
100
AcDbLine
 62
7
  6
CONTINUOUS
 10
104.2429720472
 20
177.663543475
 11
104.0966091536
 21
177.4257024835
  0
LINE
  5
34F
100
AcDbEntity
  8
00_COMPONENTS_1
100
AcDbLine
 62
7
  6
CONTINUOUS
 10
106.3642835588
 20
178.8882759366
 11
106.2179206652
 21
178.6504349451
  0
LINE
  5
350
100
AcDbEntity
  8
00_COMPONENTS_1
100
AcDbLine
 62
7
  6
CONTINUOUS
 10
70.6943611137
 20
131.9424722044
 11
71.2901696056
 21
132.7901103332
  0
LINE
  5
351
100
AcDbEntity
  8
00_COMPONENTS_1
100
AcDbLine
 62
7
  6
CONTINUOUS
 10
40.5682972709
 20
112.0216860347
 11
40.8864993965
 21
112.205399021
  0
LINE
  5
352
100
AcDbEntity
  8
00_COMPONENTS_1
100
AcDbLine
 62
7
  6
CONTINUOUS
 10
43.3967471688
 20
112.4707978312
 11
42.7603374189
 21
112.103368684
  0
LINE
  5
353
100
AcDbEntity
  8
00_COMPONENTS_1
100
AcDbLine
 62
7
  6
CONTINUOUS
 10
40.5682972709
 20
110.6744570465
 11
40.8864993965
 21
110.8581700327
  0
LINE
  5
354
100
AcDbEntity
  8
00_COMPONENTS_1
100
AcDbLine
 62
7
  6
CONTINUOUS
 10
43.3967471688
 20
111.1235688429
 11
42.7603374189
 21
110.7561396957
  0
LINE
  5
355
100
AcDbEntity
  8
00_COMPONENTS_1
100
AcDbLine
 62
7
  6
CONTINUOUS
 10
44.2452678417
 20
111.2460630995
 11
44.5634699673
 21
111.4297760858
  0
LINE
  5
356
100
AcDbEntity
  8
00_COMPONENTS_1
100
AcDbLine
 62
7
  6
CONTINUOUS
 10
43.3967471688
 20
109.7763398547
 11
42.7603374189
 21
109.4089107075
  0
LINE
  5
357
100
AcDbEntity
  8
00_COMPONENTS_1
100
AcDbLine
 62
7
  6
CONTINUOUS
 10
44.2452678417
 20
109.8988341112
 11
44.5634699673
 21
110.0825470975
  0
LINE
  5
358
100
AcDbEntity
  8
00_COMPONENTS_1
100
AcDbLine
 62
7
  6
CONTINUOUS
 10
47.0737177396
 20
110.3479459077
 11
46.4373079897
 21
109.9805167605
  0
LINE
  5
359
100
AcDbEntity
  8
00_COMPONENTS_1
100
AcDbLine
 62
7
  6
CONTINUOUS
 10
44.2452678417
 20
108.551605123
 11
44.5634699673
 21
108.7353181092
  0
LINE
  5
35A
100
AcDbEntity
  8
00_COMPONENTS_1
100
AcDbLine
 62
7
  6
CONTINUOUS
 10
47.0737177396
 20
109.0007169194
 11
46.4373079897
 21
108.6332877722
  0
LINE
  5
35B
100
AcDbEntity
  8
00_COMPONENTS_1
100
AcDbLine
 62
7
  6
CONTINUOUS
 10
47.9222384125
 20
109.123211176
 11
48.2404405381
 21
109.3069241622
  0
LINE
  5
35C
100
AcDbEntity
  8
00_COMPONENTS_1
100
AcDbLine
 62
7
  6
CONTINUOUS
 10
20.4553848945
 20
92.8057295877
 11
21.1483466549
 21
93.2058088585
  0
LINE
  5
35D
100
AcDbEntity
  8
00_COMPONENTS_1
100
AcDbLine
 62
7
  6
CONTINUOUS
 10
28.0524551358
 20
121.3296285534
 11
29.5373855587
 21
120.4723229689
  0
LINE
  5
35E
100
AcDbEntity
  8
00_COMPONENTS_1
100
AcDbLine
 62
7
  6
CONTINUOUS
 10
31.7294257066
 20
119.2067766299
 11
33.2143561294
 21
118.3494710454
  0
LINE
  5
35F
100
AcDbEntity
  8
00_COMPONENTS_1
100
AcDbLine
 62
7
  6
CONTINUOUS
 10
35.4063962774
 20
117.0839247064
 11
36.8913267002
 21
116.2266191219
  0
LINE
  5
360
100
AcDbEntity
  8
00_COMPONENTS_1
100
AcDbLine
 62
7
  6
CONTINUOUS
 10
39.0833668481
 20
114.9610727829
 11
40.5682972709
 21
114.1037671984
  0
LINE
  5
361
100
AcDbEntity
  8
00_COMPONENTS_1
100
AcDbLine
 62
7
  6
CONTINUOUS
 10
42.7603374189
 20
112.8382208594
 11
44.2452678417
 21
111.9809152749
  0
LINE
  5
362
100
AcDbEntity
  8
00_COMPONENTS_1
100
AcDbLine
 62
7
  6
CONTINUOUS
 10
46.4373079897
 20
110.7153689359
 11
47.9222384125
 21
109.8580633514
  0
LINE
  5
363
100
AcDbEntity
  8
00_COMPONENTS_1
100
AcDbLine
 62
7
  6
CONTINUOUS
 10
50.1142785604
 20
108.5925170124
 11
51.5992089832
 21
107.7352114279
  0
LINE
  5
364
100
AcDbEntity
  8
00_COMPONENTS_1
100
AcDbLine
 62
7
  6
CONTINUOUS
 10
54.18015948
 20
107.8781375082
 11
22.0066669858
 21
126.4530918388
  0
LINE
  5
365
100
AcDbEntity
  8
00_COMPONENTS_1
100
AcDbLine
 62
7
  6
CONTINUOUS
 10
66.6009701817
 20
100.9647176261
 11
65.7524385115
 21
101.4546065315
  0
LINE
  5
366
100
AcDbEntity
  8
00_COMPONENTS_1
100
AcDbLine
 62
7
  6
CONTINUOUS
 10
68.5423798551
 20
103.0653703023
 11
62.8855020539
 21
106.3312963384
  0
LINE
  5
367
100
AcDbEntity
  8
00_COMPONENTS_1
100
AcDbLine
 62
7
  6
CONTINUOUS
 10
63.5634273999
 20
106.8043432139
 11
70.1395478437
 21
103.0077041968
  0
LINE
  5
368
100
AcDbEntity
  8
00_COMPONENTS_1
100
AcDbLine
 62
7
  6
CONTINUOUS
 10
70.1395478437
 20
109.498898413
 11
70.1395478437
 21
103.0077041968
  0
LINE
  5
369
100
AcDbEntity
  8
00_COMPONENTS_1
100
AcDbLine
 62
7
  6
CONTINUOUS
 10
71.6807412842
 20
174.5650895951
 11
71.6807412842
 21
175.3815920122
  0
LINE
  5
36A
100
AcDbEntity
  8
00_COMPONENTS_1
100
AcDbLine
 62
7
  6
CONTINUOUS
 10
72.069651633
 20
174.3405571801
 11
72.069651633
 21
168.2960918731
  0
LINE
  5
36B
100
AcDbEntity
  8
00_COMPONENTS_1
100
AcDbLine
 62
7
  6
CONTINUOUS
 10
72.4534763728
 20
175.3378210666
 11
72.4534763728
 21
176.1543234837
  0
LINE
  5
36C
100
AcDbEntity
  8
00_COMPONENTS_1
100
AcDbLine
 62
7
  6
CONTINUOUS
 10
105.4260249373
 20
188.3406150879
 11
105.3513114755
 21
188.1912431715
  0
LINE
  5
36D
100
AcDbEntity
  8
00_COMPONENTS_1
100
AcDbLine
 62
7
  6
CONTINUOUS
 10
108.4855950705
 20
180.1130083982
 11
108.3392321768
 21
179.8751674067
  0
LINE
  5
36E
100
AcDbEntity
  8
00_COMPONENTS_1
100
AcDbLine
 62
7
  6
CONTINUOUS
 10
47.0737177396
 20
107.6534879311
 11
46.4373079897
 21
107.286058784
  0
LINE
  5
36F
100
AcDbEntity
  8
00_COMPONENTS_1
100
AcDbLine
 62
7
  6
CONTINUOUS
 10
47.9222384125
 20
107.7759821877
 11
48.2404405381
 21
107.959695174
  0
LINE
  5
370
100
AcDbEntity
  8
00_COMPONENTS_1
100
AcDbLine
 62
7
  6
CONTINUOUS
 10
50.7506883104
 20
108.2250939842
 11
50.1142785604
 21
107.857664837
  0
LINE
  5
371
100
AcDbEntity
  8
00_COMPONENTS_1
100
AcDbLine
 62
7
  6
CONTINUOUS
 10
47.9222384125
 20
106.4287531995
 11
48.2404405381
 21
106.6124661857
  0
LINE
  5
372
100
AcDbEntity
  8
00_COMPONENTS_1
100
AcDbLine
 62
7
  6
CONTINUOUS
 10
50.7506883104
 20
106.8778649959
 11
50.1142785604
 21
106.5104358487
  0
LINE
  5
373
100
AcDbEntity
  8
00_COMPONENTS_1
100
AcDbLine
 62
7
  6
CONTINUOUS
 10
51.5992089832
 20
107.0003592525
 11
51.9174111088
 21
107.1840722387
  0
LINE
  5
374
100
AcDbEntity
  8
00_COMPONENTS_1
100
AcDbLine
 62
7
  6
CONTINUOUS
 10
31.5117674155
 20
94.8521637165
 11
27.8843247306
 21
92.7578712071
  0
LINE
  5
375
100
AcDbEntity
  8
00_COMPONENTS_1
100
AcDbLine
 62
7
  6
CONTINUOUS
 10
63.5634273999
 20
113.29553743
 11
54.18015948
 21
107.8781375082
  0
LINE
  5
376
100
AcDbEntity
  8
00_COMPONENTS_1
100
AcDbLine
 62
7
  6
CONTINUOUS
 10
50.7506883104
 20
105.5306360076
 11
50.1142785604
 21
105.1632068605
  0
LINE
  5
377
100
AcDbEntity
  8
00_COMPONENTS_1
100
AcDbLine
 62
7
  6
CONTINUOUS
 10
22.0774029821
 20
88.9348812293
 11
22.4663155247
 21
89.1594186501
  0
LINE
  5
378
100
AcDbEntity
  8
00_COMPONENTS_1
100
AcDbLine
 62
7
  6
CONTINUOUS
 10
51.5992089832
 20
105.6531302642
 11
51.9174111088
 21
105.8368432505
  0
LINE
  5
379
100
AcDbEntity
  8
00_COMPONENTS_1
100
AcDbLine
 62
7
  6
CONTINUOUS
 10
23.4916224324
 20
88.1183997202
 11
23.845175823
 21
88.322522647
  0
LINE
  5
37A
100
AcDbEntity
  8
00_COMPONENTS_1
100
AcDbLine
 62
7
  6
CONTINUOUS
 10
51.5992089832
 20
104.305901276
 11
51.9174111088
 21
104.4896142622
  0
LINE
  5
37B
100
AcDbEntity
  8
00_COMPONENTS_1
100
AcDbLine
 62
7
  6
CONTINUOUS
 10
23.4916224324
 20
87.3018973031
 11
23.845175823
 21
87.5060202299
  0
LINE
  5
37C
100
AcDbEntity
  8
00_COMPONENTS_1
100
AcDbLine
 62
7
  6
CONTINUOUS
 10
26.1049791305
 20
88.2794674072
 11
18.8218096072
 21
84.0745526223
  0
LINE
  5
37D
100
AcDbEntity
  8
00_COMPONENTS_1
100
AcDbLine
 62
7
  6
CONTINUOUS
 10
51.5992089832
 20
104.305901276
 11
51.8242030951
 21
104.2836238044
  0
LINE
  5
37E
100
AcDbEntity
  8
00_COMPONENTS_1
100
AcDbLine
 62
7
  6
CONTINUOUS
 10
51.5992089832
 20
105.6531302642
 11
51.8242030951
 21
105.6308527927
  0
LINE
  5
37F
100
AcDbEntity
  8
00_COMPONENTS_1
100
AcDbLine
 62
7
  6
CONTINUOUS
 10
50.1142785604
 20
105.8980590359
 11
49.8892844486
 21
105.9203365074
  0
LINE
  5
380
100
AcDbEntity
  8
00_COMPONENTS_1
100
AcDbLine
 62
7
  6
CONTINUOUS
 10
47.9222384125
 20
106.4287531995
 11
48.1472325243
 21
106.4064757279
  0
LINE
  5
381
100
AcDbEntity
  8
00_COMPONENTS_1
100
AcDbLine
 62
7
  6
CONTINUOUS
 10
51.5992089832
 20
107.0003592525
 11
51.8242030951
 21
106.9780817809
  0
LINE
  5
382
100
AcDbEntity
  8
00_COMPONENTS_1
100
AcDbLine
 62
7
  6
CONTINUOUS
 10
50.1142785604
 20
107.2452880241
 11
49.8892844486
 21
107.2675654957
  0
LINE
  5
383
100
AcDbEntity
  8
00_COMPONENTS_1
100
AcDbLine
 62
7
  6
CONTINUOUS
 10
47.9222384125
 20
107.7759821877
 11
48.1472325243
 21
107.7537047162
  0
LINE
  5
384
100
AcDbEntity
  8
00_COMPONENTS_1
100
AcDbLine
 62
7
  6
CONTINUOUS
 10
46.4373079897
 20
108.0209109594
 11
46.2123138778
 21
108.0431884309
  0
LINE
  5
385
100
AcDbEntity
  8
00_COMPONENTS_1
100
AcDbLine
 62
7
  6
CONTINUOUS
 10
44.2452678417
 20
108.551605123
 11
44.4702619535
 21
108.5293276514
  0
LINE
  5
386
100
AcDbEntity
  8
00_COMPONENTS_1
100
AcDbLine
 62
7
  6
CONTINUOUS
 10
50.1142785604
 20
108.5925170124
 11
49.8892844486
 21
108.614794484
  0
LINE
  5
387
100
AcDbEntity
  8
00_COMPONENTS_1
100
AcDbLine
 62
7
  6
CONTINUOUS
 10
47.9222384125
 20
109.123211176
 11
48.1472325243
 21
109.1009337044
  0
LINE
  5
388
100
AcDbEntity
  8
00_COMPONENTS_1
100
AcDbLine
 62
7
  6
CONTINUOUS
 10
46.4373079897
 20
109.3681399476
 11
46.2123138778
 21
109.3904174192
  0
LINE
  5
389
100
AcDbEntity
  8
00_COMPONENTS_1
100
AcDbLine
 62
7
  6
CONTINUOUS
 10
44.2452678417
 20
109.8988341112
 11
44.4702619535
 21
109.8765566397
  0
LINE
  5
38A
100
AcDbEntity
  8
00_COMPONENTS_1
100
AcDbLine
 62
7
  6
CONTINUOUS
 10
42.7603374189
 20
110.1437628829
 11
42.5353433071
 21
110.1660403544
  0
LINE
  5
38B
100
AcDbEntity
  8
00_COMPONENTS_1
100
AcDbLine
 62
7
  6
CONTINUOUS
 10
40.5682972709
 20
110.6744570465
 11
40.7932913828
 21
110.6521795749
  0
LINE
  5
38C
100
AcDbEntity
  8
00_COMPONENTS_1
100
AcDbLine
 62
7
  6
CONTINUOUS
 10
63.5634273999
 20
113.29553743
 11
70.1395478437
 21
109.498898413
  0
LINE
  5
38D
100
AcDbEntity
  8
00_COMPONENTS_1
100
AcDbLine
 62
7
  6
CONTINUOUS
 10
55.8704409827
 20
142.1338776999
 11
56.686940963
 21
140.0294770466
  0
LINE
  5
38E
100
AcDbEntity
  8
00_COMPONENTS_1
100
AcDbLine
 62
7
  6
CONTINUOUS
 10
76.3125643426
 20
136.2107134019
 11
76.3125643426
 21
113.0628698763
  0
LINE
  5
38F
100
AcDbEntity
  8
00_COMPONENTS_1
100
AcDbLine
 62
7
  6
CONTINUOUS
 10
77.8681927845
 20
48.477513161
 11
77.8681927845
 21
31.5350880056
  0
LINE
  5
390
100
AcDbEntity
  8
00_COMPONENTS_1
100
AcDbLine
 62
7
  6
CONTINUOUS
 10
78.814450226
 20
138.8799228937
 11
78.814450226
 21
137.655169268
  0
LINE
  5
391
100
AcDbEntity
  8
00_COMPONENTS_1
100
AcDbLine
 62
7
  6
CONTINUOUS
 10
79.5467059631
 20
171.7573219038
 11
79.5467059631
 21
178.9840060653
  0
LINE
  5
392
100
AcDbEntity
  8
00_COMPONENTS_1
100
AcDbLine
 62
7
  6
CONTINUOUS
 10
79.6781510392
 20
179.5089640317
 11
79.6781510392
 21
180.3254664488
  0
LINE
  5
393
100
AcDbEntity
  8
00_COMPONENTS_1
100
AcDbLine
 62
7
  6
CONTINUOUS
 10
80.3700786679
 20
32.9795438716
 11
80.3700786679
 21
31.7547902459
  0
LINE
  5
394
100
AcDbEntity
  8
00_COMPONENTS_1
100
AcDbLine
 62
7
  6
CONTINUOUS
 10
80.7538120826
 20
179.0757593647
 11
80.7538120826
 21
172.3733687031
  0
LINE
  5
395
100
AcDbEntity
  8
00_COMPONENTS_1
100
AcDbLine
 62
7
  6
CONTINUOUS
 10
26.8573940517
 20
87.8450702773
 11
20.4934595168
 21
84.1708728924
  0
LINE
  5
396
100
AcDbEntity
  8
00_COMPONENTS_1
100
AcDbLine
 62
7
  6
CONTINUOUS
 10
27.0130575967
 20
87.5891923322
 11
26.8520746819
 21
87.4962493579
  0
LINE
  5
397
100
AcDbEntity
  8
00_COMPONENTS_1
100
AcDbLine
 62
7
  6
CONTINUOUS
 10
26.8511819016
 20
87.4377047414
 11
20.843147362
 21
83.9689850882
  0
LINE
  5
398
100
AcDbEntity
  8
00_COMPONENTS_1
100
AcDbLine
 62
7
  6
CONTINUOUS
 10
21.6037229571
 20
83.5298764976
 11
20.6844879687
 21
82.9991590975
  0
LINE
  5
399
100
AcDbEntity
  8
00_COMPONENTS_1
100
AcDbLine
 62
7
  6
CONTINUOUS
 10
63.5634273999
 20
106.8043432139
 11
54.18015948
 21
101.386943292
  0
LINE
  5
39A
100
AcDbEntity
  8
00_COMPONENTS_1
100
AcDbLine
 62
7
  6
CONTINUOUS
 10
62.8855020539
 20
106.3312963384
 11
57.0823442774
 21
102.9808616334
  0
LINE
  5
39B
100
AcDbEntity
  8
00_COMPONENTS_1
100
AcDbLine
 62
7
  6
CONTINUOUS
 10
22.2954927443
 20
82.8828363205
 11
21.2348369885
 21
82.2704700897
  0
LINE
  5
39C
100
AcDbEntity
  8
00_COMPONENTS_1
100
AcDbLine
 62
7
  6
CONTINUOUS
 10
76.3125643426
 20
113.0628698763
 11
70.1395478437
 21
109.498898413
  0
LINE
  5
39D
100
AcDbEntity
  8
00_COMPONENTS_1
100
AcDbLine
 62
7
  6
CONTINUOUS
 10
22.0910802241
 20
80.5628833701
 11
22.1883086514
 21
80.6190178937
  0
LINE
  5
39E
100
AcDbEntity
  8
00_COMPONENTS_1
100
AcDbLine
 62
7
  6
CONTINUOUS
 10
23.2780290219
 20
79.6151796068
 11
23.0910843875
 21
79.5072477161
  0
LINE
  5
39F
100
AcDbEntity
  8
00_COMPONENTS_1
100
AcDbLine
 62
7
  6
CONTINUOUS
 10
22.0910802241
 20
77.9732864513
 11
20.6844879687
 21
77.1611668151
  0
LINE
  5
3A0
100
AcDbEntity
  8
00_COMPONENTS_1
100
AcDbLine
 62
7
  6
CONTINUOUS
 10
139.0326747035
 20
145.3957398433
 11
139.8104889244
 21
145.8448084126
  0
LINE
  5
3A1
100
AcDbEntity
  8
00_COMPONENTS_1
100
AcDbLine
 62
7
  6
CONTINUOUS
 10
46.4373079897
 20
110.7153689359
 11
46.2123138778
 21
110.7376464075
  0
LINE
  5
3A2
100
AcDbEntity
  8
00_COMPONENTS_1
100
AcDbLine
 62
7
  6
CONTINUOUS
 10
44.2452678417
 20
111.2460630995
 11
44.4702619535
 21
111.2237856279
  0
LINE
  5
3A3
100
AcDbEntity
  8
00_COMPONENTS_1
100
AcDbLine
 62
7
  6
CONTINUOUS
 10
42.7603374189
 20
111.4909918711
 11
42.5353433071
 21
111.5132693427
  0
LINE
  5
3A4
100
AcDbEntity
  8
00_COMPONENTS_1
100
AcDbLine
 62
7
  6
CONTINUOUS
 10
40.5682972709
 20
112.0216860347
 11
40.7932913828
 21
111.9994085632
  0
LINE
  5
3A5
100
AcDbEntity
  8
00_COMPONENTS_1
100
AcDbLine
 62
7
  6
CONTINUOUS
 10
39.0833668481
 20
112.2666148064
 11
38.8583727363
 21
112.2888922779
  0
LINE
  5
3A6
100
AcDbEntity
  8
00_COMPONENTS_1
100
AcDbLine
 62
7
  6
CONTINUOUS
 10
36.8913267002
 20
112.79730897
 11
37.116320812
 21
112.7750314984
  0
LINE
  5
3A7
100
AcDbEntity
  8
00_COMPONENTS_1
100
AcDbLine
 62
7
  6
CONTINUOUS
 10
42.7603374189
 20
112.8382208594
 11
42.5353433071
 21
112.860498331
  0
LINE
  5
3A8
100
AcDbEntity
  8
00_COMPONENTS_1
100
AcDbLine
 62
7
  6
CONTINUOUS
 10
40.5682972709
 20
113.368915023
 11
40.7932913828
 21
113.3466375514
  0
LINE
  5
3A9
100
AcDbEntity
  8
00_COMPONENTS_1
100
AcDbLine
 62
7
  6
CONTINUOUS
 10
39.0833668481
 20
113.6138437946
 11
38.8583727363
 21
113.6361212662
  0
LINE
  5
3AA
100
AcDbEntity
  8
00_COMPONENTS_1
100
AcDbLine
 62
7
  6
CONTINUOUS
 10
36.8913267002
 20
114.1445379582
 11
37.116320812
 21
114.1222604867
  0
LINE
  5
3AB
100
AcDbEntity
  8
00_COMPONENTS_1
100
AcDbLine
 62
7
  6
CONTINUOUS
 10
35.4063962774
 20
114.3894667299
 11
35.1814021656
 21
114.4117442014
  0
LINE
  5
3AC
100
AcDbEntity
  8
00_COMPONENTS_1
100
AcDbLine
 62
7
  6
CONTINUOUS
 10
33.2143561294
 20
114.9201608935
 11
33.4393502412
 21
114.8978834219
  0
LINE
  5
3AD
100
AcDbEntity
  8
00_COMPONENTS_1
100
AcDbLine
 62
7
  6
CONTINUOUS
 10
39.0833668481
 20
114.9610727829
 11
38.8583727363
 21
114.9833502545
  0
LINE
  5
3AE
100
AcDbEntity
  8
00_COMPONENTS_1
100
AcDbLine
 62
7
  6
CONTINUOUS
 10
36.8913267002
 20
115.4917669465
 11
37.116320812
 21
115.469489475
  0
LINE
  5
3AF
100
AcDbEntity
  8
00_COMPONENTS_1
100
AcDbLine
 62
7
  6
CONTINUOUS
 10
35.4063962774
 20
115.7366957182
 11
35.1814021656
 21
115.7589731897
  0
LINE
  5
3B0
100
AcDbEntity
  8
00_COMPONENTS_1
100
AcDbLine
 62
7
  6
CONTINUOUS
 10
33.2143561294
 20
116.2673898818
 11
33.4393502412
 21
116.2451124102
  0
LINE
  5
3B1
100
AcDbEntity
  8
00_COMPONENTS_1
100
AcDbLine
 62
7
  6
CONTINUOUS
 10
31.7294257066
 20
116.5123186534
 11
31.5044315948
 21
116.534596125
  0
LINE
  5
3B2
100
AcDbEntity
  8
00_COMPONENTS_1
100
AcDbLine
 62
7
  6
CONTINUOUS
 10
29.5373855587
 20
117.043012817
 11
29.7623796705
 21
117.0207353454
  0
LINE
  5
3B3
100
AcDbEntity
  8
00_COMPONENTS_1
100
AcDbLine
 62
7
  6
CONTINUOUS
 10
35.4063962774
 20
117.0839247064
 11
35.1814021656
 21
117.106202178
  0
LINE
  5
3B4
100
AcDbEntity
  8
00_COMPONENTS_1
100
AcDbLine
 62
7
  6
CONTINUOUS
 10
33.2143561294
 20
117.61461887
 11
33.4393502412
 21
117.5923413985
  0
LINE
  5
3B5
100
AcDbEntity
  8
00_COMPONENTS_1
100
AcDbLine
 62
7
  6
CONTINUOUS
 10
31.7294257066
 20
117.8595476417
 11
31.5044315948
 21
117.8818251132
  0
LINE
  5
3B6
100
AcDbEntity
  8
00_COMPONENTS_1
100
AcDbLine
 62
7
  6
CONTINUOUS
 10
29.5373855587
 20
118.3902418053
 11
29.7623796705
 21
118.3679643337
  0
LINE
  5
3B7
100
AcDbEntity
  8
00_COMPONENTS_1
100
AcDbLine
 62
7
  6
CONTINUOUS
 10
28.0524551358
 20
118.6351705769
 11
27.827461024
 21
118.6574480485
  0
LINE
  5
3B8
100
AcDbEntity
  8
00_COMPONENTS_1
100
AcDbLine
 62
7
  6
CONTINUOUS
 10
68.2448611728
 20
134.9896644958
 11
69.0613611531
 21
132.8852638425
  0
LINE
  5
3B9
100
AcDbEntity
  8
00_COMPONENTS_1
100
AcDbLine
 62
7
  6
CONTINUOUS
 10
70.8291207461
 20
133.9058742272
 11
70.7323116128
 21
134.1553845865
  0
LINE
  5
3BA
100
AcDbEntity
  8
00_COMPONENTS_1
100
AcDbLine
 62
7
  6
CONTINUOUS
 10
81.8100930281
 20
179.7702541001
 11
81.8100930281
 21
180.5867565172
  0
LINE
  5
3BB
100
AcDbEntity
  8
00_COMPONENTS_1
100
AcDbLine
 62
7
  6
CONTINUOUS
 10
82.9108924768
 20
173.6187522154
 11
82.9108924768
 21
178.356749759
  0
LINE
  5
3BC
100
AcDbEntity
  8
00_COMPONENTS_1
100
AcDbLine
 62
7
  6
CONTINUOUS
 10
84.0551614742
 20
167.420876391
 11
84.0551614742
 21
168.2373788081
  0
LINE
  5
3BD
100
AcDbEntity
  8
00_COMPONENTS_1
100
AcDbLine
 62
7
  6
CONTINUOUS
 10
84.4440718231
 20
167.196343976
 11
84.4440718231
 21
161.151878669
  0
LINE
  5
3BE
100
AcDbEntity
  8
00_COMPONENTS_1
100
AcDbLine
 62
7
  6
CONTINUOUS
 10
84.8278965629
 20
168.1936078625
 11
84.8278965629
 21
169.0101102796
  0
LINE
  5
3BF
100
AcDbEntity
  8
00_COMPONENTS_1
100
AcDbLine
 62
7
  6
CONTINUOUS
 10
85.107054043
 20
177.088823972
 11
85.107054043
 21
174.8866991182
  0
LINE
  5
3C0
100
AcDbEntity
  8
00_COMPONENTS_1
100
AcDbLine
 62
7
  6
CONTINUOUS
 10
86.3524509764
 20
175.605725081
 11
86.3524509764
 21
175.8434568167
  0
LINE
  5
3C1
100
AcDbEntity
  8
00_COMPONENTS_1
100
AcDbLine
 62
7
  6
CONTINUOUS
 10
87.5553595449
 20
176.4532979696
 11
87.5553595449
 21
177.2698003867
  0
LINE
  5
3C2
100
AcDbEntity
  8
00_COMPONENTS_1
100
AcDbLine
 62
7
  6
CONTINUOUS
 10
105.4325475415
 20
188.3679142777
 11
105.4260249373
 21
188.3406150879
  0
LINE
  5
3C3
100
AcDbEntity
  8
00_COMPONENTS_1
100
AcDbLine
 62
7
  6
CONTINUOUS
 10
22.5995826285
 20
78.0423388148
 11
21.2348369855
 21
77.2543818881
  0
LINE
  5
3C4
100
AcDbEntity
  8
00_COMPONENTS_1
100
AcDbLine
 62
7
  6
CONTINUOUS
 10
140.325218423
 20
144.508981019
 11
140.6787703416
 21
144.7131030959
  0
LINE
  5
3C5
100
AcDbEntity
  8
00_COMPONENTS_1
100
AcDbLine
 62
7
  6
CONTINUOUS
 10
68.5423798551
 20
103.0653703023
 11
65.7524385115
 21
101.4546065315
  0
LINE
  5
3C6
100
AcDbEntity
  8
00_COMPONENTS_1
100
AcDbLine
 62
7
  6
CONTINUOUS
 10
27.4727413301
 20
78.6690958129
 11
29.5943470603
 21
79.8939981406
  0
LINE
  5
3C7
100
AcDbEntity
  8
00_COMPONENTS_1
100
AcDbLine
 62
7
  6
CONTINUOUS
 10
34.5434845712
 20
82.7513669586
 11
34.9680420046
 21
82.9964838439
  0
LINE
  5
3C8
100
AcDbEntity
  8
00_COMPONENTS_1
100
AcDbLine
 62
7
  6
CONTINUOUS
 10
70.1395478437
 20
103.0077041968
 11
66.6009701817
 21
100.9647176261
  0
LINE
  5
3C9
100
AcDbEntity
  8
00_COMPONENTS_1
100
AcDbLine
 62
7
  6
CONTINUOUS
 10
63.5877537487
 20
99.2250466918
 11
60.7562799239
 21
97.5903042749
  0
LINE
  5
3CA
100
AcDbEntity
  8
00_COMPONENTS_1
100
AcDbLine
 62
7
  6
CONTINUOUS
 10
23.3148376412
 20
73.8499954815
 11
22.6077338039
 21
73.4417513276
  0
LINE
  5
3CB
100
AcDbEntity
  8
00_COMPONENTS_1
100
AcDbLine
 62
7
  6
CONTINUOUS
 10
55.0994256744
 20
91.4256974282
 11
57.9278410233
 21
93.0586740437
  0
LINE
  5
3CC
100
AcDbEntity
  8
00_COMPONENTS_1
100
AcDbLine
 62
7
  6
CONTINUOUS
 10
139.6781503805
 20
135.2947872732
 11
140.9944010005
 21
135.9217470239
  0
LINE
  5
3CD
100
AcDbEntity
  8
00_COMPONENTS_1
100
AcDbLine
 62
7
  6
CONTINUOUS
 10
31.7294257066
 20
119.2067766299
 11
31.5044315948
 21
119.2290541015
  0
LINE
  5
3CE
100
AcDbEntity
  8
00_COMPONENTS_1
100
AcDbLine
 62
7
  6
CONTINUOUS
 10
29.5373855587
 20
119.7374707935
 11
29.7623796705
 21
119.715193322
  0
LINE
  5
3CF
100
AcDbEntity
  8
00_COMPONENTS_1
100
AcDbLine
 62
7
  6
CONTINUOUS
 10
28.0524551358
 20
119.9823995652
 11
27.827461024
 21
120.0046770367
  0
LINE
  5
3D0
100
AcDbEntity
  8
00_COMPONENTS_1
100
AcDbLine
 62
7
  6
CONTINUOUS
 10
28.0524551358
 20
121.3296285534
 11
27.827461024
 21
121.351906025
  0
LINE
  5
3D1
100
AcDbEntity
  8
00_COMPONENTS_1
100
AcDbLine
 62
7
  6
CONTINUOUS
 10
89.5705419648
 20
175.5041077503
 11
89.5705419648
 21
173.7078334732
  0
LINE
  5
3D2
100
AcDbEntity
  8
00_COMPONENTS_1
100
AcDbLine
 62
7
  6
CONTINUOUS
 10
90.8079021416
 20
182.1624473678
 11
90.8079021416
 21
181.2966935725
  0
LINE
  5
3D3
100
AcDbEntity
  8
00_COMPONENTS_1
100
AcDbLine
 62
7
  6
CONTINUOUS
 10
91.9211261531
 20
164.6131086997
 11
91.9211261531
 21
171.8397928612
  0
LINE
  5
3D4
100
AcDbEntity
  8
00_COMPONENTS_1
100
AcDbLine
 62
7
  6
CONTINUOUS
 10
92.0525712292
 20
172.3647508276
 11
92.0525712292
 21
173.1812532447
  0
LINE
  5
3D5
100
AcDbEntity
  8
00_COMPONENTS_1
100
AcDbLine
 62
7
  6
CONTINUOUS
 10
92.9292136532
 20
183.3871798295
 11
92.9292136532
 21
182.5214260341
  0
LINE
  5
3D6
100
AcDbEntity
  8
00_COMPONENTS_1
100
AcDbLine
 62
7
  6
CONTINUOUS
 10
93.0508503667
 20
171.9548026869
 11
93.0508503667
 21
165.1844793015
  0
LINE
  5
3D7
100
AcDbEntity
  8
00_COMPONENTS_1
100
AcDbLine
 62
7
  6
CONTINUOUS
 10
94.1845132182
 20
172.626040896
 11
94.1845132182
 21
173.4425433131
  0
LINE
  5
3D8
100
AcDbEntity
  8
00_COMPONENTS_1
100
AcDbLine
 62
7
  6
CONTINUOUS
 10
94.9700574322
 20
166.2925274032
 11
94.9700574322
 21
171.4381212902
  0
LINE
  5
3D9
100
AcDbEntity
  8
00_COMPONENTS_1
100
AcDbLine
 62
7
  6
CONTINUOUS
 10
95.0505251649
 20
184.6119122911
 11
95.0505251649
 21
183.7461584957
  0
LINE
  5
3DA
100
AcDbEntity
  8
00_COMPONENTS_1
100
AcDbLine
 62
7
  6
CONTINUOUS
 10
42.7823938723
 20
78.7911561601
 11
35.2870931978
 21
74.463768129
  0
LINE
  5
3DB
100
AcDbEntity
  8
00_COMPONENTS_1
100
AcDbLine
 62
7
  6
CONTINUOUS
 10
60.7562799239
 20
88.1597013571
 11
57.927864575
 21
86.5267247416
  0
LINE
  5
3DC
100
AcDbEntity
  8
00_COMPONENTS_1
100
AcDbLine
 62
7
  6
CONTINUOUS
 10
36.2995218988
 20
73.8792553695
 11
43.7948225732
 21
78.2066434005
  0
LINE
  5
3DD
100
AcDbEntity
  8
00_COMPONENTS_1
100
AcDbLine
 62
7
  6
CONTINUOUS
 10
138.3255708662
 20
132.1237515273
 11
139.1033850872
 21
132.5728200966
  0
LINE
  5
3DE
100
AcDbEntity
  8
00_COMPONENTS_1
100
AcDbLine
 62
7
  6
CONTINUOUS
 10
37.6573733668
 20
72.4039596065
 11
36.596717611
 21
71.7915933757
  0
LINE
  5
3DF
100
AcDbEntity
  8
00_COMPONENTS_1
100
AcDbLine
 62
7
  6
CONTINUOUS
 10
139.7643880649
 20
131.3214432314
 11
140.1137211125
 21
131.5231295566
  0
LINE
  5
3E0
100
AcDbEntity
  8
00_COMPONENTS_1
100
AcDbLine
 62
7
  6
CONTINUOUS
 10
36.6024699159
 20
71.7066221179
 11
37.5217049042
 21
72.2373395179
  0
LINE
  5
3E1
100
AcDbEntity
  8
00_COMPONENTS_1
100
AcDbLine
 62
7
  6
CONTINUOUS
 10
70.6943611137
 20
131.9424722044
 11
69.0613611531
 21
132.8852638425
  0
LINE
  5
3E2
100
AcDbEntity
  8
00_COMPONENTS_1
100
AcDbLine
 62
7
  6
CONTINUOUS
 10
58.1618461517
 20
139.1779594028
 11
56.686940963
 21
140.0294770466
  0
LINE
  5
3E3
100
AcDbEntity
  8
00_COMPONENTS_1
100
AcDbLine
 62
7
  6
CONTINUOUS
 10
45.9455207336
 20
146.2308986127
 11
44.3125207729
 21
147.1736902507
  0
LINE
  5
3E4
100
AcDbEntity
  8
00_COMPONENTS_1
100
AcDbLine
 62
7
  6
CONTINUOUS
 10
70.9390070836
 20
133.8424327559
 11
70.8291207461
 21
133.9058742272
  0
LINE
  5
3E5
100
AcDbEntity
  8
00_COMPONENTS_1
100
AcDbLine
 62
7
  6
CONTINUOUS
 10
96.4295816643
 20
160.2766631869
 11
96.4295816643
 21
161.093165604
  0
LINE
  5
3E6
100
AcDbEntity
  8
00_COMPONENTS_1
100
AcDbLine
 62
7
  6
CONTINUOUS
 10
96.8184920131
 20
160.0521307719
 11
96.8184920131
 21
154.0076654649
  0
LINE
  5
3E7
100
AcDbEntity
  8
00_COMPONENTS_1
100
AcDbLine
 62
7
  6
CONTINUOUS
 10
97.1718366765
 20
185.8366447527
 11
97.1718366765
 21
184.9708909573
  0
LINE
  5
3E8
100
AcDbEntity
  8
00_COMPONENTS_1
100
AcDbLine
 62
7
  6
CONTINUOUS
 10
97.1718896679
 20
178.8966990102
 11
97.1718896679
 21
179.1638211801
  0
LINE
  5
3E9
100
AcDbEntity
  8
00_COMPONENTS_1
100
AcDbLine
 62
7
  6
CONTINUOUS
 10
97.2023167529
 20
161.0493946584
 11
97.2023167529
 21
161.8658970755
  0
LINE
  5
3EA
100
AcDbEntity
  8
00_COMPONENTS_1
100
AcDbLine
 62
7
  6
CONTINUOUS
 10
97.8722066667
 20
169.7626025537
 11
97.8722066667
 21
167.9680740433
  0
LINE
  5
3EB
100
AcDbEntity
  8
00_COMPONENTS_1
100
AcDbLine
 62
7
  6
CONTINUOUS
 10
98.7671538719
 20
168.4847689689
 11
98.7671538719
 21
168.6545679807
  0
LINE
  5
3EC
100
AcDbEntity
  8
00_COMPONENTS_1
100
AcDbLine
 62
7
  6
CONTINUOUS
 10
99.2932011795
 20
180.1214314718
 11
99.2932011795
 21
180.3885536417
  0
LINE
  5
3ED
100
AcDbEntity
  8
00_COMPONENTS_1
100
AcDbLine
 62
7
  6
CONTINUOUS
 10
99.929779735
 20
169.3090847655
 11
99.929779735
 21
170.1255871826
  0
LINE
  5
3EE
100
AcDbEntity
  8
00_COMPONENTS_1
100
AcDbLine
 62
7
  6
CONTINUOUS
 10
101.4145126912
 20
181.3461639334
 11
101.4145126912
 21
181.6132861034
  0
LINE
  5
3EF
100
AcDbEntity
  8
00_COMPONENTS_1
100
AcDbLine
 62
7
  6
CONTINUOUS
 10
101.9449621549
 20
168.3598945462
 11
101.9449621549
 21
166.5636202691
  0
LINE
  5
3F0
100
AcDbEntity
  8
00_COMPONENTS_1
100
AcDbLine
 62
7
  6
CONTINUOUS
 10
102.015480592
 20
190.9708784031
 11
102.015480592
 21
189.6894462383
  0
LINE
  5
3F1
100
AcDbEntity
  8
00_COMPONENTS_1
100
AcDbLine
 62
7
  6
CONTINUOUS
 10
37.5217049042
 20
70.6043346836
 11
36.6024699159
 21
70.0736172836
  0
LINE
  5
3F2
100
AcDbEntity
  8
00_COMPONENTS_1
100
AcDbLine
 62
7
  6
CONTINUOUS
 10
36.596717611
 20
69.9952880615
 11
37.6573733668
 21
70.6076542923
  0
LINE
  5
3F3
100
AcDbEntity
  8
00_COMPONENTS_1
100
AcDbLine
 62
7
  6
CONTINUOUS
 10
43.7948225732
 20
72.5781783843
 11
36.2995218988
 21
68.2507903533
  0
LINE
  5
3F4
100
AcDbEntity
  8
00_COMPONENTS_1
100
AcDbLine
 62
7
  6
CONTINUOUS
 10
36.0384828295
 20
66.7949649563
 11
36.2549514993
 21
66.919942455
  0
LINE
  5
3F5
100
AcDbEntity
  8
00_COMPONENTS_1
100
AcDbLine
 62
7
  6
CONTINUOUS
 10
45.6792019635
 20
70.3133007901
 11
42.0517592786
 21
68.2190082807
  0
LINE
  5
3F6
100
AcDbEntity
  8
00_COMPONENTS_1
100
AcDbLine
 62
7
  6
CONTINUOUS
 10
35.0422355326
 20
62.9028587141
 11
34.946774956
 21
62.8477448535
  0
LINE
  5
3F7
100
AcDbEntity
  8
00_COMPONENTS_1
100
AcDbLine
 62
7
  6
CONTINUOUS
 10
67.3251842181
 20
144.820551236
 11
62.728970389
 21
147.4741164958
  0
LINE
  5
3F8
100
AcDbEntity
  8
00_COMPONENTS_1
100
AcDbLine
 62
7
  6
CONTINUOUS
 10
54.9507637074
 20
151.9647646252
 11
50.3545504939
 21
154.6183295296
  0
LINE
  5
3F9
100
AcDbEntity
  8
00_COMPONENTS_1
100
AcDbLine
 62
7
  6
CONTINUOUS
 10
138.3255708663
 20
103.9582283206
 11
139.0326747035
 21
103.5499909654
  0
LINE
  5
3FA
100
AcDbEntity
  8
00_COMPONENTS_1
100
AcDbLine
 62
7
  6
CONTINUOUS
 10
102.8287674691
 20
176.3277421744
 11
102.8287674691
 21
175.3652068778
  0
LINE
  5
3FB
100
AcDbEntity
  8
00_COMPONENTS_1
100
AcDbLine
 62
7
  6
CONTINUOUS
 10
103.5358242028
 20
182.570896395
 11
103.5358242028
 21
182.838018565
  0
LINE
  5
3FC
100
AcDbEntity
  8
00_COMPONENTS_1
100
AcDbLine
 62
7
  6
CONTINUOUS
 10
104.2955463432
 20
157.4688954956
 11
104.2955463432
 21
164.6955796571
  0
LINE
  5
3FD
100
AcDbEntity
  8
00_COMPONENTS_1
100
AcDbLine
 62
7
  6
CONTINUOUS
 10
104.4269914193
 20
165.2205376234
 11
104.4269914193
 21
166.0370400406
  0
LINE
  5
3FE
100
AcDbEntity
  8
00_COMPONENTS_1
100
AcDbLine
 62
7
  6
CONTINUOUS
 10
104.6317865751
 20
188.521495943
 11
104.6317865751
 21
189.8330563087
  0
LINE
  5
3FF
100
AcDbEntity
  8
00_COMPONENTS_1
100
AcDbLine
 62
7
  6
CONTINUOUS
 10
104.9500789807
 20
177.552474636
 11
104.9500789807
 21
176.5899393394
  0
LINE
  5
400
100
AcDbEntity
  8
00_COMPONENTS_1
100
AcDbLine
 62
7
  6
CONTINUOUS
 10
105.4252705568
 20
164.8105894828
 11
105.4252705568
 21
158.0402660974
  0
LINE
  5
401
100
AcDbEntity
  8
00_COMPONENTS_1
100
AcDbLine
 62
7
  6
CONTINUOUS
 10
105.4260249373
 20
188.1561225096
 11
105.4260249373
 21
188.3406150879
  0
LINE
  5
402
100
AcDbEntity
  8
00_COMPONENTS_1
100
AcDbLine
 62
7
  6
CONTINUOUS
 10
105.4328395565
 20
188.3679304418
 11
105.4328395565
 21
188.1529191519
  0
LINE
  5
403
100
AcDbEntity
  8
00_COMPONENTS_1
100
AcDbLine
 62
7
  6
CONTINUOUS
 10
105.763127988
 20
193.0037879706
 11
105.7631279879
 21
193.4877990533
  0
LINE
  5
404
100
AcDbEntity
  8
00_COMPONENTS_1
100
AcDbLine
 62
7
  6
CONTINUOUS
 10
106.2581153912
 20
187.9307840066
 11
106.2581153912
 21
187.7649805814
  0
LINE
  5
405
100
AcDbEntity
  8
00_COMPONENTS_1
100
AcDbLine
 62
7
  6
CONTINUOUS
 10
106.5589334082
 20
165.4818276919
 11
106.5589334082
 21
166.298330109
  0
LINE
  5
406
100
AcDbEntity
  8
00_COMPONENTS_1
100
AcDbLine
 62
7
  6
CONTINUOUS
 10
106.9298696301
 20
191.7015658152
 11
106.9298696301
 21
190.3028281369
  0
LINE
  5
407
100
AcDbEntity
  8
00_COMPONENTS_1
100
AcDbLine
 62
7
  6
CONTINUOUS
 10
107.0713904924
 20
178.7772070976
 11
107.0713904924
 21
177.814671801
  0
LINE
  5
408
100
AcDbEntity
  8
00_COMPONENTS_1
100
AcDbLine
 62
7
  6
CONTINUOUS
 10
107.3444776223
 20
159.1483141991
 11
107.3444776223
 21
164.2939080861
  0
LINE
  5
409
100
AcDbEntity
  8
00_COMPONENTS_1
100
AcDbLine
 62
7
  6
CONTINUOUS
 10
107.5662677939
 20
190.7519121241
 11
107.5662677939
 21
189.9354117978
  0
LINE
  5
40A
100
AcDbEntity
  8
00_COMPONENTS_1
100
AcDbLine
 62
7
  6
CONTINUOUS
 10
107.5662677939
 20
187.7923048445
 11
107.5662677939
 21
187.1399891907
  0
LINE
  5
40B
100
AcDbEntity
  8
00_COMPONENTS_1
100
AcDbLine
 62
7
  6
CONTINUOUS
 10
108.1673352008
 20
188.1995833917
 11
108.1673352008
 21
186.84961687
  0
LINE
  5
40C
100
AcDbEntity
  8
00_COMPONENTS_1
100
AcDbLine
 62
7
  6
CONTINUOUS
 10
108.6269235497
 20
190.1395560913
 11
108.6269235497
 21
189.323055765
  0
LINE
  5
40D
100
AcDbEntity
  8
00_COMPONENTS_1
100
AcDbLine
 62
7
  6
CONTINUOUS
 10
131.9426396303
 20
173.0033408881
 11
131.8679261685
 21
172.8304306648
  0
LINE
  5
40E
100
AcDbEntity
  8
00_COMPONENTS_1
100
AcDbLine
 62
7
  6
CONTINUOUS
 10
39.7162318239
 20
60.2125527918
 11
39.613699142
 21
60.1533558736
  0
LINE
  5
40F
100
AcDbEntity
  8
00_COMPONENTS_1
100
AcDbLine
 62
7
  6
CONTINUOUS
 10
40.7450652815
 20
59.2551919273
 11
39.613699142
 21
58.6020012811
  0
LINE
  5
410
100
AcDbEntity
  8
00_COMPONENTS_1
100
AcDbLine
 62
7
  6
CONTINUOUS
 10
138.3255708662
 20
105.8360939754
 11
143.1338769593
 21
103.0600485979
  0
LINE
  5
411
100
AcDbEntity
  8
00_COMPONENTS_1
100
AcDbLine
 62
7
  6
CONTINUOUS
 10
70.05459205
 20
148.1518164081
 11
68.4989506547
 21
149.0499460681
  0
LINE
  5
412
100
AcDbEntity
  8
00_COMPONENTS_1
100
AcDbLine
 62
7
  6
CONTINUOUS
 10
57.68017186
 20
155.2960296122
 11
56.1245304646
 21
156.1941592722
  0
LINE
  5
413
100
AcDbEntity
  8
00_COMPONENTS_1
100
AcDbLine
 62
7
  6
CONTINUOUS
 10
87.6885095124
 20
176.8554200872
 11
87.5553595449
 21
177.2698003867
  0
LINE
  5
414
100
AcDbEntity
  8
00_COMPONENTS_1
100
AcDbLine
 62
7
  6
CONTINUOUS
 10
109.192702004
 20
180.0019395592
 11
109.192702004
 21
179.0394042626
  0
LINE
  5
415
100
AcDbEntity
  8
00_COMPONENTS_1
100
AcDbLine
 62
7
  6
CONTINUOUS
 10
109.1927549954
 20
172.1528489874
 11
109.1927549954
 21
172.4649623363
  0
LINE
  5
416
100
AcDbEntity
  8
00_COMPONENTS_1
100
AcDbLine
 62
7
  6
CONTINUOUS
 10
109.9167483656
 20
184.2690030997
 11
109.9167483656
 21
182.7118353884
  0
LINE
  5
417
100
AcDbEntity
  8
00_COMPONENTS_1
100
AcDbLine
 62
7
  6
CONTINUOUS
 10
110.2466268568
 20
162.6183893496
 11
110.2466268568
 21
160.8238608392
  0
LINE
  5
418
100
AcDbEntity
  8
00_COMPONENTS_1
100
AcDbLine
 62
7
  6
CONTINUOUS
 10
111.141574062
 20
161.3405557648
 11
111.141574062
 21
161.5103547766
  0
LINE
  5
419
100
AcDbEntity
  8
00_COMPONENTS_1
100
AcDbLine
 62
7
  6
CONTINUOUS
 10
111.314066507
 20
173.377581449
 11
111.314066507
 21
173.6896947979
  0
LINE
  5
41A
100
AcDbEntity
  8
00_COMPONENTS_1
100
AcDbLine
 62
7
  6
CONTINUOUS
 10
112.3041999251
 20
162.1648715614
 11
112.3041999251
 21
162.9813739785
  0
LINE
  5
41B
100
AcDbEntity
  8
00_COMPONENTS_1
100
AcDbLine
 62
7
  6
CONTINUOUS
 10
113.4353780187
 20
174.6023139106
 11
113.4353780187
 21
174.9144272596
  0
LINE
  5
41C
100
AcDbEntity
  8
00_COMPONENTS_1
100
AcDbLine
 62
7
  6
CONTINUOUS
 10
115.5566895303
 20
175.8270463723
 11
115.5566895303
 21
176.1391597212
  0
LINE
  5
41D
100
AcDbEntity
  8
00_COMPONENTS_1
100
AcDbLine
 62
7
  6
CONTINUOUS
 10
115.5567425217
 20
168.5495615627
 11
115.5567425217
 21
167.5301385893
  0
LINE
  5
41E
100
AcDbEntity
  8
00_COMPONENTS_1
100
AcDbLine
 62
7
  6
CONTINUOUS
 10
70.322154609
 20
44.120831995
 11
69.7997825108
 21
43.3776695294
  0
LINE
  5
41F
100
AcDbEntity
  8
00_COMPONENTS_1
100
AcDbLine
 62
7
  6
CONTINUOUS
 10
72.2492824518
 20
40.330477238
 11
72.8459181747
 21
41.1792922427
  0
LINE
  5
420
100
AcDbEntity
  8
00_COMPONENTS_1
100
AcDbLine
 62
7
  6
CONTINUOUS
 10
143.1338769593
 20
148.1718071444
 11
140.6787703416
 21
144.7131030959
  0
LINE
  5
421
100
AcDbEntity
  8
00_COMPONENTS_1
100
AcDbLine
 62
7
  6
CONTINUOUS
 10
43.2517804497
 20
58.1713490192
 11
43.1492477677
 21
58.112152101
  0
LINE
  5
422
100
AcDbEntity
  8
00_COMPONENTS_1
100
AcDbLine
 62
7
  6
CONTINUOUS
 10
47.8161719537
 20
55.6382170101
 11
47.7277832381
 21
55.587186066
  0
LINE
  5
423
100
AcDbEntity
  8
00_COMPONENTS_1
100
AcDbLine
 62
7
  6
CONTINUOUS
 10
117.6780540334
 20
169.7742940243
 11
117.6780540334
 21
168.7548710509
  0
LINE
  5
424
100
AcDbEntity
  8
00_COMPONENTS_1
100
AcDbLine
 62
7
  6
CONTINUOUS
 10
119.799365545
 20
170.9990264859
 11
119.799365545
 21
169.9796035125
  0
LINE
  5
425
100
AcDbEntity
  8
00_COMPONENTS_1
100
AcDbLine
 62
7
  6
CONTINUOUS
 10
120.2944230173
 20
61.6636039161
 11
120.2944230173
 21
54.8049836122
  0
LINE
  5
426
100
AcDbEntity
  8
00_COMPONENTS_1
100
AcDbLine
 62
7
  6
CONTINUOUS
 10
121.142947622
 20
158.9906835723
 11
121.142947622
 21
163.3181463831
  0
LINE
  5
427
100
AcDbEntity
  8
00_COMPONENTS_1
100
AcDbLine
 62
7
  6
CONTINUOUS
 10
121.9206770567
 20
172.2237589475
 11
121.9206770567
 21
171.2043359742
  0
LINE
  5
428
100
AcDbEntity
  8
00_COMPONENTS_1
100
AcDbLine
 62
7
  6
CONTINUOUS
 10
121.920730048
 20
163.8608158638
 11
121.920730048
 21
164.1998541689
  0
LINE
  5
429
100
AcDbEntity
  8
00_COMPONENTS_1
100
AcDbLine
 62
7
  6
CONTINUOUS
 10
122.2911685558
 20
177.2005987997
 11
122.2911685558
 21
175.4918132799
  0
LINE
  5
42A
100
AcDbEntity
  8
00_COMPONENTS_1
100
AcDbLine
 62
7
  6
CONTINUOUS
 10
131.9491616437
 20
173.035857008
 11
131.9426396303
 21
173.0033408881
  0
LINE
  5
42B
100
AcDbEntity
  8
00_COMPONENTS_1
100
AcDbLine
 62
7
  6
CONTINUOUS
 10
142.2853523546
 20
134.4137498814
 11
140.1137211125
 21
131.5231295566
  0
LINE
  5
42C
100
AcDbEntity
  8
00_COMPONENTS_1
100
AcDbLine
 62
7
  6
CONTINUOUS
 10
138.3255708662
 20
103.1417468116
 11
139.0326747035
 21
103.5499909654
  0
LINE
  5
42D
100
AcDbEntity
  8
00_COMPONENTS_1
100
AcDbLine
 62
7
  6
CONTINUOUS
 10
57.927864575
 20
56.3161353078
 11
60.7562799239
 21
57.9491119233
  0
LINE
  5
42E
100
AcDbEntity
  8
00_COMPONENTS_1
100
AcDbLine
 62
7
  6
CONTINUOUS
 10
142.0732212035
 20
103.6724359928
 11
139.2820376728
 21
102.0609550493
  0
LINE
  5
42F
100
AcDbEntity
  8
00_COMPONENTS_1
100
AcDbLine
 62
7
  6
CONTINUOUS
 10
59.9278320695
 20
56.1179681568
 11
57.0994167207
 21
54.4849915413
  0
LINE
  5
430
100
AcDbEntity
  8
00_COMPONENTS_1
100
AcDbLine
 62
7
  6
CONTINUOUS
 10
100.0629297025
 20
169.7112068831
 11
99.929779735
 21
170.1255871826
  0
LINE
  5
431
100
AcDbEntity
  8
00_COMPONENTS_1
100
AcDbLine
 62
7
  6
CONTINUOUS
 10
124.0420415597
 20
165.0855483255
 11
124.0420415597
 21
165.4245866305
  0
LINE
  5
432
100
AcDbEntity
  8
00_COMPONENTS_1
100
AcDbLine
 62
7
  6
CONTINUOUS
 10
126.1633530713
 20
166.3102807871
 11
126.1633530713
 21
166.6493190921
  0
LINE
  5
433
100
AcDbEntity
  8
00_COMPONENTS_1
100
AcDbLine
 62
7
  6
CONTINUOUS
 10
128.284664583
 20
167.5350132487
 11
128.284664583
 21
167.8740515538
  0
LINE
  5
434
100
AcDbEntity
  8
00_COMPONENTS_1
100
AcDbLine
 62
7
  6
CONTINUOUS
 10
128.5320952824
 20
176.6734893146
 11
128.5320952824
 21
175.0981553527
  0
LINE
  5
435
100
AcDbEntity
  8
00_COMPONENTS_1
100
AcDbLine
 62
7
  6
CONTINUOUS
 10
66.6226700572
 20
171.5223549961
 11
67.6233621652
 21
170.9446182083
  0
LINE
  5
436
100
AcDbEntity
  8
00_COMPONENTS_1
100
AcDbLine
 62
7
  6
CONTINUOUS
 10
72.2688093656
 20
168.2626286914
 11
72.668445988
 21
168.0319035996
  0
LINE
  5
437
100
AcDbEntity
  8
00_COMPONENTS_1
100
AcDbLine
 62
7
  6
CONTINUOUS
 10
78.9970902473
 20
164.378141792
 11
79.9977823552
 21
163.8004050042
  0
LINE
  5
438
100
AcDbEntity
  8
00_COMPONENTS_1
100
AcDbLine
 62
7
  6
CONTINUOUS
 10
84.6432295557
 20
161.1184154872
 11
85.042866178
 21
160.8876903955
  0
LINE
  5
439
100
AcDbEntity
  8
00_COMPONENTS_1
100
AcDbLine
 62
7
  6
CONTINUOUS
 10
91.3715104373
 20
157.2339285879
 11
92.3722025453
 21
156.6561918001
  0
LINE
  5
43A
100
AcDbEntity
  8
00_COMPONENTS_1
100
AcDbLine
 62
7
  6
CONTINUOUS
 10
97.0176497458
 20
153.9742022831
 11
97.4172863681
 21
153.7434771913
  0
LINE
  5
43B
100
AcDbEntity
  8
00_COMPONENTS_1
100
AcDbLine
 62
7
  6
CONTINUOUS
 10
139.7643880649
 20
131.3214432314
 11
138.336751278
 21
132.1456710681
  0
LINE
  5
43C
100
AcDbEntity
  8
00_COMPONENTS_1
100
AcDbLine
 62
7
  6
CONTINUOUS
 10
86.3524509764
 20
175.8434568167
 11
85.107054043
 21
177.0888239719
  0
LINE
  5
43D
100
AcDbEntity
  8
00_COMPONENTS_1
100
AcDbLine
 62
7
  6
CONTINUOUS
 10
89.9543691504
 20
182.0005306473
 11
90.1007983044
 21
181.754203214
  0
LINE
  5
43E
100
AcDbEntity
  8
00_COMPONENTS_1
100
AcDbLine
 62
7
  6
CONTINUOUS
 10
92.075680662
 20
183.2252631089
 11
92.222109816
 21
182.9789356756
  0
LINE
  5
43F
100
AcDbEntity
  8
00_COMPONENTS_1
100
AcDbLine
 62
7
  6
CONTINUOUS
 10
94.1969921737
 20
184.4499955705
 11
94.3434213277
 21
184.2036681372
  0
LINE
  5
440
100
AcDbEntity
  8
00_COMPONENTS_1
100
AcDbLine
 62
7
  6
CONTINUOUS
 10
101.9752976419
 20
176.2009700219
 11
102.1216636319
 21
175.9194980205
  0
LINE
  5
441
100
AcDbEntity
  8
00_COMPONENTS_1
100
AcDbLine
 62
7
  6
CONTINUOUS
 10
112.4373498925
 20
162.566993679
 11
112.3041999251
 21
162.9813739785
  0
LINE
  5
442
100
AcDbEntity
  8
00_COMPONENTS_1
100
AcDbLine
 62
7
  6
CONTINUOUS
 10
131.1484012681
 20
173.3266334012
 11
131.1484012681
 21
174.9317588698
  0
LINE
  5
443
100
AcDbEntity
  8
00_COMPONENTS_1
100
AcDbLine
 62
7
  6
CONTINUOUS
 10
131.9426396303
 20
172.7780767163
 11
131.9426396303
 21
173.0033408881
  0
LINE
  5
444
100
AcDbEntity
  8
00_COMPONENTS_1
100
AcDbLine
 62
7
  6
CONTINUOUS
 10
131.9494542495
 20
173.0358393695
 11
131.9494542495
 21
172.7733015096
  0
LINE
  5
445
100
AcDbEntity
  8
00_COMPONENTS_1
100
AcDbLine
 62
7
  6
CONTINUOUS
 10
132.2797426783
 20
177.7006130808
 11
132.2797426783
 21
179.2720949079
  0
LINE
  5
446
100
AcDbEntity
  8
00_COMPONENTS_1
100
AcDbLine
 62
7
  6
CONTINUOUS
 10
132.7747300842
 20
172.6217557121
 11
132.7747300842
 21
172.1950061452
  0
LINE
  5
447
100
AcDbEntity
  8
00_COMPONENTS_1
100
AcDbLine
 62
7
  6
CONTINUOUS
 10
133.4464843231
 20
176.9226203864
 11
133.4464843231
 21
174.9937998424
  0
LINE
  5
448
100
AcDbEntity
  8
00_COMPONENTS_1
100
AcDbLine
 62
7
  6
CONTINUOUS
 10
134.0828824869
 20
175.4428838296
 11
134.0828824869
 21
174.6263835032
  0
LINE
  5
449
100
AcDbEntity
  8
00_COMPONENTS_1
100
AcDbLine
 62
7
  6
CONTINUOUS
 10
134.0828824869
 20
172.48327655
 11
134.0828824869
 21
171.2682297666
  0
LINE
  5
44A
100
AcDbEntity
  8
00_COMPONENTS_1
100
AcDbLine
 62
7
  6
CONTINUOUS
 10
134.6486309127
 20
71.5839650739
 11
134.6486309127
 21
69.9509602397
  0
LINE
  5
44B
100
AcDbEntity
  8
00_COMPONENTS_1
100
AcDbLine
 62
7
  6
CONTINUOUS
 10
134.6839498938
 20
172.4828242416
 11
134.6839498938
 21
170.8391840764
  0
LINE
  5
44C
100
AcDbEntity
  8
00_COMPONENTS_1
100
AcDbLine
 62
7
  6
CONTINUOUS
 10
135.1435382427
 20
174.8305277968
 11
135.1435382427
 21
174.0140274704
  0
LINE
  5
44D
100
AcDbEntity
  8
00_COMPONENTS_1
100
AcDbLine
 62
7
  6
CONTINUOUS
 10
77.8681927845
 20
48.477513161
 11
66.6009701817
 21
41.9724179885
  0
LINE
  5
44E
100
AcDbEntity
  8
00_COMPONENTS_1
100
AcDbLine
 62
7
  6
CONTINUOUS
 10
63.5877537487
 20
40.2327470542
 11
60.7562799239
 21
38.5980046373
  0
LINE
  5
44F
100
AcDbEntity
  8
00_COMPONENTS_1
100
AcDbLine
 62
7
  6
CONTINUOUS
 10
63.9272165966
 20
40.1426503167
 11
63.5009092308
 21
39.8965231135
  0
LINE
  5
450
100
AcDbEntity
  8
00_COMPONENTS_1
100
AcDbLine
 62
7
  6
CONTINUOUS
 10
71.0034248842
 20
44.0725886295
 11
69.7997825108
 21
43.3776695294
  0
LINE
  5
451
100
AcDbEntity
  8
00_COMPONENTS_1
100
AcDbLine
 62
7
  6
CONTINUOUS
 10
131.4188511794
 20
173.1414825774
 11
131.6976896362
 21
173.1730055391
  0
LINE
  5
452
100
AcDbEntity
  8
00_COMPONENTS_1
100
AcDbLine
 62
7
  6
CONTINUOUS
 10
102.5814240539
 20
156.7249756772
 11
96.8184920131
 21
160.0521307719
  0
LINE
  5
453
100
AcDbEntity
  8
00_COMPONENTS_1
100
AcDbLine
 62
7
  6
CONTINUOUS
 10
90.2070038638
 20
163.8691888813
 11
84.4440718231
 21
167.196343976
  0
LINE
  5
454
100
AcDbEntity
  8
00_COMPONENTS_1
100
AcDbLine
 62
7
  6
CONTINUOUS
 10
77.8325836737
 20
171.0134020854
 11
72.069651633
 21
174.3405571801
  0
LINE
  5
455
100
AcDbEntity
  8
00_COMPONENTS_1
100
AcDbLine
 62
7
  6
CONTINUOUS
 10
139.0326747035
 20
137.0543246073
 11
140.9944010005
 21
135.921747024
  0
LINE
  5
456
100
AcDbEntity
  8
00_COMPONENTS_1
100
AcDbLine
 62
7
  6
CONTINUOUS
 10
73.4838593074
 20
175.1570454879
 11
79.4362559761
 21
171.7205054138
  0
LINE
  5
457
100
AcDbEntity
  8
00_COMPONENTS_1
100
AcDbLine
 62
7
  6
CONTINUOUS
 10
85.8582794975
 20
168.0128322838
 11
91.8106761662
 21
164.5762922097
  0
LINE
  5
458
100
AcDbEntity
  8
00_COMPONENTS_1
100
AcDbLine
 62
7
  6
CONTINUOUS
 10
98.2326996876
 20
160.8686190797
 11
104.1850963563
 21
157.4320790056
  0
LINE
  5
459
100
AcDbEntity
  8
00_COMPONENTS_1
100
AcDbLine
 62
7
  6
CONTINUOUS
 10
139.0326747035
 20
135.7355193207
 11
139.6781503805
 21
135.2947872732
  0
LINE
  5
45A
100
AcDbEntity
  8
00_COMPONENTS_1
100
AcDbLine
 62
7
  6
CONTINUOUS
 10
140.9944010005
 20
135.9217470239
 11
142.2853523546
 21
135.0402829289
  0
LINE
  5
45B
100
AcDbEntity
  8
00_COMPONENTS_1
100
AcDbLine
 62
7
  6
CONTINUOUS
 10
98.7671538719
 20
168.6545679807
 11
97.8722066667
 21
169.7626025537
  0
LINE
  5
45C
100
AcDbEntity
  8
00_COMPONENTS_1
100
AcDbLine
 62
7
  6
CONTINUOUS
 10
111.141574062
 20
161.5103547766
 11
110.2466268568
 21
162.6183893496
  0
LINE
  5
45D
100
AcDbEntity
  8
00_COMPONENTS_1
100
AcDbLine
 62
7
  6
CONTINUOUS
 10
96.3183036853
 20
185.6747280321
 11
96.4647328393
 21
185.4284005988
  0
LINE
  5
45E
100
AcDbEntity
  8
00_COMPONENTS_1
100
AcDbLine
 62
7
  6
CONTINUOUS
 10
104.0966091536
 20
177.4257024835
 11
104.2429751435
 21
177.1442304821
  0
LINE
  5
45F
100
AcDbEntity
  8
00_COMPONENTS_1
100
AcDbLine
 62
7
  6
CONTINUOUS
 10
106.2179206652
 20
178.6504349451
 11
106.3642866551
 21
178.3689629437
  0
LINE
  5
460
100
AcDbEntity
  8
00_COMPONENTS_1
100
AcDbLine
 62
7
  6
CONTINUOUS
 10
108.3392321768
 20
179.8751674067
 11
108.4855981668
 21
179.5936954053
  0
LINE
  5
461
100
AcDbEntity
  8
00_COMPONENTS_1
100
AcDbLine
 62
7
  6
CONTINUOUS
 10
138.3255708662
 20
132.1263055889
 11
138.3255708662
 21
103.1417468116
  0
LINE
  5
462
100
AcDbEntity
  8
00_COMPONENTS_1
100
AcDbLine
 62
7
  6
CONTINUOUS
 10
139.0326747035
 20
135.7355193207
 11
139.0326747035
 21
145.3957398433
  0
LINE
  5
463
100
AcDbEntity
  8
00_COMPONENTS_1
100
AcDbLine
 62
7
  6
CONTINUOUS
 10
142.2853523546
 20
134.4137498814
 11
142.2853523546
 21
135.0402829289
  0
LINE
  5
464
100
AcDbEntity
  8
00_COMPONENTS_1
100
AcDbLine
 62
7
  6
CONTINUOUS
 10
143.1338769593
 20
171.6870767577
 11
143.1338769593
 21
148.1718071444
  0
LINE
  5
465
100
AcDbEntity
  8
00_COMPONENTS_1
100
AcDbLine
 62
7
  6
CONTINUOUS
 10
143.1338769593
 20
103.0600485979
 11
143.1338769593
 21
76.4828949204
  0
LINE
  5
466
100
AcDbEntity
  8
00_COMPONENTS_1
100
AcDbLine
 62
7
  6
CONTINUOUS
 10
72.3840420842
 20
42.2938792608
 11
70.6162824911
 21
41.2732688761
  0
LINE
  5
467
100
AcDbEntity
  8
00_COMPONENTS_1
100
AcDbLine
 62
7
  6
CONTINUOUS
 10
107.3444776223
 20
164.2939080861
 11
105.4252705568
 21
164.8105894828
  0
LINE
  5
468
100
AcDbEntity
  8
00_COMPONENTS_1
100
AcDbLine
 62
7
  6
CONTINUOUS
 10
94.9700574322
 20
171.4381212902
 11
93.0508503667
 21
171.9548026869
  0
LINE
  5
469
100
AcDbEntity
  8
00_COMPONENTS_1
100
AcDbLine
 62
7
  6
CONTINUOUS
 10
139.0326747035
 20
145.2552146013
 11
140.325218423
 21
144.508981019
  0
LINE
  5
46A
100
AcDbEntity
  8
00_COMPONENTS_1
100
AcDbLine
 62
7
  6
CONTINUOUS
 10
89.5705419648
 20
175.5041077503
 11
91.1261833602
 21
174.6059780904
  0
LINE
  5
46B
100
AcDbEntity
  8
00_COMPONENTS_1
100
AcDbLine
 62
7
  6
CONTINUOUS
 10
101.9449621549
 20
168.3598945462
 11
103.5006035502
 21
167.4617648863
  0
LINE
  5
46C
100
AcDbEntity
  8
00_COMPONENTS_1
100
AcDbLine
 62
7
  6
CONTINUOUS
 10
139.7643880649
 20
131.3214432314
 11
139.1033850872
 21
132.5753741581
  0
LINE
  5
46D
100
AcDbEntity
  8
00_COMPONENTS_1
100
AcDbLine
 62
7
  6
CONTINUOUS
 10
139.0326747035
 20
103.5499909654
 11
139.2820376728
 21
102.0609550493
  0
LINE
  5
46E
100
AcDbEntity
  8
00_COMPONENTS_1
100
AcDbLine
 62
7
  6
CONTINUOUS
 10
134.6486309127
 20
71.5839650739
 11
143.1338769593
 21
76.4828949204
  0
LINE
  5
46F
100
AcDbEntity
  8
00_COMPONENTS_1
100
AcDbLine
 62
7
  6
CONTINUOUS
 10
120.2944230173
 20
61.6636039161
 11
134.6486309127
 21
69.9509602397
  0
LINE
  5
470
100
AcDbEntity
  8
00_COMPONENTS_1
100
AcDbLine
 62
7
  6
CONTINUOUS
 10
80.3700786679
 20
32.9795438716
 11
77.8681927845
 21
31.5350880056
  0
LINE
  5
471
100
AcDbEntity
  8
00_COMPONENTS_1
100
AcDbLine
 62
7
  6
CONTINUOUS
 10
82.9108924768
 20
178.3567497591
 11
80.7538120826
 21
179.0757593647
  0
LINE
  5
472
100
AcDbEntity
  8
00_COMPONENTS_1
100
AcDbLine
 62
7
  6
CONTINUOUS
 10
82.3933346839
 20
185.6897397308
 11
121.142947622
 21
163.3181463831
  0
LINE
  5
473
100
AcDbEntity
  8
00_COMPONENTS_1
100
AcDbLine
 62
7
  6
CONTINUOUS
 10
114.4139594261
 20
188.634709926
 11
114.1647577283
 21
189.066337532
  0
LINE
  5
474
100
AcDbEntity
  8
00_COMPONENTS_1
100
AcDbLine
 62
7
  6
CONTINUOUS
 10
140.325218423
 20
144.508981019
 11
139.8104889244
 21
145.8448084126
  0
LINE
  5
475
100
AcDbEntity
  8
00_COMPONENTS_1
100
AcDbLine
 62
7
  6
CONTINUOUS
 10
80.3700786679
 20
31.7547902459
 11
120.2944230173
 21
54.8049836122
  0
LINE
  5
476
100
AcDbEntity
  8
00_COMPONENTS_1
100
AcDbLine
 62
7
  6
CONTINUOUS
 10
104.9022364864
 20
188.3987266598
 11
105.1810749432
 21
188.4537879283
  0
LINE
  5
477
100
AcDbEntity
  8
00_COMPONENTS_1
100
AcDbLine
 62
7
  6
CONTINUOUS
 10
105.3037538214
 20
192.4082575048
 11
104.973743526
 21
192.5488154871
  0
LINE
  5
478
100
AcDbEntity
  8
00_COMPONENTS_1
100
AcDbLine
 62
7
  6
CONTINUOUS
 10
105.4328005547
 20
188.1534034
 11
105.3513114755
 21
188.1912431715
  0
LINE
  5
479
100
AcDbEntity
  8
00_COMPONENTS_1
100
AcDbLine
 62
7
  6
CONTINUOUS
 10
105.4328395565
 20
188.1529191519
 11
105.3513114755
 21
188.1912431715
  0
LINE
  5
47A
100
AcDbEntity
  8
00_COMPONENTS_1
100
AcDbLine
 62
7
  6
CONTINUOUS
 10
108.030019755
 20
185.2271124093
 11
108.3257517879
 21
185.0814848935
  0
LINE
  5
47B
100
AcDbEntity
  8
00_COMPONENTS_1
100
AcDbLine
 62
7
  6
CONTINUOUS
 10
108.0298509766
 20
185.2301646303
 11
108.3257517879
 21
185.0814848935
  0
LINE
  5
47C
100
AcDbEntity
  8
00_COMPONENTS_1
100
AcDbLine
 62
7
  6
CONTINUOUS
 10
109.1485903101
 20
188.2054460159
 11
105.0114371319
 21
190.5939649075
  0
LINE
  5
47D
100
AcDbEntity
  8
00_COMPONENTS_1
100
AcDbLine
 62
7
  6
CONTINUOUS
 10
136.1242650384
 20
172.6313717086
 11
131.0689917897
 21
175.5499826258
  0
LINE
  5
47E
100
AcDbEntity
  8
00_COMPONENTS_1
100
AcDbLine
 62
7
  6
CONTINUOUS
 10
136.8313378564
 20
173.0395979537
 11
133.4464843231
 21
174.9937998424
  0
LINE
  5
47F
100
AcDbEntity
  8
00_COMPONENTS_1
100
AcDbLine
 62
7
  6
CONTINUOUS
 10
109.8556513728
 20
188.6136654741
 11
106.9298696301
 21
190.3028281369
  0
LINE
  5
480
100
AcDbEntity
  8
00_COMPONENTS_1
100
AcDbLine
 62
7
  6
CONTINUOUS
 10
137.5477201401
 20
173.4425041324
 11
134.0828824869
 21
175.4428838296
  0
LINE
  5
481
100
AcDbEntity
  8
00_COMPONENTS_1
100
AcDbLine
 62
7
  6
CONTINUOUS
 10
110.5627715065
 20
189.0219190367
 11
107.5662677939
 21
190.7519121241
  0
LINE
  5
482
100
AcDbEntity
  8
00_COMPONENTS_1
100
AcDbLine
 62
7
  6
CONTINUOUS
 10
132.1665348228
 20
177.7762463399
 11
131.8204906322
 21
178.0045752736
  0
LINE
  5
483
100
AcDbEntity
  8
00_COMPONENTS_1
100
AcDbLine
 62
7
  6
CONTINUOUS
 10
130.8073467396
 20
175.1614042521
 11
131.1484012681
 21
174.9317588698
  0
LINE
  5
484
100
AcDbEntity
  8
00_COMPONENTS_1
100
AcDbLine
 62
7
  6
CONTINUOUS
 10
131.9494952985
 20
172.7737416329
 11
131.8679261685
 21
172.8304306648
  0
LINE
  5
485
100
AcDbEntity
  8
00_COMPONENTS_1
100
AcDbLine
 62
7
  6
CONTINUOUS
 10
139.6207166655
 20
173.1449430066
 11
140.1618579054
 21
172.2076640882
  0
LINE
  5
486
100
AcDbEntity
  8
00_COMPONENTS_1
100
AcDbLine
 62
7
  6
CONTINUOUS
 10
141.4040000401
 20
172.5056884348
 11
140.6813724213
 21
173.7573092374
  0
LINE
  5
487
100
AcDbEntity
  8
00_COMPONENTS_1
100
AcDbLine
 62
7
  6
CONTINUOUS
 10
105.30375417
 20
192.4082542036
 11
104.490341081
 21
192.7529595763
  0
ARC
  5
488
100
AcDbEntity
  8
00_COMPONENTS_1
100
AcDbCircle
 62
7
  6
CONTINUOUS
 10
13.6537423869
 20
-1.6889454397
 40
216.3893489104
100
AcDbArc
 50
53.2470047278
 51
53.7013390249
  0
ARC
  5
489
100
AcDbEntity
  8
00_COMPONENTS_1
100
AcDbCircle
 62
7
  6
CONTINUOUS
 10
10.3342819742
 20
-1.9924903234
 40
212.9171533297
100
AcDbArc
 50
53.8189691079
 51
54.1643081019
  0
ARC
  5
48A
100
AcDbEntity
  8
00_COMPONENTS_1
100
AcDbCircle
 62
7
  6
CONTINUOUS
 10
14.6134986434
 20
0.6159035432
 40
212.6178830312
100
AcDbArc
 50
53.701291109
 51
54.5127871687
  0
ARC
  5
48B
100
AcDbEntity
  8
00_COMPONENTS_1
100
AcDbCircle
 62
7
  6
CONTINUOUS
 10
12.831448061
 20
0.4320208951
 40
210.8305270475
100
AcDbArc
 50
53.8164652329
 51
54.6925160218
  0
ARC
  5
48C
100
AcDbEntity
  8
00_COMPONENTS_1
100
AcDbCircle
 62
7
  6
CONTINUOUS
 10
12.4968879881
 20
1.0082277979
 40
209.2183479914
100
AcDbArc
 50
54.1633261237
 51
55.1837042262
  0
ARC
  5
48D
100
AcDbEntity
  8
00_COMPONENTS_1
100
AcDbCircle
 62
7
  6
CONTINUOUS
 10
17.2512703947
 20
7.8592789921
 40
200.8791759348
100
AcDbArc
 50
55.3654813805
 51
56.7952315286
  0
ARC
  5
48E
100
AcDbEntity
  8
00_COMPONENTS_1
100
AcDbCircle
 62
7
  6
CONTINUOUS
 10
22.3457155392
 20
11.7215754668
 40
199.0848212871
100
AcDbArc
 50
56.0784359848
 51
56.5212077523
  0
ARC
  5
48F
100
AcDbEntity
  8
00_COMPONENTS_1
100
AcDbCircle
 62
7
  6
CONTINUOUS
 10
20.2081861126
 20
11.1236012903
 40
197.8404274226
100
AcDbArc
 50
56.011088814
 51
56.8021572306
  0
ARC
  5
490
100
AcDbEntity
  8
00_COMPONENTS_1
100
AcDbCircle
 62
7
  6
CONTINUOUS
 10
24.0445593206
 20
14.291543131
 40
196.0041026698
100
AcDbArc
 50
56.6422007153
 51
56.9264560931
  0
ARC
  5
491
100
AcDbEntity
  8
00_COMPONENTS_1
100
AcDbCircle
 62
7
  6
CONTINUOUS
 10
21.5295772003
 20
15.9334826166
 40
190.157779369
100
AcDbArc
 50
57.498531514
 51
58.0023730414
  0
ARC
  5
492
100
AcDbEntity
  8
00_COMPONENTS_1
100
AcDbCircle
 62
7
  6
CONTINUOUS
 10
33.8639973854
 20
37.3355465814
 40
165.4492719115
100
AcDbArc
 50
62.0810628004
 51
62.6339179593
  0
ARC
  5
493
100
AcDbEntity
  8
00_COMPONENTS_1
100
AcDbCircle
 62
7
  6
CONTINUOUS
 10
42.3692198558
 20
46.170403132
 40
159.2119171612
100
AcDbArc
 50
63.2760486643
 51
64.2547942042
  0
ARC
  5
494
100
AcDbEntity
  8
00_COMPONENTS_1
100
AcDbCircle
 62
7
  6
CONTINUOUS
 10
39.8766860828
 20
45.2225512536
 40
158.4489110768
100
AcDbArc
 50
63.416169072
 51
64.150538292
  0
ARC
  5
495
100
AcDbEntity
  8
00_COMPONENTS_1
100
AcDbCircle
 62
7
  6
CONTINUOUS
 10
39.1452029693
 20
45.5778323231
 40
157.2318004144
100
AcDbArc
 50
63.4147993427
 51
65.0648908096
  0
ARC
  5
496
100
AcDbEntity
  8
00_COMPONENTS_1
100
AcDbCircle
 62
7
  6
CONTINUOUS
 10
40.8360131811
 20
47.2000648216
 40
156.250987715
100
AcDbArc
 50
64.1509516955
 51
64.4741838605
  0
ARC
  5
497
100
AcDbEntity
  8
00_COMPONENTS_1
100
AcDbCircle
 62
7
  6
CONTINUOUS
 10
42.816231825
 20
53.4675873246
 40
148.5297422643
100
AcDbArc
 50
65.2913735674
 51
67.0455582524
  0
ARC
  5
498
100
AcDbEntity
  8
00_COMPONENTS_1
100
AcDbCircle
 62
7
  6
CONTINUOUS
 10
47.6615864352
 20
57.5479302633
 40
146.6626309755
100
AcDbArc
 50
66.1644417441
 51
66.8571079323
  0
ARC
  5
499
100
AcDbEntity
  8
00_COMPONENTS_1
100
AcDbCircle
 62
7
  6
CONTINUOUS
 10
45.0684705503
 20
56.4501550831
 40
146.0780166734
100
AcDbArc
 50
65.9364264958
 51
67.0554746293
  0
ARC
  5
49A
100
AcDbEntity
  8
00_COMPONENTS_1
100
AcDbCircle
 62
7
  6
CONTINUOUS
 10
50.5969187594
 20
62.1917418958
 40
142.4147649149
100
AcDbArc
 50
67.2094838371
 51
67.8098901804
  0
ARC
  5
49B
100
AcDbEntity
  8
00_COMPONENTS_1
100
AcDbCircle
 62
7
  6
CONTINUOUS
 10
27.2481434634
 20
74.3219010813
 40
17.7596951397
100
AcDbArc
 50
9.2281825342
 51
10.4117105255
  0
ARC
  5
49C
100
AcDbEntity
  8
00_COMPONENTS_1
100
AcDbCircle
 62
7
  6
CONTINUOUS
 10
28.3383435685
 20
74.4939037505
 40
16.6560222089
100
AcDbArc
 50
4.8383978961
 51
9.2455724431
  0
ARC
  5
49D
100
AcDbEntity
  8
00_COMPONENTS_1
100
AcDbCircle
 62
7
  6
CONTINUOUS
 10
24.1660117374
 20
71.4476196185
 40
13.5252144082
100
AcDbArc
 50
2.7408000741
 51
4.0546496931
  0
ARC
  5
49E
100
AcDbEntity
  8
00_COMPONENTS_1
100
AcDbCircle
 62
7
  6
CONTINUOUS
 10
24.1453637428
 20
71.3727356434
 40
13.4042546502
100
AcDbArc
 50
2.4969391182
 51
3.6982711523
  0
ARC
  5
49F
100
AcDbEntity
  8
00_COMPONENTS_1
100
AcDbCircle
 62
7
  6
CONTINUOUS
 10
23.589261176
 20
70.8625185986
 40
13.0405564474
100
AcDbArc
 50
0.0519126159
 51
3.7112991226
  0
ARC
  5
4A0
100
AcDbEntity
  8
00_COMPONENTS_1
100
AcDbCircle
 62
7
  6
CONTINUOUS
 10
24.696000299
 20
71.472939357
 40
12.9946213798
100
AcDbArc
 50
1.3916335113
 51
2.7410297164
  0
ARC
  5
4A1
100
AcDbEntity
  8
00_COMPONENTS_1
100
AcDbCircle
 62
7
  6
CONTINUOUS
 10
24.9453649829
 20
71.4032941796
 40
12.6036823987
100
AcDbArc
 50
0.0079879818
 51
2.5165928488
  0
ARC
  5
4A2
100
AcDbEntity
  8
00_COMPONENTS_1
100
AcDbCircle
 62
7
  6
CONTINUOUS
 10
25.2208358808
 20
71.4856383078
 40
12.4696321908
100
AcDbArc
 50
0.0048790759
 51
1.3918681048
  0
ARC
  5
4A3
100
AcDbEntity
  8
00_COMPONENTS_1
100
AcDbCircle
 62
7
  6
CONTINUOUS
 10
25.5543384828
 20
71.4866179226
 40
12.1361295439
100
AcDbArc
 50
359.6046644179
 51
0.0003883026
  0
ARC
  5
4A4
100
AcDbEntity
  8
00_COMPONENTS_1
100
AcDbCircle
 62
7
  6
CONTINUOUS
 10
41.0131637445
 20
79.3182676183
 40
12.0265308375
100
AcDbArc
 50
241.497675656
 51
244.9766199119
  0
ARC
  5
4A5
100
AcDbEntity
  8
00_COMPONENTS_1
100
AcDbCircle
 62
7
  6
CONTINUOUS
 10
25.8114368641
 20
71.4843703348
 40
11.8790217841
100
AcDbArc
 50
358.5757764
 51
359.6069486883
  0
ARC
  5
4A6
100
AcDbEntity
  8
00_COMPONENTS_1
100
AcDbCircle
 62
7
  6
CONTINUOUS
 10
25.0071227252
 20
70.870392869
 40
11.6226902138
100
AcDbArc
 50
356.0690932416
 51
0.0194281049
  0
ARC
  5
4A7
100
AcDbEntity
  8
00_COMPONENTS_1
100
AcDbCircle
 62
7
  6
CONTINUOUS
 10
26.250952814
 20
71.4729051914
 40
11.4393566619
100
AcDbArc
 50
357.1093806086
 51
358.5784685848
  0
ARC
  5
4A8
100
AcDbEntity
  8
00_COMPONENTS_1
100
AcDbCircle
 62
7
  6
CONTINUOUS
 10
26.1568532813
 20
71.3932394554
 40
11.3922001014
100
AcDbArc
 50
356.0291147911
 51
0.0594065554
  0
ARC
  5
4A9
100
AcDbEntity
  8
00_COMPONENTS_1
100
AcDbCircle
 62
7
  6
CONTINUOUS
 10
40.609416856
 20
78.4522899358
 40
11.0710578251
100
AcDbArc
 50
244.9742966082
 51
247.1481129359
  0
ARC
  5
4AA
100
AcDbEntity
  8
00_COMPONENTS_1
100
AcDbCircle
 62
7
  6
CONTINUOUS
 10
26.7507700322
 20
71.4476211207
 40
10.9389003365
100
AcDbArc
 50
355.5960861579
 51
357.1096236647
  0
ARC
  5
4AB
100
AcDbEntity
  8
00_COMPONENTS_1
100
AcDbCircle
 62
7
  6
CONTINUOUS
 10
40.4322839065
 20
78.0337211628
 40
10.6165517462
100
AcDbArc
 50
247.212309179
 51
248.0099107956
  0
ARC
  5
4AC
100
AcDbEntity
  8
00_COMPONENTS_1
100
AcDbCircle
 62
7
  6
CONTINUOUS
 10
60.4732223768
 20
34.888047207
 40
6.2953845358
100
AcDbArc
 50
59.8658565506
 51
60.3460988356
  0
ARC
  5
4AD
100
AcDbEntity
  8
00_COMPONENTS_1
100
AcDbCircle
 62
7
  6
CONTINUOUS
 10
32.877032385
 20
79.7734100769
 40
3.4125196085
100
AcDbArc
 50
60.0208137077
 51
60.7688065115
  0
ARC
  5
4AE
100
AcDbEntity
  8
00_COMPONENTS_1
100
AcDbCircle
 62
7
  6
CONTINUOUS
 10
31.2279884
 20
82.6378286802
 40
3.1933352559
100
AcDbArc
 50
239.2309765481
 51
240.0163159161
  0
ARC
  5
4AF
100
AcDbEntity
  8
00_COMPONENTS_1
100
AcDbCircle
 62
7
  6
CONTINUOUS
 10
83.5692823821
 20
173.7974690521
 40
4.7898110099
100
AcDbArc
 50
34.1533899307
 51
35.4349489565
  0
ARC
  5
4B0
100
AcDbEntity
  8
00_COMPONENTS_1
100
AcDbCircle
 62
7
  6
CONTINUOUS
 10
83.6489448186
 20
173.8517822431
 40
4.6933953689
100
AcDbArc
 50
33.6620252422
 51
34.1506689716
  0
ARC
  5
4B1
100
AcDbEntity
  8
00_COMPONENTS_1
100
AcDbCircle
 62
7
  6
CONTINUOUS
 10
164.0991561947
 20
227.8103190683
 40
213.1861365223
100
AcDbArc
 50
246.5191806376
 51
246.8742139887
  0
ARC
  5
4B2
100
AcDbEntity
  8
00_COMPONENTS_1
100
AcDbCircle
 62
7
  6
CONTINUOUS
 10
124.9709774358
 20
158.829000186
 40
20.4831901407
100
AcDbArc
 50
44.3397607939
 51
49.0343083542
  0
ARC
  5
4B3
100
AcDbEntity
  8
00_COMPONENTS_1
100
AcDbCircle
 62
7
  6
CONTINUOUS
 10
99.2330113655
 20
175.0226870802
 40
19.3046998723
100
AcDbArc
 50
48.7042406505
 51
50.0676197737
  0
ARC
  5
4B4
100
AcDbEntity
  8
00_COMPONENTS_1
100
AcDbCircle
 62
7
  6
CONTINUOUS
 10
109.6042533185
 20
195.2376073592
 40
10.2362781177
100
AcDbArc
 50
261.4672253666
 51
262.8250732475
  0
ARC
  5
4B5
100
AcDbEntity
  8
00_COMPONENTS_1
100
AcDbCircle
 62
7
  6
CONTINUOUS
 10
130.6172438765
 20
168.1754987624
 40
9.4724430377
100
AcDbArc
 50
72.6683978919
 51
74.8128421039
  0
ARC
  5
4B6
100
AcDbEntity
  8
00_COMPONENTS_1
100
AcDbCircle
 62
7
  6
CONTINUOUS
 10
95.943702572
 20
166.6532558478
 40
4.7898110101
100
AcDbArc
 50
34.1533899307
 51
35.4349489564
  0
ARC
  5
4B7
100
AcDbEntity
  8
00_COMPONENTS_1
100
AcDbCircle
 62
7
  6
CONTINUOUS
 10
108.3181227619
 20
159.5090426436
 40
4.7898110103
100
AcDbArc
 50
34.1533899307
 51
35.4349489564
  0
ARC
  5
4B8
100
AcDbEntity
  8
00_COMPONENTS_1
100
AcDbCircle
 62
7
  6
CONTINUOUS
 10
96.0233650087
 20
166.707569039
 40
4.6933953689
100
AcDbArc
 50
33.6620252422
 51
34.1506689716
  0
ARC
  5
4B9
100
AcDbEntity
  8
00_COMPONENTS_1
100
AcDbCircle
 62
7
  6
CONTINUOUS
 10
108.3977851988
 20
159.5633558349
 40
4.6933953689
100
AcDbArc
 50
33.6620252422
 51
34.1506689716
  0
SPLINE
  5
4BA
100
AcDbEntity
  8
00_COMPONENTS_1
100
AcDbSpline
 62
7
  6
CONTINUOUS
 70
0
 71
3
 72
11
 73
7
 74
0
 42
0.0000001
 43
0.0000001
 44
0.0000000001
 40
0.0
 40
0.0
 40
0.0
 40
0.0
 40
0.2281900738
 40
0.4649732343
 40
0.720583766
 40
1.0
 40
1.0
 40
1.0
 40
1.0
 10
72.1745421394
 20
38.3602284242
 30
0.0
 10
72.3153169913
 20
38.4415764639
 30
0.0
 10
72.5784799287
 20
38.6529878584
 30
0.0
 10
72.8656423679
 20
39.0871202649
 30
0.0
 10
73.0373783256
 20
39.6152744512
 30
0.0
 10
73.0721920297
 20
39.9979934034
 30
0.0
 10
73.0721920297
 20
40.1970813909
 30
0.0
  0
SPLINE
  5
4BB
100
AcDbEntity
  8
00_COMPONENTS_1
100
AcDbSpline
 62
7
  6
CONTINUOUS
 70
0
 71
3
 72
9
 73
5
 74
0
 42
0.0000001
 43
0.0000001
 44
0.0000000001
 40
0.0
 40
0.0
 40
0.0
 40
0.0
 40
0.2560009389
 40
1.0
 40
1.0
 40
1.0
 40
1.0
 10
132.2797426783
 20
179.2720949079
 30
0.0
 10
130.8722577335
 20
180.188689927
 30
0.0
 10
125.328450496
 20
183.6978925318
 30
0.0
 10
119.5984329656
 20
186.9156576447
 30
0.0
 10
115.2383983023
 20
189.1106970918
 30
0.0
  0
SPLINE
  5
4BC
100
AcDbEntity
  8
00_COMPONENTS_1
100
AcDbSpline
 62
7
  6
CONTINUOUS
 70
0
 71
3
 72
11
 73
7
 74
0
 42
0.0000001
 43
0.0000001
 44
0.0000000001
 40
0.0
 40
0.0
 40
0.0
 40
0.0
 40
0.3132682208
 40
0.6019143715
 40
0.8301595078
 40
1.0
 40
1.0
 40
1.0
 40
1.0
 10
105.1810749432
 20
188.4537879283
 30
0.0
 10
105.2108697941
 20
188.4596665244
 30
0.0
 10
105.2697738827
 20
188.4642348911
 30
0.0
 10
105.3497138101
 20
188.4510519639
 30
0.0
 10
105.4117695712
 20
188.4221748212
 30
0.0
 10
105.4327805453
 20
188.3843926407
 30
0.0
 10
105.4327731947
 20
188.3679277501
 30
0.0
  0
SPLINE
  5
4BD
100
AcDbEntity
  8
00_COMPONENTS_1
100
AcDbSpline
 62
7
  6
CONTINUOUS
 70
0
 71
3
 72
9
 73
5
 74
0
 42
0.0000001
 43
0.0000001
 44
0.0000000001
 40
0.0
 40
0.0
 40
0.0
 40
0.0
 40
0.2671734896
 40
1.0
 40
1.0
 40
1.0
 40
1.0
 10
108.1673352008
 20
188.1995833917
 30
0.0
 10
108.2089070963
 20
188.2235847934
 30
0.0
 10
108.3618852355
 20
188.3177045431
 30
0.0
 10
108.5044353716
 20
188.4300844801
 30
0.0
 10
108.5965663431
 20
188.5241484813
 30
0.0
  0
SPLINE
  5
4BE
100
AcDbEntity
  8
00_COMPONENTS_1
100
AcDbSpline
 62
7
  6
CONTINUOUS
 70
0
 71
3
 72
11
 73
7
 74
0
 42
0.0000001
 43
0.0000001
 44
0.0000000001
 40
0.0
 40
0.0
 40
0.0
 40
0.0
 40
0.2893406321
 40
0.5676457386
 40
0.8056913259
 40
1.0
 40
1.0
 40
1.0
 40
1.0
 10
131.6976896362
 20
173.1730055391
 30
0.0
 10
131.7278049322
 20
173.1764051634
 30
0.0
 10
131.7882314634
 20
173.1740527779
 30
0.0
 10
131.8693116735
 20
173.1470466984
 30
0.0
 10
131.9305661862
 20
173.1014021893
 30
0.0
 10
131.9493953036
 20
173.056197153
 30
0.0
 10
131.9493879086
 20
173.0358445672
 30
0.0
  0
SPLINE
  5
4BF
100
AcDbEntity
  8
00_COMPONENTS_1
100
AcDbSpline
 62
7
  6
CONTINUOUS
 70
0
 71
3
 72
9
 73
5
 74
0
 42
0.0000001
 43
0.0000001
 44
0.0000000001
 40
0.0
 40
0.0
 40
0.0
 40
0.0
 40
0.5273301218
 40
1.0
 40
1.0
 40
1.0
 40
1.0
 10
134.6839498938
 20
172.4828242416
 30
0.0
 10
134.8191454336
 20
172.560878957
 30
0.0
 10
135.0609686328
 20
172.7376946336
 30
0.0
 10
135.2427877935
 20
172.9790292325
 30
0.0
 10
135.3049878647
 20
173.1043733951
 30
0.0
  0
SPLINE
  5
4C0
100
AcDbEntity
  8
00_COMPONENTS_1
100
AcDbSpline
 62
7
  6
CONTINUOUS
 70
0
 71
3
 72
11
 73
7
 74
0
 42
0.0000001
 43
0.0000001
 44
0.0000000001
 40
0.0
 40
0.0
 40
0.0
 40
0.0
 40
0.2186502081
 40
0.4520217923
 40
0.7110422564
 40
1.0
 40
1.0
 40
1.0
 40
1.0
 10
28.6070776077
 20
81.3094757296
 30
0.0
 10
28.6060838005
 20
81.1781797129
 30
0.0
 10
28.6516766607
 20
80.9045785568
 30
0.0
 10
28.853477354
 20
80.5217367862
 30
0.0
 10
29.1750324543
 20
80.1743314392
 30
0.0
 10
29.4452511866
 20
79.9827644493
 30
0.0
 10
29.5943470603
 20
79.8939981406
 30
0.0
  0
SPLINE
  5
4C1
100
AcDbEntity
  8
00_COMPONENTS_1
100
AcDbSpline
 62
7
  6
CONTINUOUS
 70
0
 71
3
 72
9
 73
5
 74
0
 42
0.0000001
 43
0.0000001
 44
0.0000000001
 40
0.0
 40
0.0
 40
0.0
 40
0.0
 40
0.2304064106
 40
1.0
 40
1.0
 40
1.0
 40
1.0
 10
28.8614206211
 20
80.5841623679
 30
0.0
 10
28.906431422
 20
80.6473171118
 30
0.0
 10
29.1204255619
 20
80.9081814123
 30
0.0
 10
29.3966367219
 20
81.1131717037
 30
0.0
 10
29.6209850094
 20
81.2426685852
 30
0.0
  0
SPLINE
  5
4C2
100
AcDbEntity
  8
00_COMPONENTS_1
100
AcDbSpline
 62
7
  6
CONTINUOUS
 70
0
 71
3
 72
11
 73
7
 74
0
 42
0.0000001
 43
0.0000001
 44
0.0000000001
 40
0.0
 40
0.0
 40
0.0
 40
0.0
 40
0.2261783359
 40
0.4631638014
 40
0.7194218089
 40
1.0
 40
1.0
 40
1.0
 40
1.0
 10
42.0517458842
 20
68.2190314561
 30
0.0
 10
41.6742308368
 20
68.0010344457
 30
0.0
 10
40.8339061311
 20
67.6624701184
 30
0.0
 10
39.4429401724
 20
67.5001553606
 30
0.0
 10
37.9503940701
 20
67.6720150007
 30
0.0
 10
36.9584055911
 20
67.9870568477
 30
0.0
 10
36.4569563711
 20
68.1895380089
 30
0.0
  0
SPLINE
  5
4C3
100
AcDbEntity
  8
00_COMPONENTS_1
100
AcDbSpline
 62
7
  6
CONTINUOUS
 70
0
 71
3
 72
9
 73
5
 74
0
 42
0.0000001
 43
0.0000001
 44
0.0000000001
 40
0.0
 40
0.0
 40
0.0
 40
0.0
 40
0.2435702171
 40
1.0
 40
1.0
 40
1.0
 40
1.0
 10
35.2741704422
 20
68.7493793199
 30
0.0
 10
35.15336357
 20
68.8148568475
 30
0.0
 10
34.661732138
 20
69.0916730436
 30
0.0
 10
34.1876246651
 20
69.3992999163
 30
0.0
 10
33.8393938162
 20
69.6459631967
 30
0.0
  0
SPLINE
  5
4C4
100
AcDbEntity
  8
00_COMPONENTS_1
100
AcDbSpline
 62
7
  6
CONTINUOUS
 70
0
 71
3
 72
11
 73
7
 74
0
 42
0.0000001
 43
0.0000001
 44
0.0000000001
 40
0.0
 40
0.0
 40
0.0
 40
0.0
 40
0.282174094
 40
0.5446115611
 40
0.7841074729
 40
1.0
 40
1.0
 40
1.0
 40
1.0
 10
114.1647577283
 20
189.066337532
 30
0.0
 10
113.5769488222
 20
189.6665882784
 30
0.0
 10
112.3744342048
 20
190.7615721258
 30
0.0
 10
110.4482951383
 20
192.0948608184
 30
0.0
 10
108.5144464265
 20
193.0269910245
 30
0.0
 10
107.1910615072
 20
193.3752907663
 30
0.0
 10
106.5539270243
 20
193.4603532817
 30
0.0
  0
SPLINE
  5
4C5
100
AcDbEntity
  8
00_COMPONENTS_1
100
AcDbSpline
 62
7
  6
CONTINUOUS
 70
0
 71
3
 72
11
 73
7
 74
0
 42
0.0000001
 43
0.0000001
 44
0.0000000001
 40
0.0
 40
0.0
 40
0.0
 40
0.0
 40
0.2177843137
 40
0.4509117637
 40
0.7102976701
 40
1.0
 40
1.0
 40
1.0
 40
1.0
 10
57.099406741
 20
54.4850088268
 30
0.0
 10
56.9674632854
 20
54.4088317502
 30
0.0
 10
56.6643026832
 20
54.2988122847
 30
0.0
 10
56.1607580891
 20
54.2860626327
 30
0.0
 10
55.6240975628
 20
54.4156565827
 30
0.0
 10
55.2749409707
 20
54.5817571463
 30
0.0
 10
55.0994256744
 20
54.6830886574
 30
0.0
  0
SPLINE
  5
4C6
100
AcDbEntity
  8
00_COMPONENTS_1
100
AcDbSpline
 62
7
  6
CONTINUOUS
 70
0
 71
3
 72
11
 73
7
 74
0
 42
0.0000001
 43
0.0000001
 44
0.0000000001
 40
0.0
 40
0.0
 40
0.0
 40
0.0
 40
0.209223941
 40
0.4398023797
 40
0.7025478015
 40
1.0
 40
1.0
 40
1.0
 40
1.0
 10
45.5067898575
 20
144.0505300092
 30
0.0
 10
45.6266329701
 20
144.1197730728
 30
0.0
 10
45.8521454738
 20
144.3149170332
 30
0.0
 10
46.0868571207
 20
144.7234865021
 30
0.0
 10
46.2262623758
 20
145.2319607332
 30
0.0
 10
46.2538721521
 20
145.6036495505
 30
0.0
 10
46.2538721521
 20
145.8004242482
 30
0.0
  0
SPLINE
  5
4C7
100
AcDbEntity
  8
00_COMPONENTS_1
100
AcDbSpline
 62
7
  6
CONTINUOUS
 70
0
 71
3
 72
11
 73
7
 74
0
 42
0.0000001
 43
0.0000001
 44
0.0000000001
 40
0.0
 40
0.0
 40
0.0
 40
0.0
 40
0.2281900738
 40
0.4649732343
 40
0.720583766
 40
1.0
 40
1.0
 40
1.0
 40
1.0
 10
70.6189136976
 20
129.9718151465
 30
0.0
 10
70.7596885495
 20
130.0531631862
 30
0.0
 10
71.022851487
 20
130.2645745809
 30
0.0
 10
71.3100139263
 20
130.6987069876
 30
0.0
 10
71.4817498839
 20
131.2268611743
 30
0.0
 10
71.5165635878
 20
131.6095801267
 30
0.0
 10
71.5165635878
 20
131.8086681144
 30
0.0
  0
SPLINE
  5
4C8
100
AcDbEntity
  8
00_COMPONENTS_1
100
AcDbSpline
 62
7
  6
CONTINUOUS
 70
0
 71
3
 72
11
 73
7
 74
0
 42
0.0000001
 43
0.0000001
 44
0.0000000001
 40
0.0
 40
0.0
 40
0.0
 40
0.0
 40
0.2192672506
 40
0.4530799394
 40
0.7120456593
 40
1.0
 40
1.0
 40
1.0
 40
1.0
 10
57.4875898777
 20
136.6790668218
 30
0.0
 10
57.6179933139
 20
136.7544069438
 30
0.0
 10
57.8625617087
 20
136.957604169
 30
0.0
 10
58.1234473209
 20
137.379325184
 30
0.0
 10
58.2786690118
 20
137.8975982656
 30
0.0
 10
58.3097804279
 20
138.2745390164
 30
0.0
 10
58.3097804279
 20
138.4723192011
 30
0.0
  0
SPLINE
  5
4C9
100
AcDbEntity
  8
00_COMPONENTS_1
100
AcDbSpline
 62
7
  6
CONTINUOUS
 70
0
 71
3
 72
9
 73
5
 74
0
 42
0.0000001
 43
0.0000001
 44
0.0000000001
 40
0.0
 40
0.0
 40
0.0
 40
0.0
 40
0.4564869854
 40
1.0
 40
1.0
 40
1.0
 40
1.0
 10
51.3030061574
 20
147.7324211525
 30
0.0
 10
51.3594735841
 20
147.7649664747
 30
0.0
 10
51.4691169053
 20
147.8663934054
 30
0.0
 10
51.5104031646
 20
148.0106276894
 30
0.0
 10
51.5171415257
 20
148.0879346168
 30
0.0
  0
SPLINE
  5
4CA
100
AcDbEntity
  8
00_COMPONENTS_1
100
AcDbSpline
 62
7
  6
CONTINUOUS
 70
0
 71
3
 72
9
 73
5
 74
0
 42
0.0000001
 43
0.0000001
 44
0.0000000001
 40
0.0
 40
0.0
 40
0.0
 40
0.0
 40
0.4694437417
 40
1.0
 40
1.0
 40
1.0
 40
1.0
 10
63.8536009865
 20
140.689993086
 30
0.0
 10
63.9145436644
 20
140.7251794617
 30
0.0
 10
64.0322865491
 20
140.8276830519
 30
0.0
 10
64.0807745685
 20
140.9781324647
 30
0.0
 10
64.0883006346
 20
141.0573076243
 30
0.0
  0
SPLINE
  5
4CB
100
AcDbEntity
  8
00_COMPONENTS_1
100
AcDbSpline
 62
7
  6
CONTINUOUS
 70
0
 71
3
 72
10
 73
6
 74
0
 42
0.0000001
 43
0.0000001
 44
0.0000000001
 40
0.0
 40
0.0
 40
0.0
 40
0.0
 40
0.526309091
 40
0.7747534568
 40
1.0
 40
1.0
 40
1.0
 40
1.0
 10
105.9129334448
 20
187.9423095452
 30
0.0
 10
106.3349641299
 20
187.9906670774
 30
0.0
 10
106.9727690335
 20
187.9701324177
 30
0.0
 10
107.7539647564
 20
187.7582983899
 30
0.0
 10
108.1019589107
 20
187.5917783353
 30
0.0
 10
108.2550996919
 20
187.4938032515
 30
0.0
  0
SPLINE
  5
4CC
100
AcDbEntity
  8
00_COMPONENTS_1
100
AcDbSpline
 62
7
  6
CONTINUOUS
 70
0
 71
3
 72
10
 73
6
 74
0
 42
0.0000001
 43
0.0000001
 44
0.0000000001
 40
0.0
 40
0.0
 40
0.0
 40
0.0
 40
0.5190966144
 40
0.7695811707
 40
1.0
 40
1.0
 40
1.0
 40
1.0
 10
132.2300493403
 20
172.6054607911
 30
0.0
 10
132.6474142138
 20
172.674235471
 30
0.0
 10
133.2870252164
 20
172.6818065757
 30
0.0
 10
134.0857542997
 20
172.5107261027
 30
0.0
 10
134.4522607668
 20
172.3636784632
 30
0.0
 10
134.6177368579
 20
172.2749568618
 30
0.0
  0
SPLINE
  5
4CD
100
AcDbEntity
  8
00_COMPONENTS_1
100
AcDbSpline
 62
7
  6
CONTINUOUS
 70
0
 71
3
 72
9
 73
5
 74
0
 42
0.0000001
 43
0.0000001
 44
0.0000000001
 40
0.0
 40
0.0
 40
0.0
 40
0.0
 40
0.4724572045
 40
1.0
 40
1.0
 40
1.0
 40
1.0
 10
121.0671942019
 20
172.1181602262
 30
0.0
 10
121.0671660274
 20
172.0641500213
 30
0.0
 10
121.0984396213
 20
171.9494144312
 30
0.0
 10
121.1700565662
 20
171.8572675389
 30
0.0
 10
121.2135732195
 20
171.8155147936
 30
0.0
  0
SPLINE
  5
4CE
100
AcDbEntity
  8
00_COMPONENTS_1
100
AcDbSpline
 62
7
  6
CONTINUOUS
 70
0
 71
3
 72
9
 73
5
 74
0
 42
0.0000001
 43
0.0000001
 44
0.0000000001
 40
0.0
 40
0.0
 40
0.0
 40
0.0
 40
0.4724572045
 40
1.0
 40
1.0
 40
1.0
 40
1.0
 10
118.9458826903
 20
170.8934277646
 30
0.0
 10
118.9458545157
 20
170.8394175597
 30
0.0
 10
118.9771281097
 20
170.7246819696
 30
0.0
 10
119.0487450546
 20
170.6325350773
 30
0.0
 10
119.0922617078
 20
170.590782332
 30
0.0
  0
SPLINE
  5
4CF
100
AcDbEntity
  8
00_COMPONENTS_1
100
AcDbSpline
 62
7
  6
CONTINUOUS
 70
0
 71
3
 72
9
 73
5
 74
0
 42
0.0000001
 43
0.0000001
 44
0.0000000001
 40
0.0
 40
0.0
 40
0.0
 40
0.0
 40
0.4724572045
 40
1.0
 40
1.0
 40
1.0
 40
1.0
 10
116.8245711787
 20
169.668695303
 30
0.0
 10
116.8245430041
 20
169.6146850981
 30
0.0
 10
116.855816598
 20
169.499949508
 30
0.0
 10
116.9274335429
 20
169.4078026157
 30
0.0
 10
116.9709501962
 20
169.3660498704
 30
0.0
  0
SPLINE
  5
4D0
100
AcDbEntity
  8
00_COMPONENTS_1
100
AcDbSpline
 62
7
  6
CONTINUOUS
 70
0
 71
3
 72
9
 73
5
 74
0
 42
0.0000001
 43
0.0000001
 44
0.0000000001
 40
0.0
 40
0.0
 40
0.0
 40
0.0
 40
0.4724572045
 40
1.0
 40
1.0
 40
1.0
 40
1.0
 10
114.703259667
 20
168.4439628414
 30
0.0
 10
114.7032314925
 20
168.3899526365
 30
0.0
 10
114.7345050864
 20
168.2752170464
 30
0.0
 10
114.8061220313
 20
168.1830701541
 30
0.0
 10
114.8496386845
 20
168.1413174088
 30
0.0
  0
SPLINE
  5
4D1
100
AcDbEntity
  8
00_COMPONENTS_1
100
AcDbSpline
 62
7
  6
CONTINUOUS
 70
0
 71
3
 72
11
 73
7
 74
0
 42
0.0000001
 43
0.0000001
 44
0.0000000001
 40
0.0
 40
0.0
 40
0.0
 40
0.0
 40
0.282174094
 40
0.5446115611
 40
0.7841074729
 40
1.0
 40
1.0
 40
1.0
 40
1.0
 10
140.6813724213
 20
173.7573092374
 30
0.0
 10
140.0935635152
 20
174.3575599839
 30
0.0
 10
138.8910488978
 20
175.4525438313
 30
0.0
 10
136.9649098313
 20
176.7858325239
 30
0.0
 10
135.0310611195
 20
177.71796273
 30
0.0
 10
133.7076762002
 20
178.0662624718
 30
0.0
 10
133.0705417173
 20
178.1513249872
 30
0.0
  0
SPLINE
  5
4D2
100
AcDbEntity
  8
00_COMPONENTS_1
100
AcDbSpline
 62
7
  6
CONTINUOUS
 70
0
 71
3
 72
9
 73
5
 74
0
 42
0.0000001
 43
0.0000001
 44
0.0000000001
 40
0.0
 40
0.0
 40
0.0
 40
0.0
 40
0.2465519916
 40
1.0
 40
1.0
 40
1.0
 40
1.0
 10
65.7234427072
 20
37.2179649466
 30
0.0
 10
66.7056254792
 20
36.7180652714
 30
0.0
 10
70.7064491981
 20
34.724322145
 30
0.0
 10
74.7737165659
 20
32.864344124
 30
0.0
 10
77.8681927845
 20
31.5350880056
 30
0.0
  0
SPLINE
  5
4D3
100
AcDbEntity
  8
00_COMPONENTS_1
100
AcDbSpline
 62
7
  6
CONTINUOUS
 70
0
 71
3
 72
11
 73
7
 74
0
 42
0.0000001
 43
0.0000001
 44
0.0000000001
 40
0.0
 40
0.0
 40
0.0
 40
0.0
 40
0.291275223
 40
0.5512935678
 40
0.7838508718
 40
1.0
 40
1.0
 40
1.0
 40
1.0
 10
34.5825153928
 20
79.9031365453
 30
0.0
 10
34.7350668709
 20
79.991204015
 30
0.0
 10
35.0116969189
 20
80.1809929342
 30
0.0
 10
35.3437349833
 20
80.5249139781
 30
0.0
 10
35.5556199887
 20
80.9041568966
 30
0.0
 10
35.6066279729
 20
81.1769676864
 30
0.0
 10
35.6075829956
 20
81.3076792693
 30
0.0
  0
SPLINE
  5
4D4
100
AcDbEntity
  8
00_COMPONENTS_1
100
AcDbSpline
 62
7
  6
CONTINUOUS
 70
0
 71
3
 72
11
 73
7
 74
0
 42
0.0000001
 43
0.0000001
 44
0.0000000001
 40
0.0
 40
0.0
 40
0.0
 40
0.0
 40
0.2368950859
 40
0.4993877844
 40
0.7623820588
 40
1.0
 40
1.0
 40
1.0
 40
1.0
 10
29.6321083611
 20
79.8718646605
 30
0.0
 10
29.9830599516
 20
79.6693813695
 30
0.0
 10
30.8011819959
 20
79.3772407395
 30
0.0
 10
32.1084566631
 20
79.246772596
 30
0.0
 10
33.4140714243
 20
79.4007738702
 30
0.0
 10
34.2305290706
 20
79.6999727542
 30
0.0
 10
34.5825153928
 20
79.9031365453
 30
0.0
  0
SPLINE
  5
4D5
100
AcDbEntity
  8
00_COMPONENTS_1
100
AcDbSpline
 62
7
  6
CONTINUOUS
 70
0
 71
3
 72
9
 73
5
 74
0
 42
0.0000001
 43
0.0000001
 44
0.0000000001
 40
0.0
 40
0.0
 40
0.0
 40
0.0
 40
0.2651251347
 40
1.0
 40
1.0
 40
1.0
 40
1.0
 10
18.460028898
 20
81.3644259457
 30
0.0
 10
18.460028898
 20
81.6065061782
 30
0.0
 10
18.4875618833
 20
82.5189321527
 30
0.0
 10
18.6311472811
 20
83.4312117922
 30
0.0
 10
18.8218096072
 20
84.0745526223
 30
0.0
  0
SPLINE
  5
4D6
100
AcDbEntity
  8
00_COMPONENTS_1
100
AcDbSpline
 62
7
  6
CONTINUOUS
 70
0
 71
3
 72
9
 73
5
 74
0
 42
0.0000001
 43
0.0000001
 44
0.0000000001
 40
0.0
 40
0.0
 40
0.0
 40
0.0
 40
0.2610981742
 40
1.0
 40
1.0
 40
1.0
 40
1.0
 10
18.8218096072
 20
78.2365603398
 30
0.0
 10
18.7626606081
 20
78.5044412135
 30
0.0
 10
18.560798442
 20
79.5354828198
 30
0.0
 10
18.460028898
 20
80.5880689816
 30
0.0
 10
18.460028898
 20
81.3644259457
 30
0.0
  0
SPLINE
  5
4D7
100
AcDbEntity
  8
00_COMPONENTS_1
100
AcDbSpline
 62
7
  6
CONTINUOUS
 70
0
 71
3
 72
9
 73
5
 74
0
 42
0.0000001
 43
0.0000001
 44
0.0000000001
 40
0.0
 40
0.0
 40
0.0
 40
0.0
 40
0.2633427925
 40
1.0
 40
1.0
 40
1.0
 40
1.0
 10
23.0910843875
 20
77.8742428818
 30
0.0
 10
23.0608023311
 20
77.8917258397
 30
0.0
 10
22.9440056818
 20
77.9548360937
 30
0.0
 10
22.8195541059
 20
78.0045620786
 30
0.0
 10
22.7250823782
 20
78.0299089234
 30
0.0
  0
SPLINE
  5
4D8
100
AcDbEntity
  8
00_COMPONENTS_1
100
AcDbSpline
 62
7
  6
CONTINUOUS
 70
0
 71
3
 72
9
 73
5
 74
0
 42
0.0000001
 43
0.0000001
 44
0.0000000001
 40
0.0
 40
0.0
 40
0.0
 40
0.0
 40
0.2553474775
 40
1.0
 40
1.0
 40
1.0
 40
1.0
 10
22.7250823782
 20
78.0299089234
 30
0.0
 10
22.7142099784
 20
78.0328259975
 30
0.0
 10
22.6714760569
 20
78.0436593165
 30
0.0
 10
22.6281210952
 20
78.0520795743
 30
0.0
 10
22.5956351468
 20
78.0568048647
 30
0.0
  0
SPLINE
  5
4D9
100
AcDbEntity
  8
00_COMPONENTS_1
100
AcDbSpline
 62
7
  6
CONTINUOUS
 70
0
 71
3
 72
9
 73
5
 74
0
 42
0.0000001
 43
0.0000001
 44
0.0000000001
 40
0.0
 40
0.0
 40
0.0
 40
0.0
 40
0.2583967509
 40
1.0
 40
1.0
 40
1.0
 40
1.0
 10
22.5956351468
 20
78.0568048647
 30
0.0
 10
22.5775603353
 20
78.0594339624
 30
0.0
 10
22.5073665668
 20
78.0677654308
 30
0.0
 10
22.4361662582
 20
78.068383051
 30
0.0
 10
22.383955356
 20
78.0636952206
 30
0.0
  0
SPLINE
  5
4DA
100
AcDbEntity
  8
00_COMPONENTS_1
100
AcDbSpline
 62
7
  6
CONTINUOUS
 70
0
 71
3
 72
9
 73
5
 74
0
 42
0.0000001
 43
0.0000001
 44
0.0000000001
 40
0.0
 40
0.0
 40
0.0
 40
0.0
 40
0.2579425317
 40
1.0
 40
1.0
 40
1.0
 40
1.0
 10
22.383955356
 20
78.0636952206
 30
0.0
 10
22.3575913141
 20
78.0613280875
 30
0.0
 10
22.2559220395
 20
78.0471704449
 30
0.0
 10
22.1570276181
 20
78.0113622856
 30
0.0
 10
22.0910802241
 20
77.9732864513
 30
0.0
  0
SPLINE
  5
4DB
100
AcDbEntity
  8
00_COMPONENTS_1
100
AcDbSpline
 62
7
  6
CONTINUOUS
 70
0
 71
3
 72
9
 73
5
 74
0
 42
0.0000001
 43
0.0000001
 44
0.0000000001
 40
0.0
 40
0.0
 40
0.0
 40
0.0
 40
0.2704329644
 40
1.0
 40
1.0
 40
1.0
 40
1.0
 10
34.5706954818
 20
81.2177810572
 30
0.0
 10
34.6480347838
 20
81.1723531898
 30
0.0
 10
34.9266725677
 20
80.9930348563
 30
0.0
 10
35.1769092567
 20
80.7633850589
 30
0.0
 10
35.3188442753
 20
80.567409891
 30
0.0
  0
SPLINE
  5
4DC
100
AcDbEntity
  8
00_COMPONENTS_1
100
AcDbSpline
 62
7
  6
CONTINUOUS
 70
0
 71
3
 72
9
 73
5
 74
0
 42
0.0000001
 43
0.0000001
 44
0.0000000001
 40
0.0
 40
0.0
 40
0.0
 40
0.0
 40
0.2450921518
 40
1.0
 40
1.0
 40
1.0
 40
1.0
 10
29.6209850094
 20
81.2426685852
 30
0.0
 10
29.6427148143
 20
81.2552130091
 30
0.0
 10
29.7319686684
 20
81.3053622738
 30
0.0
 10
29.8234857166
 20
81.351459584
 30
0.0
 10
29.8935285723
 20
81.3841170947
 30
0.0
  0
SPLINE
  5
4DD
100
AcDbEntity
  8
00_COMPONENTS_1
100
AcDbSpline
 62
7
  6
CONTINUOUS
 70
0
 71
3
 72
11
 73
7
 74
0
 42
0.0000001
 43
0.0000001
 44
0.0000000001
 40
0.0
 40
0.0
 40
0.0
 40
0.0
 40
0.2431731034
 40
0.5056772798
 40
0.765129845
 40
1.0
 40
1.0
 40
1.0
 40
1.0
 10
29.8935285723
 20
81.3841170947
 30
0.0
 10
30.2483194012
 20
81.5495384667
 30
0.0
 10
31.0388523223
 20
81.7831069559
 30
0.0
 10
32.275990847
 20
81.8668832675
 30
0.0
 10
33.4909773676
 20
81.6987632791
 30
0.0
 10
34.2446827303
 20
81.4092765852
 30
0.0
 10
34.5706954818
 20
81.2177810572
 30
0.0
  0
SPLINE
  5
4DE
100
AcDbEntity
  8
00_COMPONENTS_1
100
AcDbSpline
 62
7
  6
CONTINUOUS
 70
0
 71
3
 72
9
 73
5
 74
0
 42
0.0000001
 43
0.0000001
 44
0.0000000001
 40
0.0
 40
0.0
 40
0.0
 40
0.0
 40
0.2530694691
 40
1.0
 40
1.0
 40
1.0
 40
1.0
 10
35.2870931976
 20
68.835303113
 30
0.0
 10
34.6394720503
 20
69.2600086599
 30
0.0
 10
32.0689481268
 20
70.9206654286
 30
0.0
 10
29.452318086
 20
72.5101235706
 30
0.0
 10
27.4727413289
 20
73.6530076102
 30
0.0
  0
SPLINE
  5
4DF
100
AcDbEntity
  8
00_COMPONENTS_1
100
AcDbSpline
 62
7
  6
CONTINUOUS
 70
0
 71
3
 72
11
 73
7
 74
0
 42
0.0000001
 43
0.0000001
 44
0.0000000001
 40
0.0
 40
0.0
 40
0.0
 40
0.0
 40
0.2820408496
 40
0.5387063968
 40
0.7750668029
 40
1.0
 40
1.0
 40
1.0
 40
1.0
 10
25.0314044332
 20
87.6960728548
 30
0.0
 10
25.0980829809
 20
88.2575569175
 30
0.0
 10
25.3083447069
 20
89.3235107567
 30
0.0
 10
25.9042208822
 20
90.7713588291
 30
0.0
 10
26.7569642341
 20
91.9495939784
 30
0.0
 10
27.4938143925
 20
92.5323725642
 30
0.0
 10
27.8843546972
 20
92.7578193019
 30
0.0
  0
SPLINE
  5
4E0
100
AcDbEntity
  8
00_COMPONENTS_1
100
AcDbSpline
 62
7
  6
CONTINUOUS
 70
0
 71
3
 72
11
 73
7
 74
0
 42
0.0000001
 43
0.0000001
 44
0.0000000001
 40
0.0
 40
0.0
 40
0.0
 40
0.0
 40
0.2895405892
 40
0.5491151893
 40
0.7822516888
 40
1.0
 40
1.0
 40
1.0
 40
1.0
 10
20.6631953076
 20
86.4853880873
 30
0.0
 10
20.6631953076
 20
86.3841104823
 30
0.0
 10
20.6786587954
 20
86.1913978937
 30
0.0
 10
20.7565649652
 20
85.9265758333
 30
0.0
 10
20.8879817332
 20
85.7116172982
 30
0.0
 10
21.0115105442
 20
85.6079885283
 30
0.0
 10
21.0774708589
 20
85.569903981
 30
0.0
  0
SPLINE
  5
4E1
100
AcDbEntity
  8
00_COMPONENTS_1
100
AcDbSpline
 62
7
  6
CONTINUOUS
 70
0
 71
3
 72
11
 73
7
 74
0
 42
0.0000001
 43
0.0000001
 44
0.0000000001
 40
0.0
 40
0.0
 40
0.0
 40
0.0
 40
0.2372518718
 40
0.4999985497
 40
0.7627460178
 40
1.0
 40
1.0
 40
1.0
 40
1.0
 10
22.0774029821
 20
88.9348812293
 30
0.0
 10
21.876615049
 20
88.818956954
 30
0.0
 10
21.4966419818
 20
88.4992031345
 30
0.0
 10
21.0533314925
 20
87.8931392986
 30
0.0
 10
20.7501229812
 20
87.2061856787
 30
0.0
 10
20.6631953076
 20
86.717239738
 30
0.0
 10
20.6631953076
 20
86.4853880873
 30
0.0
  0
SPLINE
  5
4E2
100
AcDbEntity
  8
00_COMPONENTS_1
100
AcDbSpline
 62
7
  6
CONTINUOUS
 70
0
 71
3
 72
12
 73
8
 74
0
 42
0.0000001
 43
0.0000001
 44
0.0000000001
 40
0.0
 40
0.0
 40
0.0
 40
0.0
 40
0.1234272934
 40
0.2559964791
 40
0.5172175139
 40
0.7654429019
 40
1.0
 40
1.0
 40
1.0
 40
1.0
 10
65.6439291534
 20
38.1352332796
 30
0.0
 10
65.633071394
 20
38.2605233009
 30
0.0
 10
65.5498089743
 20
38.5140480959
 30
0.0
 10
65.2783529832
 20
38.9669850097
 30
0.0
 10
64.8361257827
 20
39.4563601806
 30
0.0
 10
64.2526116928
 20
39.9419443555
 30
0.0
 10
63.8403619156
 20
40.2126484959
 30
0.0
 10
63.6336703863
 20
40.3326256877
 30
0.0
  0
SPLINE
  5
4E3
100
AcDbEntity
  8
00_COMPONENTS_1
100
AcDbSpline
 62
7
  6
CONTINUOUS
 70
0
 71
3
 72
9
 73
5
 74
0
 42
0.0000001
 43
0.0000001
 44
0.0000000001
 40
0.0
 40
0.0
 40
0.0
 40
0.0
 40
0.2370086286
 40
1.0
 40
1.0
 40
1.0
 40
1.0
 10
73.0721920297
 20
40.1970813909
 30
0.0
 10
73.0721920297
 20
40.2954613434
 30
0.0
 10
73.0534434475
 20
40.710502786
 30
0.0
 10
72.965918237
 20
41.1210500398
 30
0.0
 10
72.8709976776
 20
41.4232014106
 30
0.0
  0
SPLINE
  5
4E4
100
AcDbEntity
  8
00_COMPONENTS_1
100
AcDbSpline
 62
7
  6
CONTINUOUS
 70
0
 71
3
 72
9
 73
5
 74
0
 42
0.0000001
 43
0.0000001
 44
0.0000000001
 40
0.0
 40
0.0
 40
0.0
 40
0.0
 40
0.2428635696
 40
1.0
 40
1.0
 40
1.0
 40
1.0
 10
72.8709976776
 20
41.4232014106
 30
0.0
 10
72.8180861668
 20
41.591629469
 30
0.0
 10
72.5635091952
 20
42.2733038814
 30
0.0
 10
72.1768433563
 20
42.9036596127
 30
0.0
 10
71.8312345158
 20
43.3319984692
 30
0.0
  0
SPLINE
  5
4E5
100
AcDbEntity
  8
00_COMPONENTS_1
100
AcDbSpline
 62
7
  6
CONTINUOUS
 70
0
 71
3
 72
9
 73
5
 74
0
 42
0.0000001
 43
0.0000001
 44
0.0000000001
 40
0.0
 40
0.0
 40
0.0
 40
0.0
 40
0.2565798451
 40
1.0
 40
1.0
 40
1.0
 40
1.0
 10
71.8312345158
 20
43.3319984692
 30
0.0
 10
71.7467326483
 20
43.4367279468
 30
0.0
 10
71.404360322
 20
43.8340724477
 30
0.0
 10
71.0103994406
 20
44.1880779429
 30
0.0
 10
70.6926878444
 20
44.4140955784
 30
0.0
  0
SPLINE
  5
4E6
100
AcDbEntity
  8
00_COMPONENTS_1
100
AcDbSpline
 62
7
  6
CONTINUOUS
 70
0
 71
3
 72
10
 73
6
 74
0
 42
0.0000001
 43
0.0000001
 44
0.0000000001
 40
0.0
 40
0.0
 40
0.0
 40
0.0
 40
0.2294562478
 40
0.4823248353
 40
1.0
 40
1.0
 40
1.0
 40
1.0
 10
23.4916224324
 20
87.3018973031
 30
0.0
 10
23.4173105489
 20
87.2589935733
 30
0.0
 10
23.2729688844
 20
87.1476528842
 30
0.0
 10
23.0257190398
 20
86.8657538945
 30
0.0
 10
22.8914994971
 20
86.6019462676
 30
0.0
 10
22.8370229062
 20
86.416178536
 30
0.0
  0
SPLINE
  5
4E7
100
AcDbEntity
  8
00_COMPONENTS_1
100
AcDbSpline
 62
7
  6
CONTINUOUS
 70
0
 71
3
 72
9
 73
5
 74
0
 42
0.0000001
 43
0.0000001
 44
0.0000000001
 40
0.0
 40
0.0
 40
0.0
 40
0.0
 40
0.5182709966
 40
1.0
 40
1.0
 40
1.0
 40
1.0
 10
63.5877537487
 20
92.079987306
 30
0.0
 10
62.6831671721
 20
88.8748320953
 30
0.0
 10
61.2935815094
 20
82.5825019432
 30
0.0
 10
60.7593383999
 20
76.1517169488
 30
0.0
 10
60.7593383999
 20
73.0561724416
 30
0.0
  0
SPLINE
  5
4E8
100
AcDbEntity
  8
00_COMPONENTS_1
100
AcDbSpline
 62
7
  6
CONTINUOUS
 70
0
 71
3
 72
10
 73
6
 74
0
 42
0.0000001
 43
0.0000001
 44
0.0000000001
 40
0.0
 40
0.0
 40
0.0
 40
0.0
 40
0.2698272511
 40
0.5264813953
 40
1.0
 40
1.0
 40
1.0
 40
1.0
 10
60.7593383999
 20
73.0561724416
 30
0.0
 10
60.7593383999
 20
71.6084900814
 30
0.0
 10
60.870224665
 20
68.7812065969
 30
0.0
 10
61.551314629
 20
63.456897759
 30
0.0
 10
62.606633526
 20
59.6417487817
 30
0.0
 10
63.5877537487
 20
57.2983108082
 30
0.0
  0
SPLINE
  5
4E9
100
AcDbEntity
  8
00_COMPONENTS_1
100
AcDbSpline
 62
7
  6
CONTINUOUS
 70
0
 71
3
 72
11
 73
7
 74
0
 42
0.0000001
 43
0.0000001
 44
0.0000000001
 40
0.0
 40
0.0
 40
0.0
 40
0.0
 40
0.2372444228
 40
0.5000010918
 40
0.7627571666
 40
1.0
 40
1.0
 40
1.0
 40
1.0
 10
29.855584935
 20
119.9211885417
 30
0.0
 10
29.855584935
 20
119.9733530626
 30
0.0
 10
29.8360140475
 20
120.0833618735
 30
0.0
 10
29.7678215402
 20
120.2379427364
 30
0.0
 10
29.6680464298
 20
120.3742888765
 30
0.0
 10
29.5825613117
 20
120.4462413258
 30
0.0
 10
29.5373855587
 20
120.4723229689
 30
0.0
  0
SPLINE
  5
4EA
100
AcDbEntity
  8
00_COMPONENTS_1
100
AcDbSpline
 62
7
  6
CONTINUOUS
 70
0
 71
3
 72
11
 73
7
 74
0
 42
0.0000001
 43
0.0000001
 44
0.0000000001
 40
0.0
 40
0.0
 40
0.0
 40
0.0
 40
0.2372444228
 40
0.5000010918
 40
0.7627571666
 40
1.0
 40
1.0
 40
1.0
 40
1.0
 10
33.5325555057
 20
117.7983366182
 30
0.0
 10
33.5325555057
 20
117.8505011391
 30
0.0
 10
33.5129846183
 20
117.96050995
 30
0.0
 10
33.4447921109
 20
118.1150908129
 30
0.0
 10
33.3450170006
 20
118.251436953
 30
0.0
 10
33.2595318825
 20
118.3233894023
 30
0.0
 10
33.2143561294
 20
118.3494710454
 30
0.0
  0
SPLINE
  5
4EB
100
AcDbEntity
  8
00_COMPONENTS_1
100
AcDbSpline
 62
7
  6
CONTINUOUS
 70
0
 71
3
 72
11
 73
7
 74
0
 42
0.0000001
 43
0.0000001
 44
0.0000000001
 40
0.0
 40
0.0
 40
0.0
 40
0.0
 40
0.2372444228
 40
0.5000010918
 40
0.7627571666
 40
1.0
 40
1.0
 40
1.0
 40
1.0
 10
37.2095260765
 20
115.6754846947
 30
0.0
 10
37.2095260765
 20
115.7276492156
 30
0.0
 10
37.1899551891
 20
115.8376580265
 30
0.0
 10
37.1217626817
 20
115.9922388894
 30
0.0
 10
37.0219875714
 20
116.1285850295
 30
0.0
 10
36.9365024533
 20
116.2005374788
 30
0.0
 10
36.8913267002
 20
116.2266191219
 30
0.0
  0
SPLINE
  5
4EC
100
AcDbEntity
  8
00_COMPONENTS_1
100
AcDbSpline
 62
7
  6
CONTINUOUS
 70
0
 71
3
 72
11
 73
7
 74
0
 42
0.0000001
 43
0.0000001
 44
0.0000000001
 40
0.0
 40
0.0
 40
0.0
 40
0.0
 40
0.2372444228
 40
0.5000010918
 40
0.7627571666
 40
1.0
 40
1.0
 40
1.0
 40
1.0
 10
40.8864966473
 20
113.5526327712
 30
0.0
 10
40.8864966473
 20
113.6047972921
 30
0.0
 10
40.8669257598
 20
113.714806103
 30
0.0
 10
40.7987332525
 20
113.8693869659
 30
0.0
 10
40.6989581421
 20
114.0057331059
 30
0.0
 10
40.613473024
 20
114.0776855553
 30
0.0
 10
40.5682972709
 20
114.1037671984
 30
0.0
  0
SPLINE
  5
4ED
100
AcDbEntity
  8
00_COMPONENTS_1
100
AcDbSpline
 62
7
  6
CONTINUOUS
 70
0
 71
3
 72
11
 73
7
 74
0
 42
0.0000001
 43
0.0000001
 44
0.0000000001
 40
0.0
 40
0.0
 40
0.0
 40
0.0
 40
0.2372444228
 40
0.5000010918
 40
0.7627571666
 40
1.0
 40
1.0
 40
1.0
 40
1.0
 10
44.563467218
 20
111.4297808477
 30
0.0
 10
44.563467218
 20
111.4819453685
 30
0.0
 10
44.5438963306
 20
111.5919541795
 30
0.0
 10
44.4757038232
 20
111.7465350424
 30
0.0
 10
44.3759287129
 20
111.8828811824
 30
0.0
 10
44.2904435948
 20
111.9548336318
 30
0.0
 10
44.2452678417
 20
111.9809152749
 30
0.0
  0
SPLINE
  5
4EE
100
AcDbEntity
  8
00_COMPONENTS_1
100
AcDbSpline
 62
7
  6
CONTINUOUS
 70
0
 71
3
 72
11
 73
7
 74
0
 42
0.0000001
 43
0.0000001
 44
0.0000000001
 40
0.0
 40
0.0
 40
0.0
 40
0.0
 40
0.2372444228
 40
0.5000010918
 40
0.7627571666
 40
1.0
 40
1.0
 40
1.0
 40
1.0
 10
48.2404377888
 20
109.3069289242
 30
0.0
 10
48.2404377888
 20
109.359093445
 30
0.0
 10
48.2208669014
 20
109.469102256
 30
0.0
 10
48.152674394
 20
109.6236831189
 30
0.0
 10
48.0528992837
 20
109.7600292589
 30
0.0
 10
47.9674141656
 20
109.8319817083
 30
0.0
 10
47.9222384125
 20
109.8580633514
 30
0.0
  0
SPLINE
  5
4EF
100
AcDbEntity
  8
00_COMPONENTS_1
100
AcDbSpline
 62
7
  6
CONTINUOUS
 70
0
 71
3
 72
11
 73
7
 74
0
 42
0.0000001
 43
0.0000001
 44
0.0000000001
 40
0.0
 40
0.0
 40
0.0
 40
0.0
 40
0.2372444228
 40
0.5000010918
 40
0.7627571666
 40
1.0
 40
1.0
 40
1.0
 40
1.0
 10
51.9174083596
 20
107.1840770007
 30
0.0
 10
51.9174083596
 20
107.2362415215
 30
0.0
 10
51.8978374721
 20
107.3462503325
 30
0.0
 10
51.8296449648
 20
107.5008311954
 30
0.0
 10
51.7298698544
 20
107.6371773354
 30
0.0
 10
51.6443847363
 20
107.7091297847
 30
0.0
 10
51.5992089832
 20
107.7352114279
 30
0.0
  0
SPLINE
  5
4F0
100
AcDbEntity
  8
00_COMPONENTS_1
100
AcDbSpline
 62
7
  6
CONTINUOUS
 70
0
 71
3
 72
11
 73
7
 74
0
 42
0.0000001
 43
0.0000001
 44
0.0000000001
 40
0.0
 40
0.0
 40
0.0
 40
0.0
 40
0.2372444228
 40
0.5000010918
 40
0.7627571666
 40
1.0
 40
1.0
 40
1.0
 40
1.0
 10
51.9174083596
 20
105.8368480124
 30
0.0
 10
51.9174083596
 20
105.8890125333
 30
0.0
 10
51.8978374721
 20
105.9990213442
 30
0.0
 10
51.8296449648
 20
106.1536022071
 30
0.0
 10
51.7298698544
 20
106.2899483472
 30
0.0
 10
51.6443847363
 20
106.3619007965
 30
0.0
 10
51.5992089832
 20
106.3879824396
 30
0.0
  0
SPLINE
  5
4F1
100
AcDbEntity
  8
00_COMPONENTS_1
100
AcDbSpline
 62
7
  6
CONTINUOUS
 70
0
 71
3
 72
11
 73
7
 74
0
 42
0.0000001
 43
0.0000001
 44
0.0000000001
 40
0.0
 40
0.0
 40
0.0
 40
0.0
 40
0.2372444228
 40
0.5000010918
 40
0.7627571666
 40
1.0
 40
1.0
 40
1.0
 40
1.0
 10
51.9174083596
 20
104.4896190241
 30
0.0
 10
51.9174083596
 20
104.541783545
 30
0.0
 10
51.8978374721
 20
104.651792356
 30
0.0
 10
51.8296449648
 20
104.8063732189
 30
0.0
 10
51.7298698544
 20
104.9427193589
 30
0.0
 10
51.6443847363
 20
105.0146718082
 30
0.0
 10
51.5992089832
 20
105.0407534514
 30
0.0
  0
SPLINE
  5
4F2
100
AcDbEntity
  8
00_COMPONENTS_1
100
AcDbSpline
 62
7
  6
CONTINUOUS
 70
0
 71
3
 72
11
 73
7
 74
0
 42
0.0000001
 43
0.0000001
 44
0.0000000001
 40
0.0
 40
0.0
 40
0.0
 40
0.0
 40
0.2372444228
 40
0.5000010918
 40
0.7627571666
 40
1.0
 40
1.0
 40
1.0
 40
1.0
 10
48.2404377888
 20
106.6124709476
 30
0.0
 10
48.2404377888
 20
106.6646354685
 30
0.0
 10
48.2208669014
 20
106.7746442795
 30
0.0
 10
48.152674394
 20
106.9292251424
 30
0.0
 10
48.0528992837
 20
107.0655712824
 30
0.0
 10
47.9674141656
 20
107.1375237317
 30
0.0
 10
47.9222384125
 20
107.1636053749
 30
0.0
  0
SPLINE
  5
4F3
100
AcDbEntity
  8
00_COMPONENTS_1
100
AcDbSpline
 62
7
  6
CONTINUOUS
 70
0
 71
3
 72
11
 73
7
 74
0
 42
0.0000001
 43
0.0000001
 44
0.0000000001
 40
0.0
 40
0.0
 40
0.0
 40
0.0
 40
0.2372444228
 40
0.5000010918
 40
0.7627571666
 40
1.0
 40
1.0
 40
1.0
 40
1.0
 10
48.2404377888
 20
107.9596999359
 30
0.0
 10
48.2404377888
 20
108.0118644568
 30
0.0
 10
48.2208669014
 20
108.1218732677
 30
0.0
 10
48.152674394
 20
108.2764541306
 30
0.0
 10
48.0528992837
 20
108.4128002707
 30
0.0
 10
47.9674141656
 20
108.48475272
 30
0.0
 10
47.9222384125
 20
108.5108343631
 30
0.0
  0
SPLINE
  5
4F4
100
AcDbEntity
  8
00_COMPONENTS_1
100
AcDbSpline
 62
7
  6
CONTINUOUS
 70
0
 71
3
 72
11
 73
7
 74
0
 42
0.0000001
 43
0.0000001
 44
0.0000000001
 40
0.0
 40
0.0
 40
0.0
 40
0.0
 40
0.2372444228
 40
0.5000010918
 40
0.7627571666
 40
1.0
 40
1.0
 40
1.0
 40
1.0
 10
44.563467218
 20
108.7353228711
 30
0.0
 10
44.563467218
 20
108.787487392
 30
0.0
 10
44.5438963306
 20
108.897496203
 30
0.0
 10
44.4757038232
 20
109.0520770659
 30
0.0
 10
44.3759287129
 20
109.1884232059
 30
0.0
 10
44.2904435948
 20
109.2603756552
 30
0.0
 10
44.2452678417
 20
109.2864572984
 30
0.0
  0
SPLINE
  5
4F5
100
AcDbEntity
  8
00_COMPONENTS_1
100
AcDbSpline
 62
7
  6
CONTINUOUS
 70
0
 71
3
 72
11
 73
7
 74
0
 42
0.0000001
 43
0.0000001
 44
0.0000000001
 40
0.0
 40
0.0
 40
0.0
 40
0.0
 40
0.2372444228
 40
0.5000010918
 40
0.7627571666
 40
1.0
 40
1.0
 40
1.0
 40
1.0
 10
40.8864966473
 20
110.8581747947
 30
0.0
 10
40.8864966473
 20
110.9103393155
 30
0.0
 10
40.8669257598
 20
111.0203481265
 30
0.0
 10
40.7987332525
 20
111.1749289894
 30
0.0
 10
40.6989581421
 20
111.3112751294
 30
0.0
 10
40.613473024
 20
111.3832275787
 30
0.0
 10
40.5682972709
 20
111.4093092219
 30
0.0
  0
SPLINE
  5
4F6
100
AcDbEntity
  8
00_COMPONENTS_1
100
AcDbSpline
 62
7
  6
CONTINUOUS
 70
0
 71
3
 72
11
 73
7
 74
0
 42
0.0000001
 43
0.0000001
 44
0.0000000001
 40
0.0
 40
0.0
 40
0.0
 40
0.0
 40
0.2372444228
 40
0.5000010918
 40
0.7627571666
 40
1.0
 40
1.0
 40
1.0
 40
1.0
 10
44.563467218
 20
110.0825518594
 30
0.0
 10
44.563467218
 20
110.1347163803
 30
0.0
 10
44.5438963306
 20
110.2447251913
 30
0.0
 10
44.4757038232
 20
110.3993060541
 30
0.0
 10
44.3759287129
 20
110.5356521942
 30
0.0
 10
44.2904435948
 20
110.6076046435
 30
0.0
 10
44.2452678417
 20
110.6336862867
 30
0.0
  0
SPLINE
  5
4F7
100
AcDbEntity
  8
00_COMPONENTS_1
100
AcDbSpline
 62
7
  6
CONTINUOUS
 70
0
 71
3
 72
11
 73
7
 74
0
 42
0.0000001
 43
0.0000001
 44
0.0000000001
 40
0.0
 40
0.0
 40
0.0
 40
0.0
 40
0.2372444228
 40
0.5000010918
 40
0.7627571666
 40
1.0
 40
1.0
 40
1.0
 40
1.0
 10
40.8864966473
 20
112.2054037829
 30
0.0
 10
40.8864966473
 20
112.2575683038
 30
0.0
 10
40.8669257598
 20
112.3675771148
 30
0.0
 10
40.7987332525
 20
112.5221579776
 30
0.0
 10
40.6989581421
 20
112.6585041177
 30
0.0
 10
40.613473024
 20
112.730456567
 30
0.0
 10
40.5682972709
 20
112.7565382102
 30
0.0
  0
SPLINE
  5
4F8
100
AcDbEntity
  8
00_COMPONENTS_1
100
AcDbSpline
 62
7
  6
CONTINUOUS
 70
0
 71
3
 72
11
 73
7
 74
0
 42
0.0000001
 43
0.0000001
 44
0.0000000001
 40
0.0
 40
0.0
 40
0.0
 40
0.0
 40
0.2372444228
 40
0.5000010918
 40
0.7627571666
 40
1.0
 40
1.0
 40
1.0
 40
1.0
 10
37.2095260765
 20
114.3282557064
 30
0.0
 10
37.2095260765
 20
114.3804202273
 30
0.0
 10
37.1899551891
 20
114.4904290383
 30
0.0
 10
37.1217626817
 20
114.6450099012
 30
0.0
 10
37.0219875714
 20
114.7813560412
 30
0.0
 10
36.9365024533
 20
114.8533084905
 30
0.0
 10
36.8913267002
 20
114.8793901337
 30
0.0
  0
SPLINE
  5
4F9
100
AcDbEntity
  8
00_COMPONENTS_1
100
AcDbSpline
 62
7
  6
CONTINUOUS
 70
0
 71
3
 72
11
 73
7
 74
0
 42
0.0000001
 43
0.0000001
 44
0.0000000001
 40
0.0
 40
0.0
 40
0.0
 40
0.0
 40
0.2372444228
 40
0.5000010918
 40
0.7627571666
 40
1.0
 40
1.0
 40
1.0
 40
1.0
 10
37.2095260765
 20
112.9810267182
 30
0.0
 10
37.2095260765
 20
113.033191239
 30
0.0
 10
37.1899551891
 20
113.14320005
 30
0.0
 10
37.1217626817
 20
113.2977809129
 30
0.0
 10
37.0219875714
 20
113.4341270529
 30
0.0
 10
36.9365024533
 20
113.5060795022
 30
0.0
 10
36.8913267002
 20
113.5321611454
 30
0.0
  0
SPLINE
  5
4FA
100
AcDbEntity
  8
00_COMPONENTS_1
100
AcDbSpline
 62
7
  6
CONTINUOUS
 70
0
 71
3
 72
11
 73
7
 74
0
 42
0.0000001
 43
0.0000001
 44
0.0000000001
 40
0.0
 40
0.0
 40
0.0
 40
0.0
 40
0.2372444228
 40
0.5000010918
 40
0.7627571666
 40
1.0
 40
1.0
 40
1.0
 40
1.0
 10
33.5325555057
 20
115.1038786417
 30
0.0
 10
33.5325555057
 20
115.1560431625
 30
0.0
 10
33.5129846183
 20
115.2660519735
 30
0.0
 10
33.4447921109
 20
115.4206328364
 30
0.0
 10
33.3450170006
 20
115.5569789764
 30
0.0
 10
33.2595318825
 20
115.6289314257
 30
0.0
 10
33.2143561294
 20
115.6550130689
 30
0.0
  0
SPLINE
  5
4FB
100
AcDbEntity
  8
00_COMPONENTS_1
100
AcDbSpline
 62
7
  6
CONTINUOUS
 70
0
 71
3
 72
11
 73
7
 74
0
 42
0.0000001
 43
0.0000001
 44
0.0000000001
 40
0.0
 40
0.0
 40
0.0
 40
0.0
 40
0.2372444228
 40
0.5000010918
 40
0.7627571666
 40
1.0
 40
1.0
 40
1.0
 40
1.0
 10
33.5325555057
 20
116.4511076299
 30
0.0
 10
33.5325555057
 20
116.5032721508
 30
0.0
 10
33.5129846183
 20
116.6132809618
 30
0.0
 10
33.4447921109
 20
116.7678618247
 30
0.0
 10
33.3450170006
 20
116.9042079647
 30
0.0
 10
33.2595318825
 20
116.976160414
 30
0.0
 10
33.2143561294
 20
117.0022420572
 30
0.0
  0
SPLINE
  5
4FC
100
AcDbEntity
  8
00_COMPONENTS_1
100
AcDbSpline
 62
7
  6
CONTINUOUS
 70
0
 71
3
 72
11
 73
7
 74
0
 42
0.0000001
 43
0.0000001
 44
0.0000000001
 40
0.0
 40
0.0
 40
0.0
 40
0.0
 40
0.2372444228
 40
0.5000010918
 40
0.7627571666
 40
1.0
 40
1.0
 40
1.0
 40
1.0
 10
29.855584935
 20
118.5739595534
 30
0.0
 10
29.855584935
 20
118.6261240743
 30
0.0
 10
29.8360140475
 20
118.7361328853
 30
0.0
 10
29.7678215402
 20
118.8907137482
 30
0.0
 10
29.6680464298
 20
119.0270598882
 30
0.0
 10
29.5825613117
 20
119.0990123375
 30
0.0
 10
29.5373855587
 20
119.1250939807
 30
0.0
  0
SPLINE
  5
4FD
100
AcDbEntity
  8
00_COMPONENTS_1
100
AcDbSpline
 62
7
  6
CONTINUOUS
 70
0
 71
3
 72
11
 73
7
 74
0
 42
0.0000001
 43
0.0000001
 44
0.0000000001
 40
0.0
 40
0.0
 40
0.0
 40
0.0
 40
0.2372444228
 40
0.5000010918
 40
0.7627571666
 40
1.0
 40
1.0
 40
1.0
 40
1.0
 10
29.855584935
 20
117.2267305652
 30
0.0
 10
29.855584935
 20
117.278895086
 30
0.0
 10
29.8360140475
 20
117.388903897
 30
0.0
 10
29.7678215402
 20
117.5434847599
 30
0.0
 10
29.6680464298
 20
117.6798308999
 30
0.0
 10
29.5825613117
 20
117.7517833493
 30
0.0
 10
29.5373855587
 20
117.7778649924
 30
0.0
  0
SPLINE
  5
4FE
100
AcDbEntity
  8
00_COMPONENTS_1
100
AcDbSpline
 62
7
  6
CONTINUOUS
 70
0
 71
3
 72
9
 73
5
 74
0
 42
0.0000001
 43
0.0000001
 44
0.0000000001
 40
0.0
 40
0.0
 40
0.0
 40
0.0
 40
0.2425339692
 40
1.0
 40
1.0
 40
1.0
 40
1.0
 10
58.3097804279
 20
138.4723192011
 30
0.0
 10
58.3097804279
 20
138.5174391033
 30
0.0
 10
58.3062142387
 20
138.7034673529
 30
0.0
 10
58.2890490965
 20
138.8891525883
 30
0.0
 10
58.269646767
 20
139.0287259562
 30
0.0
  0
SPLINE
  5
4FF
100
AcDbEntity
  8
00_COMPONENTS_1
100
AcDbSpline
 62
7
  6
CONTINUOUS
 70
0
 71
3
 72
17
 73
13
 74
0
 42
0.0000001
 43
0.0000001
 44
0.0000000001
 40
0.0
 40
0.0
 40
0.0
 40
0.0
 40
0.1365809644
 40
0.2819604822
 40
0.4294321853
 40
0.5716096862
 40
0.7021324615
 40
0.8161892665
 40
0.8669256395
 40
0.9138042782
 40
0.9576942284
 40
1.0
 40
1.0
 40
1.0
 40
1.0
 10
58.269646767
 20
139.0287259562
 30
0.0
 10
58.2245045537
 20
139.3534627735
 30
0.0
 10
58.0600959928
 20
140.014976099
 30
0.0
 10
57.6424518776
 20
140.9618258703
 30
0.0
 10
57.0777280479
 20
141.8453488171
 30
0.0
 10
56.4028920472
 20
142.6010960673
 30
0.0
 10
55.6718107817
 20
143.1815894701
 30
0.0
 10
55.0251214373
 20
143.4935749066
 30
0.0
 10
54.5273427913
 20
143.6053530468
 30
0.0
 10
54.1857847848
 20
143.6205429052
 30
0.0
 10
53.868347891
 20
143.566339301
 30
0.0
 10
53.6759375791
 20
143.4841935017
 30
0.0
 10
53.5880046386
 20
143.433389776
 30
0.0
  0
SPLINE
  5
500
100
AcDbEntity
  8
00_COMPONENTS_1
100
AcDbSpline
 62
7
  6
CONTINUOUS
 70
0
 71
3
 72
9
 73
5
 74
0
 42
0.0000001
 43
0.0000001
 44
0.0000000001
 40
0.0
 40
0.0
 40
0.0
 40
0.0
 40
0.2369977323
 40
1.0
 40
1.0
 40
1.0
 40
1.0
 10
71.5165635878
 20
131.8086681144
 30
0.0
 10
71.5165635878
 20
131.9070398816
 30
0.0
 10
71.4976578849
 20
132.3220658924
 30
0.0
 10
71.4100809691
 20
132.7325443596
 30
0.0
 10
71.3153552735
 20
133.0347492611
 30
0.0
  0
SPLINE
  5
501
100
AcDbEntity
  8
00_COMPONENTS_1
100
AcDbSpline
 62
7
  6
CONTINUOUS
 70
0
 71
3
 72
9
 73
5
 74
0
 42
0.0000001
 43
0.0000001
 44
0.0000000001
 40
0.0
 40
0.0
 40
0.0
 40
0.0
 40
0.4916424424
 40
1.0
 40
1.0
 40
1.0
 40
1.0
 10
71.3153552735
 20
133.0347492611
 30
0.0
 10
71.2083494071
 20
133.3761317876
 30
0.0
 10
70.9156163235
 20
134.0480891403
 30
0.0
 10
70.5077579583
 20
134.6556745521
 30
0.0
 10
70.2756562504
 20
134.9437233755
 30
0.0
  0
SPLINE
  5
502
100
AcDbEntity
  8
00_COMPONENTS_1
100
AcDbSpline
 62
7
  6
CONTINUOUS
 70
0
 71
3
 72
9
 73
5
 74
0
 42
0.0000001
 43
0.0000001
 44
0.0000000001
 40
0.0
 40
0.0
 40
0.0
 40
0.0
 40
0.2578900337
 40
1.0
 40
1.0
 40
1.0
 40
1.0
 10
70.2756562504
 20
134.9437233755
 30
0.0
 10
70.1813014013
 20
135.0608220538
 30
0.0
 10
69.7991226355
 20
135.5013103972
 30
0.0
 10
69.3521078506
 20
135.8870552758
 30
0.0
 10
68.9910215962
 20
136.1255597605
 30
0.0
  0
SPLINE
  5
503
100
AcDbEntity
  8
00_COMPONENTS_1
100
AcDbSpline
 62
7
  6
CONTINUOUS
 70
0
 71
3
 72
11
 73
7
 74
0
 42
0.0000001
 43
0.0000001
 44
0.0000000001
 40
0.0
 40
0.0
 40
0.0
 40
0.0
 40
0.2919608983
 40
0.5542432333
 40
0.7874641707
 40
1.0
 40
1.0
 40
1.0
 40
1.0
 10
68.9910215962
 20
136.1255597605
 30
0.0
 10
68.7643159971
 20
136.2753032123
 30
0.0
 10
68.3085417648
 20
136.5247509973
 30
0.0
 10
67.5995786986
 20
136.7338257531
 30
0.0
 10
66.9311152332
 20
136.7519449479
 30
0.0
 10
66.5272977448
 20
136.6153723159
 30
0.0
 10
66.3560394325
 20
136.5164333367
 30
0.0
  0
SPLINE
  5
504
100
AcDbEntity
  8
00_COMPONENTS_1
100
AcDbSpline
 62
7
  6
CONTINUOUS
 70
0
 71
3
 72
9
 73
5
 74
0
 42
0.0000001
 43
0.0000001
 44
0.0000000001
 40
0.0
 40
0.0
 40
0.0
 40
0.0
 40
0.2434718081
 40
1.0
 40
1.0
 40
1.0
 40
1.0
 10
46.2538721521
 20
145.8004242482
 30
0.0
 10
46.2538721521
 20
145.8360969253
 30
0.0
 10
46.2518543883
 20
145.98261032
 30
0.0
 10
46.2420858616
 20
146.128986676
 30
0.0
 10
46.2309546757
 20
146.2392703381
 30
0.0
  0
SPLINE
  5
505
100
AcDbEntity
  8
00_COMPONENTS_1
100
AcDbSpline
 62
7
  6
CONTINUOUS
 70
0
 71
3
 72
11
 73
7
 74
0
 42
0.0000001
 43
0.0000001
 44
0.0000000001
 40
0.0
 40
0.0
 40
0.0
 40
0.0
 40
0.2425759156
 40
0.5022159518
 40
0.7607780869
 40
1.0
 40
1.0
 40
1.0
 40
1.0
 10
46.2309546757
 20
146.2392703381
 30
0.0
 10
46.1927843822
 20
146.6174474538
 30
0.0
 10
46.0244196222
 20
147.3923721215
 30
0.0
 10
45.5704409045
 20
148.499949413
 30
0.0
 10
44.9503277027
 20
149.517597035
 30
0.0
 10
44.432446022
 20
150.1084672273
 30
0.0
 10
44.1558604273
 20
150.361464727
 30
0.0
  0
SPLINE
  5
506
100
AcDbEntity
  8
00_COMPONENTS_1
100
AcDbSpline
 62
7
  6
CONTINUOUS
 70
0
 71
3
 72
12
 73
8
 74
0
 42
0.0000001
 43
0.0000001
 44
0.0000000001
 40
0.0
 40
0.0
 40
0.0
 40
0.0
 40
0.3097938608
 40
0.5750145223
 40
0.7991038771
 40
0.9008650164
 40
1.0
 40
1.0
 40
1.0
 40
1.0
 10
44.1558604273
 20
150.361464727
 30
0.0
 10
43.9709865206
 20
150.5305720017
 30
0.0
 10
43.6023967955
 20
150.8195618963
 30
0.0
 10
43.0159438298
 20
151.1038468846
 30
0.0
 10
42.5318207236
 20
151.1804348952
 30
0.0
 10
42.1906185725
 20
151.1198440479
 30
0.0
 10
42.0398716615
 20
151.054735083
 30
0.0
 10
41.9704553955
 20
151.0146136465
 30
0.0
  0
SPLINE
  5
507
100
AcDbEntity
  8
00_COMPONENTS_1
100
AcDbSpline
 62
7
  6
CONTINUOUS
 70
0
 71
3
 72
11
 73
7
 74
0
 42
0.0000001
 43
0.0000001
 44
0.0000000001
 40
0.0
 40
0.0
 40
0.0
 40
0.0
 40
0.4373527966
 40
0.5681818407
 40
0.7063242185
 40
1.0
 40
1.0
 40
1.0
 40
1.0
 10
77.0936241358
 20
164.2181573433
 30
0.0
 10
77.6211491934
 20
163.155165527
 30
0.0
 10
78.8911915699
 20
162.0777782549
 30
0.0
 10
80.5948674551
 20
161.2197383865
 30
0.0
 10
82.0215984306
 20
160.6648202314
 30
0.0
 10
83.1664262877
 20
160.388262333
 30
0.0
 10
83.9525884697
 20
160.2582220245
 30
0.0
  0
SPLINE
  5
508
100
AcDbEntity
  8
00_COMPONENTS_1
100
AcDbSpline
 62
7
  6
CONTINUOUS
 70
0
 71
3
 72
11
 73
7
 74
0
 42
0.0000001
 43
0.0000001
 44
0.0000000001
 40
0.0
 40
0.0
 40
0.0
 40
0.0
 40
0.2896494422
 40
0.5491389343
 40
0.7822598273
 40
1.0
 40
1.0
 40
1.0
 40
1.0
 10
99.4772233433
 20
168.8947253222
 30
0.0
 10
99.5649635984
 20
168.9453818797
 30
0.0
 10
99.7241717044
 20
169.0550804989
 30
0.0
 10
99.914475296
 20
169.2550478465
 30
0.0
 10
100.0348913735
 20
169.4762816081
 30
0.0
 10
100.0629754588
 20
169.6350457326
 30
0.0
 10
100.0629935838
 20
169.711206878
 30
0.0
  0
SPLINE
  5
509
100
AcDbEntity
  8
00_COMPONENTS_1
100
AcDbSpline
 62
7
  6
CONTINUOUS
 70
0
 71
3
 72
11
 73
7
 74
0
 42
0.0000001
 43
0.0000001
 44
0.0000000001
 40
0.0
 40
0.0
 40
0.0
 40
0.0
 40
0.4373527966
 40
0.5681818407
 40
0.7063242185
 40
1.0
 40
1.0
 40
1.0
 40
1.0
 10
89.4680443259
 20
157.0739441392
 30
0.0
 10
89.9955693835
 20
156.0109523229
 30
0.0
 10
91.26561176
 20
154.9335650508
 30
0.0
 10
92.9692876452
 20
154.0755251824
 30
0.0
 10
94.3960186207
 20
153.5206070273
 30
0.0
 10
95.5408464778
 20
153.2440491289
 30
0.0
 10
96.3270086598
 20
153.1140088204
 30
0.0
  0
SPLINE
  5
50A
100
AcDbEntity
  8
00_COMPONENTS_1
100
AcDbSpline
 62
7
  6
CONTINUOUS
 70
0
 71
3
 72
11
 73
7
 74
0
 42
0.0000001
 43
0.0000001
 44
0.0000000001
 40
0.0
 40
0.0
 40
0.0
 40
0.0
 40
0.2896494422
 40
0.5491389343
 40
0.7822598273
 40
1.0
 40
1.0
 40
1.0
 40
1.0
 10
111.8516435334
 20
161.7505121181
 30
0.0
 10
111.9393837885
 20
161.8011686756
 30
0.0
 10
112.0985918944
 20
161.9108672948
 30
0.0
 10
112.2888954861
 20
162.1108346424
 30
0.0
 10
112.4093115636
 20
162.332068404
 30
0.0
 10
112.4373956489
 20
162.4908325285
 30
0.0
 10
112.4374137738
 20
162.5669936739
 30
0.0
  0
SPLINE
  5
50B
100
AcDbEntity
  8
00_COMPONENTS_1
100
AcDbSpline
 62
7
  6
CONTINUOUS
 70
0
 71
3
 72
11
 73
7
 74
0
 42
0.0000001
 43
0.0000001
 44
0.0000000001
 40
0.0
 40
0.0
 40
0.0
 40
0.0
 40
0.4373527966
 40
0.5681818407
 40
0.7063242185
 40
1.0
 40
1.0
 40
1.0
 40
1.0
 10
64.7192039457
 20
171.3623705475
 30
0.0
 10
65.2467290033
 20
170.2993787311
 30
0.0
 10
66.5167713798
 20
169.221991459
 30
0.0
 10
68.2204472651
 20
168.3639515907
 30
0.0
 10
69.6471782406
 20
167.8090334355
 30
0.0
 10
70.7920060976
 20
167.5324755371
 30
0.0
 10
71.5781682797
 20
167.4024352286
 30
0.0
  0
SPLINE
  5
50C
100
AcDbEntity
  8
00_COMPONENTS_1
100
AcDbSpline
 62
7
  6
CONTINUOUS
 70
0
 71
3
 72
11
 73
7
 74
0
 42
0.0000001
 43
0.0000001
 44
0.0000000001
 40
0.0
 40
0.0
 40
0.0
 40
0.0
 40
0.2896494422
 40
0.5491389343
 40
0.7822598273
 40
1.0
 40
1.0
 40
1.0
 40
1.0
 10
87.1028031532
 20
176.0389385263
 30
0.0
 10
87.1905434083
 20
176.0895950838
 30
0.0
 10
87.3497515143
 20
176.199293703
 30
0.0
 10
87.5400551059
 20
176.3992610506
 30
0.0
 10
87.6604711835
 20
176.6204948122
 30
0.0
 10
87.6885552687
 20
176.7792589367
 30
0.0
 10
87.6885733937
 20
176.8554200821
 30
0.0
  0
SPLINE
  5
50D
100
AcDbEntity
  8
00_COMPONENTS_1
100
AcDbSpline
 62
7
  6
CONTINUOUS
 70
0
 71
3
 72
14
 73
10
 74
0
 42
0.0000001
 43
0.0000001
 44
0.0000000001
 40
0.0
 40
0.0
 40
0.0
 40
0.0
 40
0.1255724234
 40
0.2681239673
 40
0.4190421699
 40
0.5691241461
 40
0.7085391726
 40
0.8289742294
 40
1.0
 40
1.0
 40
1.0
 40
1.0
 10
121.2136262108
 20
163.791610015
 30
0.0
 10
121.2510878973
 20
163.7759123325
 30
0.0
 10
121.3356614573
 20
163.7533152258
 30
0.0
 10
121.4711797156
 20
163.7417393122
 30
0.0
 10
121.6149156868
 20
163.751296884
 30
0.0
 10
121.754642216
 20
163.7802955031
 30
0.0
 10
121.8800637309
 20
163.8275839966
 30
0.0
 10
121.9984495391
 20
163.8964328452
 30
0.0
 10
122.0670753825
 20
163.9826137529
 30
0.0
 10
122.067119884
 20
164.037933751
 30
0.0
  0
SPLINE
  5
50E
100
AcDbEntity
  8
00_COMPONENTS_1
100
AcDbSpline
 62
7
  6
CONTINUOUS
 70
0
 71
3
 72
14
 73
10
 74
0
 42
0.0000001
 43
0.0000001
 44
0.0000000001
 40
0.0
 40
0.0
 40
0.0
 40
0.0
 40
0.1255724234
 40
0.2681239673
 40
0.4190421699
 40
0.5691241461
 40
0.7085391726
 40
0.8289742294
 40
1.0
 40
1.0
 40
1.0
 40
1.0
 10
123.3349377225
 20
165.0163424767
 30
0.0
 10
123.372399409
 20
165.0006447941
 30
0.0
 10
123.456972969
 20
164.9780476874
 30
0.0
 10
123.5924912272
 20
164.9664717738
 30
0.0
 10
123.7362271984
 20
164.9760293456
 30
0.0
 10
123.8759537276
 20
165.0050279647
 30
0.0
 10
124.0013752426
 20
165.0523164582
 30
0.0
 10
124.1197610507
 20
165.1211653068
 30
0.0
 10
124.1883868942
 20
165.2073462145
 30
0.0
 10
124.1884313956
 20
165.2626662126
 30
0.0
  0
SPLINE
  5
50F
100
AcDbEntity
  8
00_COMPONENTS_1
100
AcDbSpline
 62
7
  6
CONTINUOUS
 70
0
 71
3
 72
14
 73
10
 74
0
 42
0.0000001
 43
0.0000001
 44
0.0000000001
 40
0.0
 40
0.0
 40
0.0
 40
0.0
 40
0.1255724234
 40
0.2681239673
 40
0.4190421699
 40
0.5691241461
 40
0.7085391726
 40
0.8289742294
 40
1.0
 40
1.0
 40
1.0
 40
1.0
 10
125.4562492341
 20
166.2410749383
 30
0.0
 10
125.4937109206
 20
166.2253772557
 30
0.0
 10
125.5782844806
 20
166.2027801491
 30
0.0
 10
125.7138027389
 20
166.1912042354
 30
0.0
 10
125.8575387101
 20
166.2007618072
 30
0.0
 10
125.9972652393
 20
166.2297604263
 30
0.0
 10
126.1226867542
 20
166.2770489198
 30
0.0
 10
126.2410725624
 20
166.3458977685
 30
0.0
 10
126.3096984058
 20
166.4320786761
 30
0.0
 10
126.3097429073
 20
166.4873986742
 30
0.0
  0
SPLINE
  5
510
100
AcDbEntity
  8
00_COMPONENTS_1
100
AcDbSpline
 62
7
  6
CONTINUOUS
 70
0
 71
3
 72
14
 73
10
 74
0
 42
0.0000001
 43
0.0000001
 44
0.0000000001
 40
0.0
 40
0.0
 40
0.0
 40
0.0
 40
0.1255724234
 40
0.2681239673
 40
0.4190421699
 40
0.5691241461
 40
0.7085391726
 40
0.8289742294
 40
1.0
 40
1.0
 40
1.0
 40
1.0
 10
127.5775607458
 20
167.4658073999
 30
0.0
 10
127.6150224322
 20
167.4501097173
 30
0.0
 10
127.6995959923
 20
167.4275126107
 30
0.0
 10
127.8351142505
 20
167.415936697
 30
0.0
 10
127.9788502217
 20
167.4254942688
 30
0.0
 10
128.1185767509
 20
167.4544928879
 30
0.0
 10
128.2439982659
 20
167.5017813814
 30
0.0
 10
128.362384074
 20
167.5706302301
 30
0.0
 10
128.4310099175
 20
167.6568111378
 30
0.0
 10
128.4310544189
 20
167.7121311358
 30
0.0
  0
SPLINE
  5
511
100
AcDbEntity
  8
00_COMPONENTS_1
100
AcDbSpline
 62
7
  6
CONTINUOUS
 70
0
 71
3
 72
9
 73
5
 74
0
 42
0.0000001
 43
0.0000001
 44
0.0000000001
 40
0.0
 40
0.0
 40
0.0
 40
0.0
 40
0.4744271771
 40
1.0
 40
1.0
 40
1.0
 40
1.0
 10
121.2136262108
 20
163.791610015
 30
0.0
 10
120.0846692358
 20
164.2646802334
 30
0.0
 10
117.8218520765
 20
165.5466656715
 30
0.0
 10
115.8281206081
 20
167.2024973591
 30
0.0
 10
114.8496386845
 20
168.1413174088
 30
0.0
  0
SPLINE
  5
512
100
AcDbEntity
  8
00_COMPONENTS_1
100
AcDbSpline
 62
7
  6
CONTINUOUS
 70
0
 71
3
 72
9
 73
5
 74
0
 42
0.0000001
 43
0.0000001
 44
0.0000000001
 40
0.0
 40
0.0
 40
0.0
 40
0.0
 40
0.4744271771
 40
1.0
 40
1.0
 40
1.0
 40
1.0
 10
123.3349377225
 20
165.0163424767
 30
0.0
 10
122.2059807475
 20
165.489412695
 30
0.0
 10
119.9431635882
 20
166.7713981331
 30
0.0
 10
117.9494321198
 20
168.4272298207
 30
0.0
 10
116.9709501962
 20
169.3660498704
 30
0.0
  0
SPLINE
  5
513
100
AcDbEntity
  8
00_COMPONENTS_1
100
AcDbSpline
 62
7
  6
CONTINUOUS
 70
0
 71
3
 72
9
 73
5
 74
0
 42
0.0000001
 43
0.0000001
 44
0.0000000001
 40
0.0
 40
0.0
 40
0.0
 40
0.0
 40
0.4744271771
 40
1.0
 40
1.0
 40
1.0
 40
1.0
 10
125.4562492341
 20
166.2410749383
 30
0.0
 10
124.3272922591
 20
166.7141451566
 30
0.0
 10
122.0644750998
 20
167.9961305947
 30
0.0
 10
120.0707436314
 20
169.6519622823
 30
0.0
 10
119.0922617078
 20
170.590782332
 30
0.0
  0
SPLINE
  5
514
100
AcDbEntity
  8
00_COMPONENTS_1
100
AcDbSpline
 62
7
  6
CONTINUOUS
 70
0
 71
3
 72
9
 73
5
 74
0
 42
0.0000001
 43
0.0000001
 44
0.0000000001
 40
0.0
 40
0.0
 40
0.0
 40
0.0
 40
0.4744271771
 40
1.0
 40
1.0
 40
1.0
 40
1.0
 10
127.5775607458
 20
167.4658073999
 30
0.0
 10
126.4486037707
 20
167.9388776182
 30
0.0
 10
124.1857866114
 20
169.2208630563
 30
0.0
 10
122.192055143
 20
170.8766947439
 30
0.0
 10
121.2135732194
 20
171.8155147936
 30
0.0
  0
SPLINE
  5
515
100
AcDbEntity
  8
00_COMPONENTS_1
100
AcDbSpline
 62
7
  6
CONTINUOUS
 70
0
 71
3
 72
11
 73
7
 74
0
 42
0.0000001
 43
0.0000001
 44
0.0000000001
 40
0.0
 40
0.0
 40
0.0
 40
0.0
 40
0.2162839545
 40
0.4761212966
 40
0.7500080794
 40
1.0
 40
1.0
 40
1.0
 40
1.0
 10
102.8287203656
 20
182.4297744111
 30
0.0
 10
102.8805311706
 20
182.4196605013
 30
0.0
 10
102.9978669334
 20
182.4149706257
 30
0.0
 10
103.179805652
 20
182.4390674036
 30
0.0
 10
103.3650180772
 20
182.4889515831
 30
0.0
 10
103.482990628
 20
182.5403885878
 30
0.0
 10
103.5358320162
 20
182.570896395
 30
0.0
  0
SPLINE
  5
516
100
AcDbEntity
  8
00_COMPONENTS_1
100
AcDbSpline
 62
7
  6
CONTINUOUS
 70
0
 71
3
 72
11
 73
7
 74
0
 42
0.0000001
 43
0.0000001
 44
0.0000000001
 40
0.0
 40
0.0
 40
0.0
 40
0.0
 40
0.2162839545
 40
0.4761212966
 40
0.7500080794
 40
1.0
 40
1.0
 40
1.0
 40
1.0
 10
100.707408854
 20
181.2050419495
 30
0.0
 10
100.7592196589
 20
181.1949280397
 30
0.0
 10
100.8765554218
 20
181.190238164
 30
0.0
 10
101.0584941404
 20
181.214334942
 30
0.0
 10
101.2437065656
 20
181.2642191215
 30
0.0
 10
101.3616791164
 20
181.3156561262
 30
0.0
 10
101.4145205046
 20
181.3461639334
 30
0.0
  0
SPLINE
  5
517
100
AcDbEntity
  8
00_COMPONENTS_1
100
AcDbSpline
 62
7
  6
CONTINUOUS
 70
0
 71
3
 72
11
 73
7
 74
0
 42
0.0000001
 43
0.0000001
 44
0.0000000001
 40
0.0
 40
0.0
 40
0.0
 40
0.0
 40
0.2162839545
 40
0.4761212966
 40
0.7500080794
 40
1.0
 40
1.0
 40
1.0
 40
1.0
 10
98.5860973423
 20
179.9803094879
 30
0.0
 10
98.6379081473
 20
179.9701955781
 30
0.0
 10
98.7552439101
 20
179.9655057024
 30
0.0
 10
98.9371826287
 20
179.9896024803
 30
0.0
 10
99.1223950539
 20
180.0394866599
 30
0.0
 10
99.2403676047
 20
180.0909236646
 30
0.0
 10
99.293208993
 20
180.1214314718
 30
0.0
  0
SPLINE
  5
518
100
AcDbEntity
  8
00_COMPONENTS_1
100
AcDbSpline
 62
7
  6
CONTINUOUS
 70
0
 71
3
 72
11
 73
7
 74
0
 42
0.0000001
 43
0.0000001
 44
0.0000000001
 40
0.0
 40
0.0
 40
0.0
 40
0.0
 40
0.2162839545
 40
0.4761212966
 40
0.7500080794
 40
1.0
 40
1.0
 40
1.0
 40
1.0
 10
96.4647858307
 20
178.7555770263
 30
0.0
 10
96.5165966356
 20
178.7454631164
 30
0.0
 10
96.6339323985
 20
178.7407732408
 30
0.0
 10
96.8158711171
 20
178.7648700187
 30
0.0
 10
97.0010835423
 20
178.8147541983
 30
0.0
 10
97.1190560931
 20
178.8661912029
 30
0.0
 10
97.1718974813
 20
178.8966990102
 30
0.0
  0
SPLINE
  5
519
100
AcDbEntity
  8
00_COMPONENTS_1
100
AcDbSpline
 62
7
  6
CONTINUOUS
 70
0
 71
3
 72
10
 73
6
 74
0
 42
0.0000001
 43
0.0000001
 44
0.0000000001
 40
0.0
 40
0.0
 40
0.0
 40
0.0
 40
0.4691182973
 40
0.7272075101
 40
1.0
 40
1.0
 40
1.0
 40
1.0
 10
102.8287203656
 20
182.4297744111
 30
0.0
 10
101.7419083279
 20
182.641929365
 30
0.0
 10
100.1021118903
 20
183.2220897045
 30
0.0
 10
98.0254620837
 20
184.34622681
 30
0.0
 10
96.9834138747
 20
185.0468373429
 30
0.0
 10
96.4647328393
 20
185.4284005988
 30
0.0
  0
SPLINE
  5
51A
100
AcDbEntity
  8
00_COMPONENTS_1
100
AcDbSpline
 62
7
  6
CONTINUOUS
 70
0
 71
3
 72
10
 73
6
 74
0
 42
0.0000001
 43
0.0000001
 44
0.0000000001
 40
0.0
 40
0.0
 40
0.0
 40
0.0
 40
0.4691182973
 40
0.7272075101
 40
1.0
 40
1.0
 40
1.0
 40
1.0
 10
100.707408854
 20
181.2050419495
 30
0.0
 10
99.6205968162
 20
181.4171969033
 30
0.0
 10
97.9808003786
 20
181.9973572429
 30
0.0
 10
95.904150572
 20
183.1214943484
 30
0.0
 10
94.862102363
 20
183.8221048813
 30
0.0
 10
94.3434213277
 20
184.2036681372
 30
0.0
  0
SPLINE
  5
51B
100
AcDbEntity
  8
00_COMPONENTS_1
100
AcDbSpline
 62
7
  6
CONTINUOUS
 70
0
 71
3
 72
10
 73
6
 74
0
 42
0.0000001
 43
0.0000001
 44
0.0000000001
 40
0.0
 40
0.0
 40
0.0
 40
0.0
 40
0.4691182973
 40
0.7272075101
 40
1.0
 40
1.0
 40
1.0
 40
1.0
 10
98.5860973423
 20
179.9803094879
 30
0.0
 10
97.4992853046
 20
180.1924644417
 30
0.0
 10
95.859488867
 20
180.7726247813
 30
0.0
 10
93.7828390604
 20
181.8967618868
 30
0.0
 10
92.7407908514
 20
182.5973724197
 30
0.0
 10
92.222109816
 20
182.9789356756
 30
0.0
  0
SPLINE
  5
51C
100
AcDbEntity
  8
00_COMPONENTS_1
100
AcDbSpline
 62
7
  6
CONTINUOUS
 70
0
 71
3
 72
10
 73
6
 74
0
 42
0.0000001
 43
0.0000001
 44
0.0000000001
 40
0.0
 40
0.0
 40
0.0
 40
0.0
 40
0.4691182973
 40
0.7272075101
 40
1.0
 40
1.0
 40
1.0
 40
1.0
 10
96.4647858307
 20
178.7555770263
 30
0.0
 10
95.3779737929
 20
178.9677319801
 30
0.0
 10
93.7381773553
 20
179.5478923197
 30
0.0
 10
91.6615275487
 20
180.6720294252
 30
0.0
 10
90.6194793397
 20
181.3726399581
 30
0.0
 10
90.1007983044
 20
181.754203214
 30
0.0
  0
SPLINE
  5
51D
100
AcDbEntity
  8
00_COMPONENTS_1
100
AcDbSpline
 62
7
  6
CONTINUOUS
 70
0
 71
3
 72
14
 73
10
 74
0
 42
0.0000001
 43
0.0000001
 44
0.0000000001
 40
0.0
 40
0.0
 40
0.0
 40
0.0
 40
0.1236196802
 40
0.2658758918
 40
0.4180258131
 40
0.5704362361
 40
0.7123457794
 40
0.8341830022
 40
1.0
 40
1.0
 40
1.0
 40
1.0
 10
108.4856511582
 20
172.0567181824
 30
0.0
 10
108.5232182384
 20
172.0438839814
 30
0.0
 10
108.607649928
 20
172.0269645412
 30
0.0
 10
108.7421954366
 20
172.0224380133
 30
0.0
 10
108.8853989502
 20
172.0376462854
 30
0.0
 10
109.025044967
 20
172.0705446378
 30
0.0
 10
109.1509709711
 20
172.1198114232
 30
0.0
 10
109.2674574581
 20
172.1874213474
 30
0.0
 10
109.3390722815
 20
172.2692282728
 30
0.0
 10
109.3391206222
 20
172.3224782795
 30
0.0
  0
SPLINE
  5
51E
100
AcDbEntity
  8
00_COMPONENTS_1
100
AcDbSpline
 62
7
  6
CONTINUOUS
 70
0
 71
3
 72
14
 73
10
 74
0
 42
0.0000001
 43
0.0000001
 44
0.0000000001
 40
0.0
 40
0.0
 40
0.0
 40
0.0
 40
0.1236196802
 40
0.2658758918
 40
0.4180258131
 40
0.5704362361
 40
0.7123457794
 40
0.8341830022
 40
1.0
 40
1.0
 40
1.0
 40
1.0
 10
110.6069626698
 20
173.2814506441
 30
0.0
 10
110.6445297501
 20
173.268616443
 30
0.0
 10
110.7289614397
 20
173.2516970028
 30
0.0
 10
110.8635069483
 20
173.2471704749
 30
0.0
 10
111.0067104618
 20
173.262378747
 30
0.0
 10
111.1463564787
 20
173.2952770994
 30
0.0
 10
111.2722824828
 20
173.3445438849
 30
0.0
 10
111.3887689697
 20
173.412153809
 30
0.0
 10
111.4603837931
 20
173.4939607344
 30
0.0
 10
111.4604321338
 20
173.5472107411
 30
0.0
  0
SPLINE
  5
51F
100
AcDbEntity
  8
00_COMPONENTS_1
100
AcDbSpline
 62
7
  6
CONTINUOUS
 70
0
 71
3
 72
14
 73
10
 74
0
 42
0.0000001
 43
0.0000001
 44
0.0000000001
 40
0.0
 40
0.0
 40
0.0
 40
0.0
 40
0.1236196802
 40
0.2658758918
 40
0.4180258131
 40
0.5704362361
 40
0.7123457794
 40
0.8341830022
 40
1.0
 40
1.0
 40
1.0
 40
1.0
 10
112.7282741815
 20
174.5061831057
 30
0.0
 10
112.7658412617
 20
174.4933489046
 30
0.0
 10
112.8502729513
 20
174.4764294644
 30
0.0
 10
112.9848184599
 20
174.4719029365
 30
0.0
 10
113.1280219735
 20
174.4871112087
 30
0.0
 10
113.2676679903
 20
174.520009561
 30
0.0
 10
113.3935939944
 20
174.5692763465
 30
0.0
 10
113.5100804814
 20
174.6368862706
 30
0.0
 10
113.5816953048
 20
174.718693196
 30
0.0
 10
113.5817436455
 20
174.7719432028
 30
0.0
  0
SPLINE
  5
520
100
AcDbEntity
  8
00_COMPONENTS_1
100
AcDbSpline
 62
7
  6
CONTINUOUS
 70
0
 71
3
 72
14
 73
10
 74
0
 42
0.0000001
 43
0.0000001
 44
0.0000000001
 40
0.0
 40
0.0
 40
0.0
 40
0.0
 40
0.1236196802
 40
0.2658758918
 40
0.4180258131
 40
0.5704362361
 40
0.7123457794
 40
0.8341830022
 40
1.0
 40
1.0
 40
1.0
 40
1.0
 10
114.8495856931
 20
175.7309155673
 30
0.0
 10
114.8871527733
 20
175.7180813662
 30
0.0
 10
114.971584463
 20
175.701161926
 30
0.0
 10
115.1061299716
 20
175.6966353981
 30
0.0
 10
115.2493334851
 20
175.7118436703
 30
0.0
 10
115.388979502
 20
175.7447420226
 30
0.0
 10
115.5149055061
 20
175.7940088081
 30
0.0
 10
115.631391993
 20
175.8616187322
 30
0.0
 10
115.7030068164
 20
175.9434256576
 30
0.0
 10
115.7030551571
 20
175.9966756644
 30
0.0
  0
SPLINE
  5
521
100
AcDbEntity
  8
00_COMPONENTS_1
100
AcDbSpline
 62
7
  6
CONTINUOUS
 70
0
 71
3
 72
9
 73
5
 74
0
 42
0.0000001
 43
0.0000001
 44
0.0000000001
 40
0.0
 40
0.0
 40
0.0
 40
0.0
 40
0.4725042104
 40
1.0
 40
1.0
 40
1.0
 40
1.0
 10
114.8495856931
 20
175.7309155673
 30
0.0
 10
113.7348773712
 20
176.1117381024
 30
0.0
 10
111.4769585342
 20
177.2212505861
 30
0.0
 10
109.4750459432
 20
178.7274531764
 30
0.0
 10
108.4855981668
 20
179.5936954053
 30
0.0
  0
SPLINE
  5
522
100
AcDbEntity
  8
00_COMPONENTS_1
100
AcDbSpline
 62
7
  6
CONTINUOUS
 70
0
 71
3
 72
9
 73
5
 74
0
 42
0.0000001
 43
0.0000001
 44
0.0000000001
 40
0.0
 40
0.0
 40
0.0
 40
0.0
 40
0.4725042104
 40
1.0
 40
1.0
 40
1.0
 40
1.0
 10
108.4856511582
 20
172.0567181825
 30
0.0
 10
107.3709428363
 20
172.4375407176
 30
0.0
 10
105.1130239993
 20
173.5470532013
 30
0.0
 10
103.1111114082
 20
175.0532557916
 30
0.0
 10
102.1216636319
 20
175.9194980205
 30
0.0
  0
SPLINE
  5
523
100
AcDbEntity
  8
00_COMPONENTS_1
100
AcDbSpline
 62
7
  6
CONTINUOUS
 70
0
 71
3
 72
9
 73
5
 74
0
 42
0.0000001
 43
0.0000001
 44
0.0000000001
 40
0.0
 40
0.0
 40
0.0
 40
0.0
 40
0.4725042104
 40
1.0
 40
1.0
 40
1.0
 40
1.0
 10
110.6069626698
 20
173.2814506441
 30
0.0
 10
109.4922543479
 20
173.6622731792
 30
0.0
 10
107.234335511
 20
174.7717856629
 30
0.0
 10
105.2324229199
 20
176.2779882532
 30
0.0
 10
104.2429751435
 20
177.1442304821
 30
0.0
  0
SPLINE
  5
524
100
AcDbEntity
  8
00_COMPONENTS_1
100
AcDbSpline
 62
7
  6
CONTINUOUS
 70
0
 71
3
 72
9
 73
5
 74
0
 42
0.0000001
 43
0.0000001
 44
0.0000000001
 40
0.0
 40
0.0
 40
0.0
 40
0.0
 40
0.4725042104
 40
1.0
 40
1.0
 40
1.0
 40
1.0
 10
112.7282741815
 20
174.5061831057
 30
0.0
 10
111.6135658596
 20
174.8870056408
 30
0.0
 10
109.3556470226
 20
175.9965181245
 30
0.0
 10
107.3537344315
 20
177.5027207148
 30
0.0
 10
106.3642866552
 20
178.3689629437
 30
0.0
  0
SPLINE
  5
525
100
AcDbEntity
  8
00_COMPONENTS_1
100
AcDbSpline
 62
7
  6
CONTINUOUS
 70
0
 71
3
 72
14
 73
10
 74
0
 42
0.0000001
 43
0.0000001
 44
0.0000000001
 40
0.0
 40
0.0
 40
0.0
 40
0.0
 40
0.0912421947
 40
0.1893549059
 40
0.2980792897
 40
0.4190646851
 40
0.5519715198
 40
0.6950339163
 40
1.0
 40
1.0
 40
1.0
 40
1.0
 10
79.9977823552
 20
163.8004050042
 30
0.0
 10
80.007463335
 20
163.6241999382
 30
0.0
 10
80.0902163102
 20
163.2598880471
 30
0.0
 10
80.3832932872
 20
162.7554367493
 30
0.0
 10
80.8298737331
 20
162.2980485415
 30
0.0
 10
81.411598844
 20
161.8999102
 30
0.0
 10
82.109077673
 20
161.5721823959
 30
0.0
 10
83.1835626396
 20
161.2358149218
 30
0.0
 10
84.0534958882
 20
161.1292126348
 30
0.0
 10
84.6432295557
 20
161.1184154872
 30
0.0
  0
SPLINE
  5
526
100
AcDbEntity
  8
00_COMPONENTS_1
100
AcDbSpline
 62
7
  6
CONTINUOUS
 70
0
 71
3
 72
11
 73
7
 74
0
 42
0.0000001
 43
0.0000001
 44
0.0000000001
 40
0.0
 40
0.0
 40
0.0
 40
0.0
 40
0.2897033281
 40
0.5490895198
 40
0.7822165953
 40
1.0
 40
1.0
 40
1.0
 40
1.0
 10
19.178251637
 20
108.8983180893
 30
0.0
 10
19.178251637
 20
109.1009906669
 30
0.0
 10
19.2089797816
 20
109.486430955
 30
0.0
 10
19.3650784739
 20
110.0160057122
 30
0.0
 10
19.6278968293
 20
110.4457256795
 30
0.0
 10
19.8747630385
 20
110.6532657751
 30
0.0
 10
20.006709471
 20
110.7294445704
 30
0.0
  0
SPLINE
  5
527
100
AcDbEntity
  8
00_COMPONENTS_1
100
AcDbSpline
 62
7
  6
CONTINUOUS
 70
0
 71
3
 72
11
 73
7
 74
0
 42
0.0000001
 43
0.0000001
 44
0.0000000001
 40
0.0
 40
0.0
 40
0.0
 40
0.0
 40
0.2319803744
 40
0.4883980779
 40
0.751014557
 40
1.0
 40
1.0
 40
1.0
 40
1.0
 10
22.0066905376
 20
73.7887559689
 30
0.0
 10
21.6617302288
 20
73.9879143905
 30
0.0
 10
20.9993873012
 20
74.5195905209
 30
0.0
 10
20.1852791596
 20
75.5295034464
 30
0.0
 10
19.5640318506
 20
76.7013371153
 30
0.0
 10
19.3102340197
 20
77.5510612698
 30
0.0
 10
19.2401375778
 20
77.9727979032
 30
0.0
  0
SPLINE
  5
528
100
AcDbEntity
  8
00_COMPONENTS_1
100
AcDbSpline
 62
7
  6
CONTINUOUS
 70
0
 71
3
 72
14
 73
10
 74
0
 42
0.0000001
 43
0.0000001
 44
0.0000000001
 40
0.0
 40
0.0
 40
0.0
 40
0.0
 40
0.0912421947
 40
0.1893549059
 40
0.2980792897
 40
0.4190646851
 40
0.5519715198
 40
0.6950339163
 40
1.0
 40
1.0
 40
1.0
 40
1.0
 10
92.3722025453
 20
156.6561918001
 30
0.0
 10
92.3818835251
 20
156.4799867341
 30
0.0
 10
92.4646365003
 20
156.115674843
 30
0.0
 10
92.7577134772
 20
155.6112235452
 30
0.0
 10
93.2042939232
 20
155.1538353374
 30
0.0
 10
93.7860190341
 20
154.7556969959
 30
0.0
 10
94.4834978631
 20
154.4279691918
 30
0.0
 10
95.5579828297
 20
154.0916017177
 30
0.0
 10
96.4279160782
 20
153.9849994307
 30
0.0
 10
97.0176497458
 20
153.9742022831
 30
0.0
  0
SPLINE
  5
529
100
AcDbEntity
  8
00_COMPONENTS_1
100
AcDbSpline
 62
7
  6
CONTINUOUS
 70
0
 71
3
 72
14
 73
10
 74
0
 42
0.0000001
 43
0.0000001
 44
0.0000000001
 40
0.0
 40
0.0
 40
0.0
 40
0.0
 40
0.0912421947
 40
0.1893549059
 40
0.2980792897
 40
0.4190646851
 40
0.5519715198
 40
0.6950339163
 40
1.0
 40
1.0
 40
1.0
 40
1.0
 10
67.6233621652
 20
170.9446182083
 30
0.0
 10
67.6330431449
 20
170.7684131423
 30
0.0
 10
67.7157961202
 20
170.4041012512
 30
0.0
 10
68.0088730971
 20
169.8996499534
 30
0.0
 10
68.455453543
 20
169.4422617456
 30
0.0
 10
69.0371786539
 20
169.0441234041
 30
0.0
 10
69.7346574829
 20
168.7163956
 30
0.0
 10
70.8091424495
 20
168.3800281259
 30
0.0
 10
71.6790756981
 20
168.2734258389
 30
0.0
 10
72.2688093656
 20
168.2626286914
 30
0.0
  0
SPLINE
  5
52A
100
AcDbEntity
  8
00_COMPONENTS_1
100
AcDbSpline
 62
7
  6
CONTINUOUS
 70
0
 71
3
 72
14
 73
10
 74
0
 42
0.0000001
 43
0.0000001
 44
0.0000000001
 40
0.0
 40
0.0
 40
0.0
 40
0.0
 40
0.1990511263
 40
0.3191970682
 40
0.4503083475
 40
0.5886240299
 40
0.729558184
 40
0.8682106664
 40
1.0
 40
1.0
 40
1.0
 40
1.0
 10
72.7099387867
 20
38.8752751417
 30
0.0
 10
72.2907118716
 20
38.8644524974
 30
0.0
 10
71.6166627269
 20
39.0971658828
 30
0.0
 10
70.8404717254
 20
39.6394129317
 30
0.0
 10
70.2474832444
 20
40.2135929467
 30
0.0
 10
69.7164788533
 20
40.8986462876
 30
0.0
 10
69.2714371795
 20
41.661422868
 30
0.0
 10
68.9354058878
 20
42.4629071476
 30
0.0
 10
68.7899915088
 20
43.0165121546
 30
0.0
 10
68.7422001109
 20
43.2900257449
 30
0.0
  0
SPLINE
  5
52B
100
AcDbEntity
  8
00_COMPONENTS_1
100
AcDbSpline
 62
7
  6
CONTINUOUS
 70
0
 71
3
 72
10
 73
6
 74
0
 42
0.0000001
 43
0.0000001
 44
0.0000000001
 40
0.0
 40
0.0
 40
0.0
 40
0.0
 40
0.4716779246
 40
0.7287677944
 40
1.0
 40
1.0
 40
1.0
 40
1.0
 10
66.6009701817
 20
59.03661053
 30
0.0
 10
65.5524485932
 20
61.3297860558
 30
0.0
 10
64.4250225404
 20
65.1092165685
 30
0.0
 10
63.6996439118
 20
70.4082905897
 30
0.0
 10
63.5816367968
 20
73.2356517644
 30
0.0
 10
63.5816367968
 20
74.6856174543
 30
0.0
  0
SPLINE
  5
52C
100
AcDbEntity
  8
00_COMPONENTS_1
100
AcDbSpline
 62
7
  6
CONTINUOUS
 70
0
 71
3
 72
10
 73
6
 74
0
 42
0.0000001
 43
0.0000001
 44
0.0000000001
 40
0.0
 40
0.0
 40
0.0
 40
0.0
 40
0.2352250321
 40
0.4810944973
 40
1.0
 40
1.0
 40
1.0
 40
1.0
 10
63.5816367968
 20
74.6856174543
 30
0.0
 10
63.5816367968
 20
76.2090580024
 30
0.0
 10
63.718069249
 20
79.3262318485
 30
0.0
 10
64.5029695781
 20
85.7593164316
 30
0.0
 10
65.6375110494
 20
90.6013901518
 30
0.0
 10
66.6009701817
 20
93.8210294527
 30
0.0
  0
SPLINE
  5
52D
100
AcDbEntity
  8
00_COMPONENTS_1
100
AcDbSpline
 62
7
  6
CONTINUOUS
 70
0
 71
3
 72
9
 73
5
 74
0
 42
0.0000001
 43
0.0000001
 44
0.0000000001
 40
0.0
 40
0.0
 40
0.0
 40
0.0
 40
0.2568471336
 40
1.0
 40
1.0
 40
1.0
 40
1.0
 10
36.2995218988
 20
73.8792553695
 30
0.0
 10
36.3366607457
 20
73.7024991966
 30
0.0
 10
36.4703930289
 20
73.0121212978
 30
0.0
 10
36.5598054164
 20
72.3128755844
 30
0.0
 10
36.596717611
 20
71.7915933757
 30
0.0
  0
SPLINE
  5
52E
100
AcDbEntity
  8
00_COMPONENTS_1
100
AcDbSpline
 62
7
  6
CONTINUOUS
 70
0
 71
3
 72
9
 73
5
 74
0
 42
0.0000001
 43
0.0000001
 44
0.0000000001
 40
0.0
 40
0.0
 40
0.0
 40
0.0
 40
0.2532901173
 40
1.0
 40
1.0
 40
1.0
 40
1.0
 10
27.4727413314
 20
78.6690958121
 30
0.0
 10
28.1216589757
 20
78.2944515111
 30
0.0
 10
30.694383553
 20
76.8341021996
 30
0.0
 10
33.310445071
 20
75.4498807433
 30
0.0
 10
35.2870931981
 20
74.4637681289
 30
0.0
  0
SPLINE
  5
52F
100
AcDbEntity
  8
00_COMPONENTS_1
100
AcDbSpline
 62
7
  6
CONTINUOUS
 70
0
 71
3
 72
9
 73
5
 74
0
 42
0.0000001
 43
0.0000001
 44
0.0000000001
 40
0.0
 40
0.0
 40
0.0
 40
0.0
 40
0.2415246891
 40
1.0
 40
1.0
 40
1.0
 40
1.0
 10
105.4932712685
 20
192.8479870509
 30
0.0
 10
105.6246037485
 20
192.8304531214
 30
0.0
 10
106.1664438844
 20
192.7436961171
 30
0.0
 10
106.6991021776
 20
192.6027341837
 30
0.0
 10
107.0940171173
 20
192.4716844196
 30
0.0
  0
SPLINE
  5
530
100
AcDbEntity
  8
00_COMPONENTS_1
100
AcDbSpline
 62
7
  6
CONTINUOUS
 70
0
 71
3
 72
9
 73
5
 74
0
 42
0.0000001
 43
0.0000001
 44
0.0000000001
 40
0.0
 40
0.0
 40
0.0
 40
0.0
 40
0.4733706529
 40
1.0
 40
1.0
 40
1.0
 40
1.0
 10
107.0940171173
 20
192.4716844196
 30
0.0
 10
107.8831368065
 20
192.2098205629
 30
0.0
 10
109.4837855624
 20
191.451330909
 30
0.0
 10
110.9150504993
 20
190.4192530889
 30
0.0
 10
111.6243716943
 20
189.8255795801
 30
0.0
  0
SPLINE
  5
531
100
AcDbEntity
  8
00_COMPONENTS_1
100
AcDbSpline
 62
7
  6
CONTINUOUS
 70
0
 71
3
 72
9
 73
5
 74
0
 42
0.0000001
 43
0.0000001
 44
0.0000000001
 40
0.0
 40
0.0
 40
0.0
 40
0.0
 40
0.2731724444
 40
1.0
 40
1.0
 40
1.0
 40
1.0
 10
29.6322532618
 20
82.7294296787
 30
0.0
 10
29.5475967376
 20
82.6805646853
 30
0.0
 10
29.2463673635
 20
82.4883961795
 30
0.0
 10
28.9780213553
 20
82.2352917794
 30
0.0
 10
28.8350800209
 20
82.0180204191
 30
0.0
  0
SPLINE
  5
532
100
AcDbEntity
  8
00_COMPONENTS_1
100
AcDbSpline
 62
7
  6
CONTINUOUS
 70
0
 71
3
 72
9
 73
5
 74
0
 42
0.0000001
 43
0.0000001
 44
0.0000000001
 40
0.0
 40
0.0
 40
0.0
 40
0.0
 40
0.5147510966
 40
1.0
 40
1.0
 40
1.0
 40
1.0
 10
28.8350800209
 20
82.0180204191
 30
0.0
 10
28.7641430729
 20
81.910195994
 30
0.0
 10
28.6504550475
 20
81.6828755289
 30
0.0
 10
28.6079985214
 20
81.4311414747
 30
0.0
 10
28.6070776077
 20
81.3094757296
 30
0.0
  0
SPLINE
  5
533
100
AcDbEntity
  8
00_COMPONENTS_1
100
AcDbSpline
 62
7
  6
CONTINUOUS
 70
0
 71
3
 72
11
 73
7
 74
0
 42
0.0000001
 43
0.0000001
 44
0.0000000001
 40
0.0
 40
0.0
 40
0.0
 40
0.0
 40
0.2381963292
 40
0.5009688075
 40
0.7632148357
 40
1.0
 40
1.0
 40
1.0
 40
1.0
 10
34.5434845712
 20
82.7513669586
 30
0.0
 10
34.1910538514
 20
82.9486061064
 30
0.0
 10
33.3773660371
 20
83.2353153216
 30
0.0
 10
32.0807725194
 20
83.369115492
 30
0.0
 10
30.7877846938
 20
83.2243163807
 30
0.0
 10
29.9799513494
 20
82.9301528709
 30
0.0
 10
29.6322532618
 20
82.7294296787
 30
0.0
  0
SPLINE
  5
534
100
AcDbEntity
  8
00_COMPONENTS_1
100
AcDbSpline
 62
7
  6
CONTINUOUS
 70
0
 71
3
 72
9
 73
5
 74
0
 42
0.0000001
 43
0.0000001
 44
0.0000000001
 40
0.0
 40
0.0
 40
0.0
 40
0.0
 40
0.2514444383
 40
1.0
 40
1.0
 40
1.0
 40
1.0
 10
22.0910802241
 20
80.5628833701
 30
0.0
 10
22.112846078
 20
80.5251840145
 30
0.0
 10
22.2022657977
 20
80.3769249353
 30
0.0
 10
22.3027792878
 20
80.235319617
 30
0.0
 10
22.383955356
 20
80.1342991788
 30
0.0
  0
SPLINE
  5
535
100
AcDbEntity
  8
00_COMPONENTS_1
100
AcDbSpline
 62
7
  6
CONTINUOUS
 70
0
 71
3
 72
9
 73
5
 74
0
 42
0.0000001
 43
0.0000001
 44
0.0000000001
 40
0.0
 40
0.0
 40
0.0
 40
0.0
 40
0.2562566535
 40
1.0
 40
1.0
 40
1.0
 40
1.0
 10
22.383955356
 20
80.1342991788
 30
0.0
 10
22.410512648
 20
80.1012496689
 30
0.0
 10
22.5166830192
 20
79.9743529355
 30
0.0
 10
22.6329970436
 20
79.8558168374
 30
0.0
 10
22.7250823782
 20
79.7741948308
 30
0.0
  0
SPLINE
  5
536
100
AcDbEntity
  8
00_COMPONENTS_1
100
AcDbSpline
 62
7
  6
CONTINUOUS
 70
0
 71
3
 72
9
 73
5
 74
0
 42
0.0000001
 43
0.0000001
 44
0.0000000001
 40
0.0
 40
0.0
 40
0.0
 40
0.0
 40
0.2605907814
 40
1.0
 40
1.0
 40
1.0
 40
1.0
 10
22.7250823782
 20
79.7741948308
 30
0.0
 10
22.7545567148
 20
79.748069558
 30
0.0
 10
22.8698950387
 20
79.6504043602
 30
0.0
 10
22.9943007159
 20
79.5631245308
 30
0.0
 10
23.0910843875
 20
79.5072477161
 30
0.0
  0
SPLINE
  5
537
100
AcDbEntity
  8
00_COMPONENTS_1
100
AcDbSpline
 62
7
  6
CONTINUOUS
 70
0
 71
3
 72
11
 73
7
 74
0
 42
0.0000001
 43
0.0000001
 44
0.0000000001
 40
0.0
 40
0.0
 40
0.0
 40
0.0
 40
0.2177833598
 40
0.4509104088
 40
0.7102966711
 40
1.0
 40
1.0
 40
1.0
 40
1.0
 10
59.9278220898
 20
56.1179854422
 30
0.0
 10
60.0597684592
 20
56.194164283
 30
0.0
 10
60.3066346931
 20
56.4017042334
 30
0.0
 10
60.5694530575
 20
56.8314242262
 30
0.0
 10
60.7255517103
 20
57.3609990145
 30
0.0
 10
60.7562799239
 20
57.7464393458
 30
0.0
 10
60.7562799239
 20
57.9491119233
 30
0.0
  0
SPLINE
  5
538
100
AcDbEntity
  8
00_COMPONENTS_1
100
AcDbSpline
 62
7
  6
CONTINUOUS
 70
0
 71
3
 72
9
 73
5
 74
0
 42
0.0000001
 43
0.0000001
 44
0.0000000001
 40
0.0
 40
0.0
 40
0.0
 40
0.0
 40
0.5224943488
 40
1.0
 40
1.0
 40
1.0
 40
1.0
 10
105.6622650153
 20
190.2182202447
 30
0.0
 10
105.4747259898
 20
190.1764345171
 30
0.0
 10
105.1203550673
 20
190.0739388838
 30
0.0
 10
104.7838556855
 20
189.9208529265
 30
0.0
 10
104.6317865751
 20
189.8330563087
 30
0.0
  0
SPLINE
  5
539
100
AcDbEntity
  8
00_COMPONENTS_1
100
AcDbSpline
 62
7
  6
CONTINUOUS
 70
0
 71
3
 72
15
 73
11
 74
0
 42
0.0000001
 43
0.0000001
 44
0.0000000001
 40
0.0
 40
0.0
 40
0.0
 40
0.0
 40
0.1001267141
 40
0.2140948154
 40
0.3402158541
 40
0.4748379268
 40
0.6131965515
 40
0.75006468
 40
0.8804264852
 40
1.0
 40
1.0
 40
1.0
 40
1.0
 10
46.0556569757
 20
144.8011555243
 30
0.0
 10
45.834371382
 20
144.837714517
 30
0.0
 10
45.3732398202
 20
144.9921985393
 30
0.0
 10
44.7196869391
 20
145.3925871784
 30
0.0
 10
44.0899915552
 20
145.9534199829
 30
0.0
 10
43.5179927266
 20
146.6444247255
 30
0.0
 10
43.0343352829
 20
147.4280922527
 30
0.0
 10
42.6654212368
 20
148.2616620223
 30
0.0
 10
42.4316634152
 20
149.0991282417
 30
0.0
 10
42.3712928252
 20
149.6595918495
 30
0.0
 10
42.3712928252
 20
149.9274382086
 30
0.0
  0
SPLINE
  5
53A
100
AcDbEntity
  8
00_COMPONENTS_1
100
AcDbSpline
 62
7
  6
CONTINUOUS
 70
0
 71
3
 72
9
 73
5
 74
0
 42
0.0000001
 43
0.0000001
 44
0.0000000001
 40
0.0
 40
0.0
 40
0.0
 40
0.0
 40
0.2599511018
 40
1.0
 40
1.0
 40
1.0
 40
1.0
 10
36.596717611
 20
69.9952880615
 30
0.0
 10
36.5849177067
 20
69.8422722405
 30
0.0
 10
36.5268751334
 20
69.2547677233
 30
0.0
 10
36.4163179982
 20
68.6718005195
 30
0.0
 10
36.2995218988
 20
68.2507903533
 30
0.0
  0
SPLINE
  5
53B
100
AcDbEntity
  8
00_COMPONENTS_1
100
AcDbSpline
 62
7
  6
CONTINUOUS
 70
0
 71
3
 72
11
 73
7
 74
0
 42
0.0000001
 43
0.0000001
 44
0.0000000001
 40
0.0
 40
0.0
 40
0.0
 40
0.0
 40
0.2057576812
 40
0.4348184454
 40
0.6987740699
 40
1.0
 40
1.0
 40
1.0
 40
1.0
 10
41.9704553955
 20
151.0146136465
 30
0.0
 10
41.8543074557
 20
150.9474820868
 30
0.0
 10
41.6357216623
 20
150.7554075576
 30
0.0
 10
41.4110352714
 20
150.3518228701
 30
0.0
 10
41.2783192723
 20
149.8472824202
 30
0.0
 10
41.2522673515
 20
149.4777700342
 30
0.0
 10
41.2522673515
 20
149.2813724066
 30
0.0
  0
SPLINE
  5
53C
100
AcDbEntity
  8
00_COMPONENTS_1
100
AcDbSpline
 62
7
  6
CONTINUOUS
 70
0
 71
3
 72
14
 73
10
 74
0
 42
0.0000001
 43
0.0000001
 44
0.0000000001
 40
0.0
 40
0.0
 40
0.0
 40
0.0
 40
0.2026445732
 40
0.3268667087
 40
0.4620259664
 40
0.60286403
 40
0.7433270574
 40
0.8774116255
 40
1.0
 40
1.0
 40
1.0
 40
1.0
 10
71.1545230307
 20
130.4872574179
 30
0.0
 10
70.6781998665
 20
130.4751024856
 30
0.0
 10
69.9115918779
 20
130.7766807968
 30
0.0
 10
69.0589316133
 20
131.4440771264
 30
0.0
 10
68.4207422952
 20
132.1441099565
 30
0.0
 10
67.8768396123
 20
132.9618623868
 30
0.0
 10
67.4574823456
 20
133.8481750822
 30
0.0
 10
67.1900070568
 20
134.7465725865
 30
0.0
 10
67.1201332053
 20
135.3507697309
 30
0.0
 10
67.1201332053
 20
135.6390118004
 30
0.0
  0
SPLINE
  5
53D
100
AcDbEntity
  8
00_COMPONENTS_1
100
AcDbSpline
 62
7
  6
CONTINUOUS
 70
0
 71
3
 72
12
 73
8
 74
0
 42
0.0000001
 43
0.0000001
 44
0.0000000001
 40
0.0
 40
0.0
 40
0.0
 40
0.0
 40
0.2895754906
 40
0.5486381871
 40
0.7816381298
 40
0.8918391498
 40
1.0
 40
1.0
 40
1.0
 40
1.0
 10
44.9860176031
 20
74.7046896813
 30
0.0
 10
44.9860176031
 20
73.9866107886
 30
0.0
 10
44.8771995719
 20
72.6212473063
 30
0.0
 10
44.3251627734
 20
70.7463957704
 30
0.0
 10
43.5317992427
 20
69.4528067803
 30
0.0
 10
42.7305873792
 20
68.6648736821
 30
0.0
 10
42.2840152091
 20
68.3531559599
 30
0.0
 10
42.0517458842
 20
68.2190314561
 30
0.0
  0
SPLINE
  5
53E
100
AcDbEntity
  8
00_COMPONENTS_1
100
AcDbSpline
 62
7
  6
CONTINUOUS
 70
0
 71
3
 72
11
 73
7
 74
0
 42
0.0000001
 43
0.0000001
 44
0.0000000001
 40
0.0
 40
0.0
 40
0.0
 40
0.0
 40
0.2254965211
 40
0.4610202815
 40
0.7175750125
 40
1.0
 40
1.0
 40
1.0
 40
1.0
 10
66.3560394325
 20
136.5164333367
 30
0.0
 10
66.2188174768
 20
136.4371577674
 30
0.0
 10
65.9621398852
 20
136.2290086823
 30
0.0
 10
65.6850258129
 20
135.7992076962
 30
0.0
 10
65.5204040747
 20
135.2749541072
 30
0.0
 10
65.4872566761
 20
134.8947596659
 30
0.0
 10
65.4872566761
 20
134.696275724
 30
0.0
  0
SPLINE
  5
53F
100
AcDbEntity
  8
00_COMPONENTS_1
100
AcDbSpline
 62
7
  6
CONTINUOUS
 70
0
 71
3
 72
9
 73
5
 74
0
 42
0.0000001
 43
0.0000001
 44
0.0000000001
 40
0.0
 40
0.0
 40
0.0
 40
0.0
 40
0.2467236112
 40
1.0
 40
1.0
 40
1.0
 40
1.0
 10
42.7823938726
 20
78.7911561599
 30
0.0
 10
42.1292801052
 20
79.1169823481
 30
0.0
 10
39.4926116026
 20
80.4585251215
 30
0.0
 10
36.8979044383
 20
81.8823024545
 30
0.0
 10
34.9680420059
 20
82.9964838432
 30
0.0
  0
SPLINE
  5
540
100
AcDbEntity
  8
00_COMPONENTS_1
100
AcDbSpline
 62
7
  6
CONTINUOUS
 70
0
 71
3
 72
9
 73
5
 74
0
 42
0.0000001
 43
0.0000001
 44
0.0000000001
 40
0.0
 40
0.0
 40
0.0
 40
0.0
 40
0.2392050378
 40
1.0
 40
1.0
 40
1.0
 40
1.0
 10
44.1251129451
 20
75.2017219713
 30
0.0
 10
44.1251129451
 20
75.4430098024
 30
0.0
 10
44.0951857418
 20
76.4516534654
 30
0.0
 10
43.9526220625
 20
77.4556229436
 30
0.0
 10
43.7948225732
 20
78.2066434005
 30
0.0
  0
SPLINE
  5
541
100
AcDbEntity
  8
00_COMPONENTS_1
100
AcDbSpline
 62
7
  6
CONTINUOUS
 70
0
 71
3
 72
9
 73
5
 74
0
 42
0.0000001
 43
0.0000001
 44
0.0000000001
 40
0.0
 40
0.0
 40
0.0
 40
0.0
 40
0.2363012291
 40
1.0
 40
1.0
 40
1.0
 40
1.0
 10
43.7948225732
 20
72.5781783843
 30
0.0
 10
43.8505990016
 20
72.7792334153
 30
0.0
 10
44.0525717615
 20
73.6394830085
 30
0.0
 10
44.1251129451
 20
74.5273941575
 30
0.0
 10
44.1251129451
 20
75.2017219713
 30
0.0
  0
SPLINE
  5
542
100
AcDbEntity
  8
00_COMPONENTS_1
100
AcDbSpline
 62
7
  6
CONTINUOUS
 70
0
 71
3
 72
15
 73
11
 74
0
 42
0.0000001
 43
0.0000001
 44
0.0000000001
 40
0.0
 40
0.0
 40
0.0
 40
0.0
 40
0.1044286587
 40
0.2214669504
 40
0.3489067083
 40
0.4831508202
 40
0.6198451114
 40
0.754346604
 40
0.8823110582
 40
1.0
 40
1.0
 40
1.0
 40
1.0
 10
58.1559655737
 20
137.7204481889
 30
0.0
 10
57.9410172733
 20
137.784127651
 30
0.0
 10
57.5026853336
 20
137.980277686
 30
0.0
 10
56.8884362454
 20
138.4147268407
 30
0.0
 10
56.3050746147
 20
138.9854231278
 30
0.0
 10
55.7811069712
 20
139.6645194175
 30
0.0
 10
55.3420162845
 20
140.4188018596
 30
0.0
 10
55.0092309731
 20
141.2112708196
 30
0.0
 10
54.7994516564
 20
142.0026712337
 30
0.0
 10
54.7457130153
 20
142.5305758247
 30
0.0
 10
54.7457130153
 20
142.7832250045
 30
0.0
  0
SPLINE
  5
543
100
AcDbEntity
  8
00_COMPONENTS_1
100
AcDbSpline
 62
7
  6
CONTINUOUS
 70
0
 71
3
 72
11
 73
7
 74
0
 42
0.0000001
 43
0.0000001
 44
0.0000000001
 40
0.0
 40
0.0
 40
0.0
 40
0.0
 40
0.2162308066
 40
0.4486823292
 40
0.7087130123
 40
1.0
 40
1.0
 40
1.0
 40
1.0
 10
53.5880046386
 20
143.433389776
 30
0.0
 10
53.4611892955
 20
143.3601215347
 30
0.0
 10
53.2232386936
 20
143.160056589
 30
0.0
 10
52.9722658189
 20
142.7429264888
 30
0.0
 10
52.8238469294
 20
142.2285211263
 30
0.0
 10
52.7943245718
 20
141.8538942645
 30
0.0
 10
52.7943245718
 20
141.6565970864
 30
0.0
  0
SPLINE
  5
544
100
AcDbEntity
  8
00_COMPONENTS_1
100
AcDbSpline
 62
7
  6
CONTINUOUS
 70
0
 71
3
 72
9
 73
5
 74
0
 42
0.0000001
 43
0.0000001
 44
0.0000000001
 40
0.0
 40
0.0
 40
0.0
 40
0.0
 40
0.2356182771
 40
1.0
 40
1.0
 40
1.0
 40
1.0
 10
86.4699454359
 20
175.6591633124
 30
0.0
 10
86.4647039293
 20
175.6756095603
 30
0.0
 10
86.4374611633
 20
175.7438243454
 30
0.0
 10
86.3920482243
 20
175.8038605156
 30
0.0
 10
86.3524509764
 20
175.8434568167
 30
0.0
  0
SPLINE
  5
545
100
AcDbEntity
  8
00_COMPONENTS_1
100
AcDbSpline
 62
7
  6
CONTINUOUS
 70
0
 71
3
 72
9
 73
5
 74
0
 42
0.0000001
 43
0.0000001
 44
0.0000000001
 40
0.0
 40
0.0
 40
0.0
 40
0.0
 40
0.2401295703
 40
1.0
 40
1.0
 40
1.0
 40
1.0
 10
111.2177540833
 20
161.3738476657
 30
0.0
 10
111.2138303793
 20
161.3857709475
 30
0.0
 10
111.1949666704
 20
161.4345880673
 30
0.0
 10
111.1665319953
 20
161.4794543471
 30
0.0
 10
111.141574062
 20
161.5103547766
 30
0.0
  0
SPLINE
  5
546
100
AcDbEntity
  8
00_COMPONENTS_1
100
AcDbSpline
 62
7
  6
CONTINUOUS
 70
0
 71
3
 72
11
 73
7
 74
0
 42
0.0000001
 43
0.0000001
 44
0.0000000001
 40
0.0
 40
0.0
 40
0.0
 40
0.0
 40
0.2477420432
 40
0.5103707824
 40
0.767491289
 40
1.0
 40
1.0
 40
1.0
 40
1.0
 10
22.1011456792
 20
85.9799661867
 30
0.0
 10
22.1325783769
 20
86.1942171439
 30
0.0
 10
22.2554235451
 20
86.6277872981
 30
0.0
 10
22.5661953251
 20
87.2268188261
 30
0.0
 10
22.9782435929
 20
87.7443579191
 30
0.0
 10
23.315620354
 20
88.0167854795
 30
0.0
 10
23.4916224324
 20
88.1183997202
 30
0.0
  0
SPLINE
  5
547
100
AcDbEntity
  8
00_COMPONENTS_1
100
AcDbSpline
 62
7
  6
CONTINUOUS
 70
0
 71
3
 72
9
 73
5
 74
0
 42
0.0000001
 43
0.0000001
 44
0.0000000001
 40
0.0
 40
0.0
 40
0.0
 40
0.0
 40
0.2401295703
 40
1.0
 40
1.0
 40
1.0
 40
1.0
 10
98.8433338932
 20
168.5180608698
 30
0.0
 10
98.8394101892
 20
168.5299841516
 30
0.0
 10
98.8205464804
 20
168.5788012714
 30
0.0
 10
98.7921118053
 20
168.6236675512
 30
0.0
 10
98.7671538719
 20
168.6545679807
 30
0.0
  0
SPLINE
  5
548
100
AcDbEntity
  8
00_COMPONENTS_1
100
AcDbSpline
 62
7
  6
CONTINUOUS
 70
0
 71
3
 72
13
 73
9
 74
0
 42
0.0000001
 43
0.0000001
 44
0.0000000001
 40
0.0
 40
0.0
 40
0.0
 40
0.0
 40
0.2786798294
 40
0.5653062006
 40
0.6977553122
 40
0.816336634
 40
0.9175067122
 40
1.0
 40
1.0
 40
1.0
 40
1.0
 10
53.1096814244
 20
149.7905097452
 30
0.0
 10
52.7885747417
 20
149.9350247146
 30
0.0
 10
52.1695148058
 20
150.3008058814
 30
0.0
 10
51.4899585623
 20
150.8696228754
 30
0.0
 10
51.0359100468
 20
151.3763917066
 30
0.0
 10
50.7775732206
 20
151.7404353483
 30
0.0
 10
50.6036439392
 20
152.0819092763
 30
0.0
 10
50.5423476814
 20
152.3093646039
 30
0.0
 10
50.5338977192
 20
152.4132565297
 30
0.0
  0
SPLINE
  5
549
100
AcDbEntity
  8
00_COMPONENTS_1
100
AcDbSpline
 62
7
  6
CONTINUOUS
 70
0
 71
3
 72
16
 73
12
 74
0
 42
0.0000001
 43
0.0000001
 44
0.0000000001
 40
0.0
 40
0.0
 40
0.0
 40
0.0
 40
0.1340066218
 40
0.2755374478
 40
0.418707346
 40
0.5574342891
 40
0.6866986509
 40
0.8029533647
 40
0.9060579513
 40
0.9537946916
 40
1.0
 40
1.0
 40
1.0
 40
1.0
 10
67.1153653668
 20
42.34911589
 30
0.0
 10
67.1756643319
 20
42.0305266166
 30
0.0
 10
67.3690555899
 20
41.3874207316
 30
0.0
 10
67.8294427365
 20
40.4800604819
 30
0.0
 10
68.4378111982
 20
39.6495870495
 30
0.0
 10
69.1590245672
 20
38.9570041154
 30
0.0
 10
69.9421784044
 20
38.4434247972
 30
0.0
 10
70.7423757563
 20
38.1515589743
 30
0.0
 10
71.4002649891
 20
38.1068994831
 30
0.0
 10
71.8684216378
 20
38.2109545815
 30
0.0
 10
72.0777423597
 20
38.3042917835
 30
0.0
 10
72.1745421394
 20
38.3602284242
 30
0.0
  0
SPLINE
  5
54A
100
AcDbEntity
  8
00_COMPONENTS_1
100
AcDbSpline
 62
7
  6
CONTINUOUS
 70
0
 71
3
 72
13
 73
9
 74
0
 42
0.0000001
 43
0.0000001
 44
0.0000000001
 40
0.0
 40
0.0
 40
0.0
 40
0.0
 40
0.2786798257
 40
0.5653061975
 40
0.6977553101
 40
0.8163366331
 40
0.917506712
 40
1.0
 40
1.0
 40
1.0
 40
1.0
 10
65.4841018062
 20
142.646296271
 30
0.0
 10
65.1629950669
 20
142.7908112553
 30
0.0
 10
64.5439350176
 20
143.1565924738
 30
0.0
 10
63.8643786481
 20
143.7254095579
 30
0.0
 10
63.4103300437
 20
144.2321784763
 30
0.0
 10
63.1519931658
 20
144.5962221829
 30
0.0
 10
62.9780638493
 20
144.9376961721
 30
0.0
 10
62.916767579
 20
145.1651515409
 30
0.0
 10
62.9083176152
 20
145.2690434855
 30
0.0
  0
SPLINE
  5
54B
100
AcDbEntity
  8
00_COMPONENTS_1
100
AcDbSpline
 62
7
  6
CONTINUOUS
 70
0
 71
3
 72
11
 73
7
 74
0
 42
0.0000001
 43
0.0000001
 44
0.0000000001
 40
0.0
 40
0.0
 40
0.0
 40
0.0
 40
0.2021666092
 40
0.4248413426
 40
0.6889973267
 40
1.0
 40
1.0
 40
1.0
 40
1.0
 10
113.5817436455
 20
174.7719432028
 30
0.0
 10
113.5817569154
 20
174.7865607466
 30
0.0
 10
113.5745539797
 20
174.8176892747
 30
0.0
 10
113.5430849717
 20
174.8577482877
 30
0.0
 10
113.4951608616
 20
174.8908143045
 30
0.0
 10
113.4566573662
 20
174.9071575057
 30
0.0
 10
113.4353780187
 20
174.9144272595
 30
0.0
  0
SPLINE
  5
54C
100
AcDbEntity
  8
00_COMPONENTS_1
100
AcDbSpline
 62
7
  6
CONTINUOUS
 70
0
 71
3
 72
9
 73
5
 74
0
 42
0.0000001
 43
0.0000001
 44
0.0000000001
 40
0.0
 40
0.0
 40
0.0
 40
0.0
 40
0.260709226
 40
1.0
 40
1.0
 40
1.0
 40
1.0
 10
131.723191642
 20
175.172287199
 30
0.0
 10
131.6711255422
 20
175.1571595172
 30
0.0
 10
131.4730470411
 20
175.0938367666
 30
0.0
 10
131.2815519992
 20
175.0086330214
 30
0.0
 10
131.1484012681
 20
174.9317588698
 30
0.0
  0
SPLINE
  5
54D
100
AcDbEntity
  8
00_COMPONENTS_1
100
AcDbSpline
 62
7
  6
CONTINUOUS
 70
0
 71
3
 72
11
 73
7
 74
0
 42
0.0000001
 43
0.0000001
 44
0.0000000001
 40
0.0
 40
0.0
 40
0.0
 40
0.0
 40
0.2021666092
 40
0.4248413426
 40
0.6889973267
 40
1.0
 40
1.0
 40
1.0
 40
1.0
 10
111.4604321338
 20
173.5472107411
 30
0.0
 10
111.4604454037
 20
173.561828285
 30
0.0
 10
111.453242468
 20
173.592956813
 30
0.0
 10
111.42177346
 20
173.6330158261
 30
0.0
 10
111.3738493499
 20
173.6660818429
 30
0.0
 10
111.3353458546
 20
173.6824250441
 30
0.0
 10
111.3140665071
 20
173.6896947979
 30
0.0
  0
SPLINE
  5
54E
100
AcDbEntity
  8
00_COMPONENTS_1
100
AcDbSpline
 62
7
  6
CONTINUOUS
 70
0
 71
3
 72
11
 73
7
 74
0
 42
0.0000001
 43
0.0000001
 44
0.0000000001
 40
0.0
 40
0.0
 40
0.0
 40
0.0
 40
0.2372413576
 40
0.5000010231
 40
0.762760128
 40
1.0
 40
1.0
 40
1.0
 40
1.0
 10
60.7562799239
 20
88.1597013571
 30
0.0
 10
60.7562799239
 20
88.6233818201
 30
0.0
 10
60.5823557641
 20
89.6012468506
 30
0.0
 10
59.9761959503
 20
90.9753140631
 30
0.0
 10
59.0892951043
 20
92.1872911837
 30
0.0
 10
58.3293998401
 20
92.8268391975
 30
0.0
 10
57.9278410233
 20
93.0586740437
 30
0.0
  0
SPLINE
  5
54F
100
AcDbEntity
  8
00_COMPONENTS_1
100
AcDbSpline
 62
7
  6
CONTINUOUS
 70
0
 71
3
 72
11
 73
7
 74
0
 42
0.0000001
 43
0.0000001
 44
0.0000000001
 40
0.0
 40
0.0
 40
0.0
 40
0.0
 40
0.289702329
 40
0.5490881649
 40
0.7822156415
 40
1.0
 40
1.0
 40
1.0
 40
1.0
 10
24.8351058864
 20
112.1643413552
 30
0.0
 10
24.6595905901
 20
112.2656728664
 30
0.0
 10
24.3104340699
 20
112.4317734682
 30
0.0
 10
23.7737735508
 20
112.5613673683
 30
0.0
 10
23.2702289833
 20
112.5486177113
 30
0.0
 10
22.9670682676
 20
112.4385983399
 30
0.0
 10
22.8351248199
 20
112.3624211859
 30
0.0
  0
SPLINE
  5
550
100
AcDbEntity
  8
00_COMPONENTS_1
100
AcDbSpline
 62
7
  6
CONTINUOUS
 70
0
 71
3
 72
11
 73
7
 74
0
 42
0.0000001
 43
0.0000001
 44
0.0000000001
 40
0.0
 40
0.0
 40
0.0
 40
0.0
 40
0.2372444228
 40
0.5000010918
 40
0.7627571666
 40
1.0
 40
1.0
 40
1.0
 40
1.0
 10
27.7342557595
 20
121.1459108053
 30
0.0
 10
27.7342557595
 20
121.0937462844
 30
0.0
 10
27.753826647
 20
120.9837374734
 30
0.0
 10
27.8220191543
 20
120.8291566105
 30
0.0
 10
27.9217942647
 20
120.6928104705
 30
0.0
 10
28.0072793828
 20
120.6208580212
 30
0.0
 10
28.0524551358
 20
120.594776378
 30
0.0
  0
SPLINE
  5
551
100
AcDbEntity
  8
00_COMPONENTS_1
100
AcDbSpline
 62
7
  6
CONTINUOUS
 70
0
 71
3
 72
11
 73
7
 74
0
 42
0.0000001
 43
0.0000001
 44
0.0000000001
 40
0.0
 40
0.0
 40
0.0
 40
0.0
 40
0.2372444228
 40
0.5000010918
 40
0.7627571666
 40
1.0
 40
1.0
 40
1.0
 40
1.0
 10
31.4112263303
 20
119.0230588818
 30
0.0
 10
31.4112263303
 20
118.9708943609
 30
0.0
 10
31.4307972177
 20
118.8608855499
 30
0.0
 10
31.4989897251
 20
118.706304687
 30
0.0
 10
31.5987648354
 20
118.569958547
 30
0.0
 10
31.6842499535
 20
118.4980060977
 30
0.0
 10
31.7294257066
 20
118.4719244545
 30
0.0
  0
SPLINE
  5
552
100
AcDbEntity
  8
00_COMPONENTS_1
100
AcDbSpline
 62
7
  6
CONTINUOUS
 70
0
 71
3
 72
11
 73
7
 74
0
 42
0.0000001
 43
0.0000001
 44
0.0000000001
 40
0.0
 40
0.0
 40
0.0
 40
0.0
 40
0.2372444228
 40
0.5000010918
 40
0.7627571666
 40
1.0
 40
1.0
 40
1.0
 40
1.0
 10
35.0881969011
 20
116.9002069582
 30
0.0
 10
35.0881969011
 20
116.8480424374
 30
0.0
 10
35.1077677885
 20
116.7380336264
 30
0.0
 10
35.1759602959
 20
116.5834527635
 30
0.0
 10
35.2757354062
 20
116.4471066235
 30
0.0
 10
35.3612205243
 20
116.3751541742
 30
0.0
 10
35.4063962774
 20
116.349072531
 30
0.0
  0
SPLINE
  5
553
100
AcDbEntity
  8
00_COMPONENTS_1
100
AcDbSpline
 62
7
  6
CONTINUOUS
 70
0
 71
3
 72
11
 73
7
 74
0
 42
0.0000001
 43
0.0000001
 44
0.0000000001
 40
0.0
 40
0.0
 40
0.0
 40
0.0
 40
0.2021666092
 40
0.4248413426
 40
0.6889973267
 40
1.0
 40
1.0
 40
1.0
 40
1.0
 10
109.3391206222
 20
172.3224782795
 30
0.0
 10
109.3391338921
 20
172.3370958234
 30
0.0
 10
109.3319309564
 20
172.3682243514
 30
0.0
 10
109.3004619484
 20
172.4082833645
 30
0.0
 10
109.2525378383
 20
172.4413493813
 30
0.0
 10
109.2140343429
 20
172.4576925825
 30
0.0
 10
109.1927549954
 20
172.4649623363
 30
0.0
  0
SPLINE
  5
554
100
AcDbEntity
  8
00_COMPONENTS_1
100
AcDbSpline
 62
7
  6
CONTINUOUS
 70
0
 71
3
 72
11
 73
7
 74
0
 42
0.0000001
 43
0.0000001
 44
0.0000000001
 40
0.0
 40
0.0
 40
0.0
 40
0.0
 40
0.2372444228
 40
0.5000010918
 40
0.7627571666
 40
1.0
 40
1.0
 40
1.0
 40
1.0
 10
38.7651674718
 20
114.7773550347
 30
0.0
 10
38.7651674718
 20
114.7251905139
 30
0.0
 10
38.7847383592
 20
114.6151817029
 30
0.0
 10
38.8529308666
 20
114.46060084
 30
0.0
 10
38.952705977
 20
114.3242547
 30
0.0
 10
39.0381910951
 20
114.2523022507
 30
0.0
 10
39.0833668481
 20
114.2262206075
 30
0.0
  0
SPLINE
  5
555
100
AcDbEntity
  8
00_COMPONENTS_1
100
AcDbSpline
 62
7
  6
CONTINUOUS
 70
0
 71
3
 72
11
 73
7
 74
0
 42
0.0000001
 43
0.0000001
 44
0.0000000001
 40
0.0
 40
0.0
 40
0.0
 40
0.0
 40
0.2372444228
 40
0.5000010918
 40
0.7627571666
 40
1.0
 40
1.0
 40
1.0
 40
1.0
 10
42.4421380426
 20
112.6545031112
 30
0.0
 10
42.4421380426
 20
112.6023385904
 30
0.0
 10
42.46170893
 20
112.4923297794
 30
0.0
 10
42.5299014374
 20
112.3377489165
 30
0.0
 10
42.6296765477
 20
112.2014027765
 30
0.0
 10
42.7151616658
 20
112.1294503271
 30
0.0
 10
42.7603374189
 20
112.103368684
 30
0.0
  0
SPLINE
  5
556
100
AcDbEntity
  8
00_COMPONENTS_1
100
AcDbSpline
 62
7
  6
CONTINUOUS
 70
0
 71
3
 72
11
 73
7
 74
0
 42
0.0000001
 43
0.0000001
 44
0.0000000001
 40
0.0
 40
0.0
 40
0.0
 40
0.0
 40
0.2372444228
 40
0.5000010918
 40
0.7627571666
 40
1.0
 40
1.0
 40
1.0
 40
1.0
 10
46.1191086133
 20
110.5316511877
 30
0.0
 10
46.1191086133
 20
110.4794866669
 30
0.0
 10
46.1386795008
 20
110.3694778559
 30
0.0
 10
46.2068720081
 20
110.214896993
 30
0.0
 10
46.3066471185
 20
110.078550853
 30
0.0
 10
46.3921322366
 20
110.0065984036
 30
0.0
 10
46.4373079897
 20
109.9805167605
 30
0.0
  0
SPLINE
  5
557
100
AcDbEntity
  8
00_COMPONENTS_1
100
AcDbSpline
 62
7
  6
CONTINUOUS
 70
0
 71
3
 72
11
 73
7
 74
0
 42
0.0000001
 43
0.0000001
 44
0.0000000001
 40
0.0
 40
0.0
 40
0.0
 40
0.0
 40
0.2372444228
 40
0.5000010918
 40
0.7627571666
 40
1.0
 40
1.0
 40
1.0
 40
1.0
 10
49.7960791841
 20
108.4087992642
 30
0.0
 10
49.7960791841
 20
108.3566347433
 30
0.0
 10
49.8156500715
 20
108.2466259324
 30
0.0
 10
49.8838425789
 20
108.0920450695
 30
0.0
 10
49.9836176893
 20
107.9556989295
 30
0.0
 10
50.0691028073
 20
107.8837464801
 30
0.0
 10
50.1142785604
 20
107.857664837
 30
0.0
  0
SPLINE
  5
558
100
AcDbEntity
  8
00_COMPONENTS_1
100
AcDbSpline
 62
7
  6
CONTINUOUS
 70
0
 71
3
 72
11
 73
7
 74
0
 42
0.0000001
 43
0.0000001
 44
0.0000000001
 40
0.0
 40
0.0
 40
0.0
 40
0.0
 40
0.2372444228
 40
0.5000010918
 40
0.7627571666
 40
1.0
 40
1.0
 40
1.0
 40
1.0
 10
49.7960791841
 20
107.061570276
 30
0.0
 10
49.7960791841
 20
107.0094057551
 30
0.0
 10
49.8156500715
 20
106.8993969441
 30
0.0
 10
49.8838425789
 20
106.7448160812
 30
0.0
 10
49.9836176893
 20
106.6084699412
 30
0.0
 10
50.0691028073
 20
106.5365174919
 30
0.0
 10
50.1142785604
 20
106.5104358487
 30
0.0
  0
SPLINE
  5
559
100
AcDbEntity
  8
00_COMPONENTS_1
100
AcDbSpline
 62
7
  6
CONTINUOUS
 70
0
 71
3
 72
11
 73
7
 74
0
 42
0.0000001
 43
0.0000001
 44
0.0000000001
 40
0.0
 40
0.0
 40
0.0
 40
0.0
 40
0.2372444228
 40
0.5000010918
 40
0.7627571666
 40
1.0
 40
1.0
 40
1.0
 40
1.0
 10
49.7960791841
 20
105.7143412877
 30
0.0
 10
49.7960791841
 20
105.6621767668
 30
0.0
 10
49.8156500715
 20
105.5521679559
 30
0.0
 10
49.8838425789
 20
105.397587093
 30
0.0
 10
49.9836176893
 20
105.2612409529
 30
0.0
 10
50.0691028073
 20
105.1892885036
 30
0.0
 10
50.1142785604
 20
105.1632068605
 30
0.0
  0
SPLINE
  5
55A
100
AcDbEntity
  8
00_COMPONENTS_1
100
AcDbSpline
 62
7
  6
CONTINUOUS
 70
0
 71
3
 72
11
 73
7
 74
0
 42
0.0000001
 43
0.0000001
 44
0.0000000001
 40
0.0
 40
0.0
 40
0.0
 40
0.0
 40
0.2372444228
 40
0.5000010918
 40
0.7627571666
 40
1.0
 40
1.0
 40
1.0
 40
1.0
 10
46.1191086133
 20
107.8371932112
 30
0.0
 10
46.1191086133
 20
107.7850286903
 30
0.0
 10
46.1386795008
 20
107.6750198794
 30
0.0
 10
46.2068720081
 20
107.5204390165
 30
0.0
 10
46.3066471185
 20
107.3840928764
 30
0.0
 10
46.3921322366
 20
107.3121404271
 30
0.0
 10
46.4373079897
 20
107.286058784
 30
0.0
  0
SPLINE
  5
55B
100
AcDbEntity
  8
00_COMPONENTS_1
100
AcDbSpline
 62
7
  6
CONTINUOUS
 70
0
 71
3
 72
11
 73
7
 74
0
 42
0.0000001
 43
0.0000001
 44
0.0000000001
 40
0.0
 40
0.0
 40
0.0
 40
0.0
 40
0.2372444228
 40
0.5000010918
 40
0.7627571666
 40
1.0
 40
1.0
 40
1.0
 40
1.0
 10
46.1191086133
 20
109.1844221995
 30
0.0
 10
46.1191086133
 20
109.1322576786
 30
0.0
 10
46.1386795008
 20
109.0222488676
 30
0.0
 10
46.2068720081
 20
108.8676680047
 30
0.0
 10
46.3066471185
 20
108.7313218647
 30
0.0
 10
46.3921322366
 20
108.6593694154
 30
0.0
 10
46.4373079897
 20
108.6332877722
 30
0.0
  0
SPLINE
  5
55C
100
AcDbEntity
  8
00_COMPONENTS_1
100
AcDbSpline
 62
7
  6
CONTINUOUS
 70
0
 71
3
 72
11
 73
7
 74
0
 42
0.0000001
 43
0.0000001
 44
0.0000000001
 40
0.0
 40
0.0
 40
0.0
 40
0.0
 40
0.2021666092
 40
0.4248413426
 40
0.6889973267
 40
1.0
 40
1.0
 40
1.0
 40
1.0
 10
115.7030551571
 20
175.9966756644
 30
0.0
 10
115.703068427
 20
176.0112932082
 30
0.0
 10
115.6958654913
 20
176.0424217363
 30
0.0
 10
115.6643964833
 20
176.0824807493
 30
0.0
 10
115.6164723732
 20
176.1155467661
 30
0.0
 10
115.5779688778
 20
176.1318899674
 30
0.0
 10
115.5566895303
 20
176.1391597212
 30
0.0
  0
SPLINE
  5
55D
100
AcDbEntity
  8
00_COMPONENTS_1
100
AcDbSpline
 62
7
  6
CONTINUOUS
 70
0
 71
3
 72
11
 73
7
 74
0
 42
0.0000001
 43
0.0000001
 44
0.0000000001
 40
0.0
 40
0.0
 40
0.0
 40
0.0
 40
0.2372444228
 40
0.5000010918
 40
0.7627571666
 40
1.0
 40
1.0
 40
1.0
 40
1.0
 10
42.4421380426
 20
109.9600451347
 30
0.0
 10
42.4421380426
 20
109.9078806138
 30
0.0
 10
42.46170893
 20
109.7978718029
 30
0.0
 10
42.5299014374
 20
109.64329094
 30
0.0
 10
42.6296765477
 20
109.5069447999
 30
0.0
 10
42.7151616658
 20
109.4349923506
 30
0.0
 10
42.7603374189
 20
109.4089107075
 30
0.0
  0
SPLINE
  5
55E
100
AcDbEntity
  8
00_COMPONENTS_1
100
AcDbSpline
 62
7
  6
CONTINUOUS
 70
0
 71
3
 72
11
 73
7
 74
0
 42
0.0000001
 43
0.0000001
 44
0.0000000001
 40
0.0
 40
0.0
 40
0.0
 40
0.0
 40
0.2372444228
 40
0.5000010918
 40
0.7627571666
 40
1.0
 40
1.0
 40
1.0
 40
1.0
 10
38.7651674718
 20
112.0828970582
 30
0.0
 10
38.7651674718
 20
112.0307325373
 30
0.0
 10
38.7847383592
 20
111.9207237264
 30
0.0
 10
38.8529308666
 20
111.7661428635
 30
0.0
 10
38.952705977
 20
111.6297967234
 30
0.0
 10
39.0381910951
 20
111.5578442741
 30
0.0
 10
39.0833668481
 20
111.531762631
 30
0.0
  0
SPLINE
  5
55F
100
AcDbEntity
  8
00_COMPONENTS_1
100
AcDbSpline
 62
7
  6
CONTINUOUS
 70
0
 71
3
 72
11
 73
7
 74
0
 42
0.0000001
 43
0.0000001
 44
0.0000000001
 40
0.0
 40
0.0
 40
0.0
 40
0.0
 40
0.2372444228
 40
0.5000010918
 40
0.7627571666
 40
1.0
 40
1.0
 40
1.0
 40
1.0
 10
42.4421380426
 20
111.307274123
 30
0.0
 10
42.4421380426
 20
111.2551096021
 30
0.0
 10
42.46170893
 20
111.1451007911
 30
0.0
 10
42.5299014374
 20
110.9905199282
 30
0.0
 10
42.6296765477
 20
110.8541737882
 30
0.0
 10
42.7151616658
 20
110.7822213389
 30
0.0
 10
42.7603374189
 20
110.7561396957
 30
0.0
  0
SPLINE
  5
560
100
AcDbEntity
  8
00_COMPONENTS_1
100
AcDbSpline
 62
7
  6
CONTINUOUS
 70
0
 71
3
 72
11
 73
7
 74
0
 42
0.0000001
 43
0.0000001
 44
0.0000000001
 40
0.0
 40
0.0
 40
0.0
 40
0.0
 40
0.2372444228
 40
0.5000010918
 40
0.7627571666
 40
1.0
 40
1.0
 40
1.0
 40
1.0
 10
38.7651674718
 20
113.4301260465
 30
0.0
 10
38.7651674718
 20
113.3779615256
 30
0.0
 10
38.7847383592
 20
113.2679527146
 30
0.0
 10
38.8529308666
 20
113.1133718517
 30
0.0
 10
38.952705977
 20
112.9770257117
 30
0.0
 10
39.0381910951
 20
112.9050732624
 30
0.0
 10
39.0833668481
 20
112.8789916192
 30
0.0
  0
SPLINE
  5
561
100
AcDbEntity
  8
00_COMPONENTS_1
100
AcDbSpline
 62
7
  6
CONTINUOUS
 70
0
 71
3
 72
11
 73
7
 74
0
 42
0.0000001
 43
0.0000001
 44
0.0000000001
 40
0.0
 40
0.0
 40
0.0
 40
0.0
 40
0.2372444228
 40
0.5000010918
 40
0.7627571666
 40
1.0
 40
1.0
 40
1.0
 40
1.0
 10
35.0881969011
 20
115.55297797
 30
0.0
 10
35.0881969011
 20
115.5008134491
 30
0.0
 10
35.1077677885
 20
115.3908046381
 30
0.0
 10
35.1759602959
 20
115.2362237752
 30
0.0
 10
35.2757354062
 20
115.0998776352
 30
0.0
 10
35.3612205243
 20
115.0279251859
 30
0.0
 10
35.4063962774
 20
115.0018435427
 30
0.0
  0
SPLINE
  5
562
100
AcDbEntity
  8
00_COMPONENTS_1
100
AcDbSpline
 62
7
  6
CONTINUOUS
 70
0
 71
3
 72
11
 73
7
 74
0
 42
0.0000001
 43
0.0000001
 44
0.0000000001
 40
0.0
 40
0.0
 40
0.0
 40
0.0
 40
0.2372444228
 40
0.5000010918
 40
0.7627571666
 40
1.0
 40
1.0
 40
1.0
 40
1.0
 10
35.0881969011
 20
114.2057489817
 30
0.0
 10
35.0881969011
 20
114.1535844608
 30
0.0
 10
35.1077677885
 20
114.0435756499
 30
0.0
 10
35.1759602959
 20
113.888994787
 30
0.0
 10
35.2757354062
 20
113.7526486469
 30
0.0
 10
35.3612205243
 20
113.6806961976
 30
0.0
 10
35.4063962774
 20
113.6546145545
 30
0.0
  0
SPLINE
  5
563
100
AcDbEntity
  8
00_COMPONENTS_1
100
AcDbSpline
 62
7
  6
CONTINUOUS
 70
0
 71
3
 72
11
 73
7
 74
0
 42
0.0000001
 43
0.0000001
 44
0.0000000001
 40
0.0
 40
0.0
 40
0.0
 40
0.0
 40
0.2372444228
 40
0.5000010918
 40
0.7627571666
 40
1.0
 40
1.0
 40
1.0
 40
1.0
 10
31.4112263303
 20
116.3286009052
 30
0.0
 10
31.4112263303
 20
116.2764363843
 30
0.0
 10
31.4307972177
 20
116.1664275734
 30
0.0
 10
31.4989897251
 20
116.0118467105
 30
0.0
 10
31.5987648354
 20
115.8755005705
 30
0.0
 10
31.6842499535
 20
115.8035481211
 30
0.0
 10
31.7294257066
 20
115.777466478
 30
0.0
  0
SPLINE
  5
564
100
AcDbEntity
  8
00_COMPONENTS_1
100
AcDbSpline
 62
7
  6
CONTINUOUS
 70
0
 71
3
 72
11
 73
7
 74
0
 42
0.0000001
 43
0.0000001
 44
0.0000000001
 40
0.0
 40
0.0
 40
0.0
 40
0.0
 40
0.2372444228
 40
0.5000010918
 40
0.7627571666
 40
1.0
 40
1.0
 40
1.0
 40
1.0
 10
31.4112263303
 20
117.6758298935
 30
0.0
 10
31.4112263303
 20
117.6236653726
 30
0.0
 10
31.4307972177
 20
117.5136565616
 30
0.0
 10
31.4989897251
 20
117.3590756988
 30
0.0
 10
31.5987648354
 20
117.2227295587
 30
0.0
 10
31.6842499535
 20
117.1507771094
 30
0.0
 10
31.7294257066
 20
117.1246954662
 30
0.0
  0
SPLINE
  5
565
100
AcDbEntity
  8
00_COMPONENTS_1
100
AcDbSpline
 62
7
  6
CONTINUOUS
 70
0
 71
3
 72
11
 73
7
 74
0
 42
0.0000001
 43
0.0000001
 44
0.0000000001
 40
0.0
 40
0.0
 40
0.0
 40
0.0
 40
0.2372444228
 40
0.5000010918
 40
0.7627571666
 40
1.0
 40
1.0
 40
1.0
 40
1.0
 10
27.7342557595
 20
119.798681817
 30
0.0
 10
27.7342557595
 20
119.7465172961
 30
0.0
 10
27.753826647
 20
119.6365084851
 30
0.0
 10
27.8220191543
 20
119.4819276223
 30
0.0
 10
27.9217942647
 20
119.3455814822
 30
0.0
 10
28.0072793828
 20
119.2736290329
 30
0.0
 10
28.0524551358
 20
119.2475473897
 30
0.0
  0
SPLINE
  5
566
100
AcDbEntity
  8
00_COMPONENTS_1
100
AcDbSpline
 62
7
  6
CONTINUOUS
 70
0
 71
3
 72
11
 73
7
 74
0
 42
0.0000001
 43
0.0000001
 44
0.0000000001
 40
0.0
 40
0.0
 40
0.0
 40
0.0
 40
0.2372444228
 40
0.5000010918
 40
0.7627571666
 40
1.0
 40
1.0
 40
1.0
 40
1.0
 10
27.7342557595
 20
118.4514528287
 30
0.0
 10
27.7342557595
 20
118.3992883079
 30
0.0
 10
27.753826647
 20
118.2892794969
 30
0.0
 10
27.8220191543
 20
118.134698634
 30
0.0
 10
27.9217942647
 20
117.998352494
 30
0.0
 10
28.0072793828
 20
117.9264000446
 30
0.0
 10
28.0524551358
 20
117.9003184015
 30
0.0
  0
SPLINE
  5
567
100
AcDbEntity
  8
00_COMPONENTS_1
100
AcDbSpline
 62
7
  6
CONTINUOUS
 70
0
 71
3
 72
8
 73
4
 74
0
 42
0.0000001
 43
0.0000001
 44
0.0000000001
 40
0.0
 40
0.0
 40
0.0
 40
0.0
 40
1.0
 40
1.0
 40
1.0
 40
1.0
 10
97.3183332348
 20
179.0582320502
 30
0.0
 10
97.3183589683
 20
179.064363514
 30
0.0
 10
97.3175466521
 20
179.070559031
 30
0.0
 10
97.3158976365
 20
179.0764646434
 30
0.0
  0
SPLINE
  5
568
100
AcDbEntity
  8
00_COMPONENTS_1
100
AcDbSpline
 62
7
  6
CONTINUOUS
 70
0
 71
3
 72
10
 73
6
 74
0
 42
0.0000001
 43
0.0000001
 44
0.0000000001
 40
0.0
 40
0.0
 40
0.0
 40
0.0
 40
0.4032704741
 40
0.6756312231
 40
1.0
 40
1.0
 40
1.0
 40
1.0
 10
97.3158976365
 20
179.0764646434
 30
0.0
 10
97.3095898098
 20
179.0990548353
 30
0.0
 10
97.2774130124
 20
179.1292248022
 30
0.0
 10
97.2243076311
 20
179.1514666869
 30
0.0
 10
97.190405561
 20
179.1602067203
 30
0.0
 10
97.1718896679
 20
179.1638211801
 30
0.0
  0
SPLINE
  5
569
100
AcDbEntity
  8
00_COMPONENTS_1
100
AcDbSpline
 62
7
  6
CONTINUOUS
 70
0
 71
3
 72
10
 73
6
 74
0
 42
0.0000001
 43
0.0000001
 44
0.0000000001
 40
0.0
 40
0.0
 40
0.0
 40
0.0
 40
0.4817161888
 40
0.7365055623
 40
1.0
 40
1.0
 40
1.0
 40
1.0
 10
37.5629514045
 20
135.434463224
 30
0.0
 10
43.2517805836
 20
131.0201804352
 30
0.0
 10
52.4741874155
 20
124.9263242885
 30
0.0
 10
65.6556442622
 20
117.869348591
 30
0.0
 10
72.6936537557
 20
114.6174008211
 30
0.0
 10
76.3125643426
 20
113.0628698763
 30
0.0
  0
SPLINE
  5
56A
100
AcDbEntity
  8
00_COMPONENTS_1
100
AcDbSpline
 62
7
  6
CONTINUOUS
 70
0
 71
3
 72
18
 73
14
 74
0
 42
0.0000001
 43
0.0000001
 44
0.0000000001
 40
0.0
 40
0.0
 40
0.0
 40
0.0
 40
0.0351382012
 40
0.0729187593
 40
0.1502580689
 40
0.3003269121
 40
0.4408095444
 40
0.5722373909
 40
0.6949285587
 40
0.8082975378
 40
0.8610753802
 40
0.9108302888
 40
1.0
 40
1.0
 40
1.0
 40
1.0
 10
47.4763619106
 20
150.6479981468
 30
0.0
 10
47.4809732723
 20
150.5873529047
 30
0.0
 10
47.5038202292
 20
150.4624987695
 30
0.0
 10
47.5841669416
 20
150.2146361203
 30
0.0
 10
47.7929858199
 20
149.803309763
 30
0.0
 10
48.1778253453
 20
149.2914162111
 30
0.0
 10
48.6945320313
 20
148.7730106984
 30
0.0
 10
49.2299818839
 20
148.3466302624
 30
0.0
 10
49.7701236346
 20
148.0080354798
 30
0.0
 10
50.2258634164
 20
147.7981892661
 30
0.0
 10
50.5855836689
 20
147.6909896701
 30
0.0
 10
50.9102519791
 20
147.6356744699
 30
0.0
 10
51.1692837923
 20
147.6553495075
 30
0.0
 10
51.3030061574
 20
147.7324211525
 30
0.0
  0
SPLINE
  5
56B
100
AcDbEntity
  8
00_COMPONENTS_1
100
AcDbSpline
 62
7
  6
CONTINUOUS
 70
0
 71
3
 72
18
 73
14
 74
0
 42
0.0000001
 43
0.0000001
 44
0.0000000001
 40
0.0
 40
0.0
 40
0.0
 40
0.0
 40
0.0690953749
 40
0.1432060638
 40
0.2889563004
 40
0.4273587792
 40
0.5583734084
 40
0.682129175
 40
0.7980501904
 40
0.8526799541
 40
0.904695457
 40
0.9537597844
 40
1.0
 40
1.0
 40
1.0
 40
1.0
 10
59.6540431661
 20
143.3901986738
 30
0.0
 10
59.6644471612
 20
143.2662463968
 30
0.0
 10
59.7433066914
 20
143.0150631162
 30
0.0
 10
60.0021751186
 20
142.562624552
 30
0.0
 10
60.4277216809
 20
142.0708551257
 30
0.0
 10
60.9951004511
 20
141.5823122244
 30
0.0
 10
61.5837390904
 20
141.1861544674
 30
0.0
 10
62.1771659602
 20
140.8781030897
 30
0.0
 10
62.6767047442
 20
140.6947122512
 30
0.0
 10
63.0685610893
 20
140.6083928787
 30
0.0
 10
63.348355256
 20
140.5797014633
 30
0.0
 10
63.6142776164
 20
140.5951272763
 30
0.0
 10
63.7815106453
 20
140.6483704019
 30
0.0
 10
63.8536009865
 20
140.689993086
 30
0.0
  0
SPLINE
  5
56C
100
AcDbEntity
  8
00_COMPONENTS_1
100
AcDbSpline
 62
7
  6
CONTINUOUS
 70
0
 71
3
 72
18
 73
14
 74
0
 42
0.0000001
 43
0.0000001
 44
0.0000000001
 40
0.0
 40
0.0
 40
0.0
 40
0.0
 40
0.1285881324
 40
0.2700649871
 40
0.4169809614
 40
0.5608379854
 40
0.6292858165
 40
0.6942964413
 40
0.8113256739
 40
0.8634301412
 40
0.9115761414
 40
0.9566149139
 40
1.0
 40
1.0
 40
1.0
 40
1.0
 10
52.7943245718
 20
141.6565970864
 30
0.0
 10
52.7943245718
 20
141.3228322863
 30
0.0
 10
52.8860342258
 20
140.6211661533
 30
0.0
 10
53.2265562332
 20
139.5885652376
 30
0.0
 10
53.754603819
 20
138.592809994
 30
0.0
 10
54.3256153202
 20
137.8489247396
 30
0.0
 10
54.8428231416
 20
137.3464614024
 30
0.0
 10
55.3531528879
 20
136.9429351423
 30
0.0
 10
55.8954474272
 20
136.6482787398
 30
0.0
 10
56.4435815265
 20
136.5054795101
 30
0.0
 10
56.8224150148
 20
136.4785176417
 30
0.0
 10
57.1759319045
 20
136.5326706275
 30
0.0
 10
57.3900827814
 20
136.6227324433
 30
0.0
 10
57.4875898777
 20
136.6790668218
 30
0.0
  0
SPLINE
  5
56D
100
AcDbEntity
  8
00_COMPONENTS_1
100
AcDbSpline
 62
7
  6
CONTINUOUS
 70
0
 71
3
 72
18
 73
14
 74
0
 42
0.0000001
 43
0.0000001
 44
0.0000000001
 40
0.0
 40
0.0
 40
0.0
 40
0.0
 40
0.124870564
 40
0.2620050359
 40
0.4051192515
 40
0.546702465
 40
0.6148534741
 40
0.6802124961
 40
0.8000645572
 40
0.8545580796
 40
0.905565879
 40
0.953686122
 40
1.0
 40
1.0
 40
1.0
 40
1.0
 10
65.4872566761
 20
134.696275724
 30
0.0
 10
65.4872566761
 20
134.3633207256
 30
0.0
 10
65.5877384783
 20
133.663752781
 30
0.0
 10
65.9638203486
 20
132.6445116917
 30
0.0
 10
66.5456151677
 20
131.6746019392
 30
0.0
 10
67.1716256056
 20
130.9639799017
 30
0.0
 10
67.7353809066
 20
130.4926036236
 30
0.0
 10
68.2967743335
 20
130.1156673747
 30
0.0
 10
68.8899791129
 20
129.8533370155
 30
0.0
 10
69.4828151448
 20
129.7422406522
 30
0.0
 10
69.894840865
 20
129.7362138741
 30
0.0
 10
70.2785910471
 20
129.8090019011
 30
0.0
 10
70.5119906026
 20
129.9100286551
 30
0.0
 10
70.6189136976
 20
129.9718151465
 30
0.0
  0
SPLINE
  5
56E
100
AcDbEntity
  8
00_COMPONENTS_1
100
AcDbSpline
 62
7
  6
CONTINUOUS
 70
0
 71
3
 72
18
 73
14
 74
0
 42
0.0000001
 43
0.0000001
 44
0.0000000001
 40
0.0
 40
0.0
 40
0.0
 40
0.0
 40
0.1327839933
 40
0.2791045948
 40
0.4301274166
 40
0.5763041798
 40
0.6449989011
 40
0.7095775846
 40
0.8235537526
 40
0.8730873932
 40
0.9181320915
 40
0.9598112774
 40
1.0
 40
1.0
 40
1.0
 40
1.0
 10
41.2522673515
 20
149.2813724066
 30
0.0
 10
41.2522673515
 20
148.9449841126
 30
0.0
 10
41.3360061328
 20
148.2374413143
 30
0.0
 10
41.6439213026
 20
147.1880865077
 30
0.0
 10
42.1207125184
 20
146.1660791482
 30
0.0
 10
42.6373689224
 20
145.3910599698
 30
0.0
 10
43.1068597835
 20
144.8595946758
 30
0.0
 10
43.5652394909
 20
144.4324203722
 30
0.0
 10
44.054157668
 20
144.1077484824
 30
0.0
 10
44.5555593993
 20
143.9332035506
 30
0.0
 10
44.9003205149
 20
143.8852414098
 30
0.0
 10
45.2235231207
 20
143.9204276586
 30
0.0
 10
45.418634445
 20
143.9995954941
 30
0.0
 10
45.5067898575
 20
144.0505300092
 30
0.0
  0
SPLINE
  5
56F
100
AcDbEntity
  8
00_COMPONENTS_1
100
AcDbSpline
 62
7
  6
CONTINUOUS
 70
0
 71
3
 72
9
 73
5
 74
0
 42
0.0000001
 43
0.0000001
 44
0.0000000001
 40
0.0
 40
0.0
 40
0.0
 40
0.0
 40
0.2456973963
 40
1.0
 40
1.0
 40
1.0
 40
1.0
 10
40.064837288
 20
160.0267626157
 30
0.0
 10
40.8445392222
 20
159.4182299594
 30
0.0
 10
44.0445875151
 20
156.9757075107
 30
0.0
 10
47.3476892488
 20
154.6687723702
 30
0.0
 10
49.8860779162
 20
153.0024147927
 30
0.0
  0
SPLINE
  5
570
100
AcDbEntity
  8
00_COMPONENTS_1
100
AcDbSpline
 62
7
  6
CONTINUOUS
 70
0
 71
3
 72
9
 73
5
 74
0
 42
0.0000001
 43
0.0000001
 44
0.0000000001
 40
0.0
 40
0.0
 40
0.0
 40
0.0
 40
0.2542584696
 40
1.0
 40
1.0
 40
1.0
 40
1.0
 10
47.4062249106
 20
151.5706795387
 30
0.0
 10
46.5492348137
 20
152.131913959
 30
0.0
 10
43.1998093183
 20
154.3712607577
 30
0.0
 10
39.9367334773
 20
156.7403556173
 30
0.0
 10
37.5629514045
 20
158.5823067496
 30
0.0
  0
SPLINE
  5
571
100
AcDbEntity
  8
00_COMPONENTS_1
100
AcDbSpline
 62
7
  6
CONTINUOUS
 70
0
 71
3
 72
9
 73
5
 74
0
 42
0.0000001
 43
0.0000001
 44
0.0000000001
 40
0.0
 40
0.0
 40
0.0
 40
0.0
 40
0.2543061331
 40
1.0
 40
1.0
 40
1.0
 40
1.0
 10
49.7883009388
 20
154.291407148
 30
0.0
 10
48.9412094067
 20
154.8483889011
 30
0.0
 10
45.6314185405
 20
157.0705872399
 30
0.0
 10
42.4083150476
 20
159.4225060985
 30
0.0
 10
40.064837288
 20
161.2515162414
 30
0.0
  0
SPLINE
  5
572
100
AcDbEntity
  8
00_COMPONENTS_1
100
AcDbSpline
 62
7
  6
CONTINUOUS
 70
0
 71
3
 72
9
 73
5
 74
0
 42
0.0000001
 43
0.0000001
 44
0.0000000001
 40
0.0
 40
0.0
 40
0.0
 40
0.0
 40
0.2534597222
 40
1.0
 40
1.0
 40
1.0
 40
1.0
 10
78.814450226
 20
138.8799228937
 30
0.0
 10
77.7810902115
 20
139.3212444482
 30
0.0
 10
73.7178541634
 20
141.0944674715
 30
0.0
 10
69.7109108612
 20
142.9971821663
 30
0.0
 10
66.7589346838
 20
144.4936288664
 30
0.0
  0
SPLINE
  5
573
100
AcDbEntity
  8
00_COMPONENTS_1
100
AcDbSpline
 62
7
  6
CONTINUOUS
 70
0
 71
3
 72
9
 73
5
 74
0
 42
0.0000001
 43
0.0000001
 44
0.0000000001
 40
0.0
 40
0.0
 40
0.0
 40
0.0
 40
0.2527873721
 40
1.0
 40
1.0
 40
1.0
 40
1.0
 10
61.9452807587
 20
147.0216557776
 30
0.0
 10
61.2804486281
 20
147.3833371477
 30
0.0
 10
58.6593800778
 20
148.8304592442
 30
0.0
 10
56.0746515033
 20
150.343539126
 30
0.0
 10
54.1670740859
 20
151.5123039121
 30
0.0
  0
SPLINE
  5
574
100
AcDbEntity
  8
00_COMPONENTS_1
100
AcDbSpline
 62
7
  6
CONTINUOUS
 70
0
 71
3
 72
11
 73
7
 74
0
 42
0.0000001
 43
0.0000001
 44
0.0000000001
 40
0.0
 40
0.0
 40
0.0
 40
0.0
 40
0.2114372407
 40
0.449583736
 40
0.7138838849
 40
1.0
 40
1.0
 40
1.0
 40
1.0
 10
99.929779735
 20
170.1255871826
 30
0.0
 10
99.6650429806
 20
170.5231205485
 30
0.0
 10
98.9722829202
 20
171.2839712288
 30
0.0
 10
97.6402782407
 20
172.2096170238
 30
0.0
 10
96.0141856414
 20
172.9555437879
 30
0.0
 10
94.8154663013
 20
173.3024900432
 30
0.0
 10
94.1845132182
 20
173.4425433131
 30
0.0
  0
SPLINE
  5
575
100
AcDbEntity
  8
00_COMPONENTS_1
100
AcDbSpline
 62
7
  6
CONTINUOUS
 70
0
 71
3
 72
10
 73
6
 74
0
 42
0.0000001
 43
0.0000001
 44
0.0000000001
 40
0.0
 40
0.0
 40
0.0
 40
0.0
 40
0.5188235707
 40
0.7707933158
 40
1.0
 40
1.0
 40
1.0
 40
1.0
 10
94.1845132182
 20
173.4425433131
 30
0.0
 10
93.8154262288
 20
173.5244699113
 30
0.0
 10
93.2398959616
 20
173.5483774797
 30
0.0
 10
92.5242616559
 20
173.4007815088
 30
0.0
 10
92.1972189033
 20
173.2647651197
 30
0.0
 10
92.0525712292
 20
173.1812532447
 30
0.0
  0
SPLINE
  5
576
100
AcDbEntity
  8
00_COMPONENTS_1
100
AcDbSpline
 62
7
  6
CONTINUOUS
 70
0
 71
3
 72
11
 73
7
 74
0
 42
0.0000001
 43
0.0000001
 44
0.0000000001
 40
0.0
 40
0.0
 40
0.0
 40
0.0
 40
0.2114372407
 40
0.449583736
 40
0.7138838849
 40
1.0
 40
1.0
 40
1.0
 40
1.0
 10
112.3041999251
 20
162.9813739785
 30
0.0
 10
112.0394631707
 20
163.3789073444
 30
0.0
 10
111.3467031103
 20
164.1397580247
 30
0.0
 10
110.0146984308
 20
165.0654038197
 30
0.0
 10
108.3886058315
 20
165.8113305838
 30
0.0
 10
107.1898864913
 20
166.1582768391
 30
0.0
 10
106.5589334082
 20
166.298330109
 30
0.0
  0
SPLINE
  5
577
100
AcDbEntity
  8
00_COMPONENTS_1
100
AcDbSpline
 62
7
  6
CONTINUOUS
 70
0
 71
3
 72
10
 73
6
 74
0
 42
0.0000001
 43
0.0000001
 44
0.0000000001
 40
0.0
 40
0.0
 40
0.0
 40
0.0
 40
0.5188235707
 40
0.7707933158
 40
1.0
 40
1.0
 40
1.0
 40
1.0
 10
106.5589334082
 20
166.298330109
 30
0.0
 10
106.1898464188
 20
166.3802567072
 30
0.0
 10
105.6143161516
 20
166.4041642756
 30
0.0
 10
104.898681846
 20
166.2565683047
 30
0.0
 10
104.5716390934
 20
166.1205519156
 30
0.0
 10
104.4269914193
 20
166.0370400406
 30
0.0
  0
SPLINE
  5
578
100
AcDbEntity
  8
00_COMPONENTS_1
100
AcDbSpline
 62
7
  6
CONTINUOUS
 70
0
 71
3
 72
11
 73
7
 74
0
 42
0.0000001
 43
0.0000001
 44
0.0000000001
 40
0.0
 40
0.0
 40
0.0
 40
0.0
 40
0.2114372407
 40
0.449583736
 40
0.7138838849
 40
1.0
 40
1.0
 40
1.0
 40
1.0
 10
87.5553595449
 20
177.2698003867
 30
0.0
 10
87.2906227905
 20
177.6673337526
 30
0.0
 10
86.5978627301
 20
178.4281844329
 30
0.0
 10
85.2658580506
 20
179.3538302279
 30
0.0
 10
83.6397654513
 20
180.099756992
 30
0.0
 10
82.4410461112
 20
180.4467032473
 30
0.0
 10
81.8100930281
 20
180.5867565172
 30
0.0
  0
SPLINE
  5
579
100
AcDbEntity
  8
00_COMPONENTS_1
100
AcDbSpline
 62
7
  6
CONTINUOUS
 70
0
 71
3
 72
10
 73
6
 74
0
 42
0.0000001
 43
0.0000001
 44
0.0000000001
 40
0.0
 40
0.0
 40
0.0
 40
0.0
 40
0.5188235707
 40
0.7707933158
 40
1.0
 40
1.0
 40
1.0
 40
1.0
 10
81.8100930281
 20
180.5867565172
 30
0.0
 10
81.4410060387
 20
180.6686831155
 30
0.0
 10
80.8654757715
 20
180.6925906838
 30
0.0
 10
80.1498414658
 20
180.5449947129
 30
0.0
 10
79.8227987132
 20
180.4089783238
 30
0.0
 10
79.6781510392
 20
180.3254664488
 30
0.0
  0
SPLINE
  5
57A
100
AcDbEntity
  8
00_COMPONENTS_1
100
AcDbSpline
 62
7
  6
CONTINUOUS
 70
0
 71
3
 72
8
 73
4
 74
0
 42
0.0000001
 43
0.0000001
 44
0.0000000001
 40
0.0
 40
0.0
 40
0.0
 40
0.0
 40
1.0
 40
1.0
 40
1.0
 40
1.0
 10
99.4396447464
 20
180.2829645118
 30
0.0
 10
99.43967048
 20
180.2890959756
 30
0.0
 10
99.4388581638
 20
180.2952914926
 30
0.0
 10
99.4372091482
 20
180.301197105
 30
0.0
  0
SPLINE
  5
57B
100
AcDbEntity
  8
00_COMPONENTS_1
100
AcDbSpline
 62
7
  6
CONTINUOUS
 70
0
 71
3
 72
10
 73
6
 74
0
 42
0.0000001
 43
0.0000001
 44
0.0000000001
 40
0.0
 40
0.0
 40
0.0
 40
0.0
 40
0.4032704741
 40
0.6756312231
 40
1.0
 40
1.0
 40
1.0
 40
1.0
 10
99.4372091482
 20
180.301197105
 30
0.0
 10
99.4309013215
 20
180.3237872969
 30
0.0
 10
99.398724524
 20
180.3539572638
 30
0.0
 10
99.3456191427
 20
180.3761991486
 30
0.0
 10
99.3117170726
 20
180.3849391819
 30
0.0
 10
99.2932011795
 20
180.3885536417
 30
0.0
  0
SPLINE
  5
57C
100
AcDbEntity
  8
00_COMPONENTS_1
100
AcDbSpline
 62
7
  6
CONTINUOUS
 70
0
 71
3
 72
13
 73
9
 74
0
 42
0.0000001
 43
0.0000001
 44
0.0000000001
 40
0.0
 40
0.0
 40
0.0
 40
0.0
 40
0.275378589
 40
0.549845027
 40
0.675288281
 40
0.7893190506
 40
0.8951562107
 40
1.0
 40
1.0
 40
1.0
 40
1.0
 10
115.5567425217
 20
168.5495615626
 30
0.0
 10
115.4864799698
 20
168.616976086
 30
0.0
 10
115.3151582017
 20
168.7203466908
 30
0.0
 10
115.0712242714
 20
168.7604243904
 30
0.0
 10
114.8917502221
 20
168.7190555148
 30
0.0
 10
114.7855222653
 20
168.6532596366
 30
0.0
 10
114.7176482422
 20
168.5565789024
 30
0.0
 10
114.703279006
 20
168.4810353534
 30
0.0
 10
114.703259667
 20
168.4439628414
 30
0.0
  0
SPLINE
  5
57D
100
AcDbEntity
  8
00_COMPONENTS_1
100
AcDbSpline
 62
7
  6
CONTINUOUS
 70
0
 71
3
 72
13
 73
9
 74
0
 42
0.0000001
 43
0.0000001
 44
0.0000000001
 40
0.0
 40
0.0
 40
0.0
 40
0.0
 40
0.275378589
 40
0.549845027
 40
0.675288281
 40
0.7893190506
 40
0.8951562107
 40
1.0
 40
1.0
 40
1.0
 40
1.0
 10
117.6780540334
 20
169.7742940243
 30
0.0
 10
117.6077914815
 20
169.8417085476
 30
0.0
 10
117.4364697133
 20
169.9450791525
 30
0.0
 10
117.192535783
 20
169.9851568521
 30
0.0
 10
117.0130617338
 20
169.9437879764
 30
0.0
 10
116.9068337769
 20
169.8779920982
 30
0.0
 10
116.8389597538
 20
169.781311364
 30
0.0
 10
116.8245905176
 20
169.705767815
 30
0.0
 10
116.8245711787
 20
169.668695303
 30
0.0
  0
SPLINE
  5
57E
100
AcDbEntity
  8
00_COMPONENTS_1
100
AcDbSpline
 62
7
  6
CONTINUOUS
 70
0
 71
3
 72
8
 73
4
 74
0
 42
0.0000001
 43
0.0000001
 44
0.0000000001
 40
0.0
 40
0.0
 40
0.0
 40
0.0
 40
1.0
 40
1.0
 40
1.0
 40
1.0
 10
101.5609562581
 20
181.5076969734
 30
0.0
 10
101.5609819916
 20
181.5138284372
 30
0.0
 10
101.5601696754
 20
181.5200239542
 30
0.0
 10
101.5585206598
 20
181.5259295666
 30
0.0
  0
SPLINE
  5
57F
100
AcDbEntity
  8
00_COMPONENTS_1
100
AcDbSpline
 62
7
  6
CONTINUOUS
 70
0
 71
3
 72
10
 73
6
 74
0
 42
0.0000001
 43
0.0000001
 44
0.0000000001
 40
0.0
 40
0.0
 40
0.0
 40
0.0
 40
0.4032704741
 40
0.6756312231
 40
1.0
 40
1.0
 40
1.0
 40
1.0
 10
101.5585206598
 20
181.5259295666
 30
0.0
 10
101.5522128331
 20
181.5485197585
 30
0.0
 10
101.5200360357
 20
181.5786897255
 30
0.0
 10
101.4669306544
 20
181.6009316102
 30
0.0
 10
101.4330285843
 20
181.6096716435
 30
0.0
 10
101.4145126912
 20
181.6132861034
 30
0.0
  0
SPLINE
  5
580
100
AcDbEntity
  8
00_COMPONENTS_1
100
AcDbSpline
 62
7
  6
CONTINUOUS
 70
0
 71
3
 72
13
 73
9
 74
0
 42
0.0000001
 43
0.0000001
 44
0.0000000001
 40
0.0
 40
0.0
 40
0.0
 40
0.0
 40
0.275378589
 40
0.549845027
 40
0.675288281
 40
0.7893190506
 40
0.8951562107
 40
1.0
 40
1.0
 40
1.0
 40
1.0
 10
119.799365545
 20
170.9990264859
 30
0.0
 10
119.7291029931
 20
171.0664410092
 30
0.0
 10
119.5577812249
 20
171.1698116141
 30
0.0
 10
119.3138472946
 20
171.2098893137
 30
0.0
 10
119.1343732454
 20
171.168520438
 30
0.0
 10
119.0281452886
 20
171.1027245599
 30
0.0
 10
118.9602712655
 20
171.0060438256
 30
0.0
 10
118.9459020293
 20
170.9305002767
 30
0.0
 10
118.9458826903
 20
170.8934277646
 30
0.0
  0
SPLINE
  5
581
100
AcDbEntity
  8
00_COMPONENTS_1
100
AcDbSpline
 62
7
  6
CONTINUOUS
 70
0
 71
3
 72
13
 73
9
 74
0
 42
0.0000001
 43
0.0000001
 44
0.0000000001
 40
0.0
 40
0.0
 40
0.0
 40
0.0
 40
0.275378589
 40
0.549845027
 40
0.675288281
 40
0.7893190506
 40
0.8951562107
 40
1.0
 40
1.0
 40
1.0
 40
1.0
 10
121.9206770567
 20
172.2237589475
 30
0.0
 10
121.8504145048
 20
172.2911734708
 30
0.0
 10
121.6790927366
 20
172.3945440757
 30
0.0
 10
121.4351588063
 20
172.4346217753
 30
0.0
 10
121.2556847571
 20
172.3932528996
 30
0.0
 10
121.1494568002
 20
172.3274570215
 30
0.0
 10
121.0815827771
 20
172.2307762872
 30
0.0
 10
121.0672135409
 20
172.1552327383
 30
0.0
 10
121.0671942019
 20
172.1181602262
 30
0.0
  0
SPLINE
  5
582
100
AcDbEntity
  8
00_COMPONENTS_1
100
AcDbSpline
 62
7
  6
CONTINUOUS
 70
0
 71
3
 72
9
 73
5
 74
0
 42
0.0000001
 43
0.0000001
 44
0.0000000001
 40
0.0
 40
0.0
 40
0.0
 40
0.0
 40
0.2475288939
 40
1.0
 40
1.0
 40
1.0
 40
1.0
 10
125.2963846017
 20
175.283707124
 30
0.0
 10
125.9483571652
 20
174.8593243915
 30
0.0
 10
128.572009013
 20
173.1291044537
 30
0.0
 10
131.1546639483
 20
171.3368085459
 30
0.0
 10
133.0745929822
 20
169.9561011335
 30
0.0
  0
SPLINE
  5
583
100
AcDbEntity
  8
00_COMPONENTS_1
100
AcDbSpline
 62
7
  6
CONTINUOUS
 70
0
 71
3
 72
11
 73
7
 74
0
 42
0.0000001
 43
0.0000001
 44
0.0000000001
 40
0.0
 40
0.0
 40
0.0
 40
0.0
 40
0.2258830681
 40
0.4689125207
 40
0.7277276202
 40
1.0
 40
1.0
 40
1.0
 40
1.0
 10
133.0745929822
 20
169.9561011335
 30
0.0
 10
132.4012272633
 20
170.1978134197
 30
0.0
 10
131.040801515
 20
170.807368191
 30
0.0
 10
129.068233361
 20
172.0091085302
 30
0.0
 10
127.1239944804
 20
173.510056349
 30
0.0
 10
125.8974325714
 20
174.665314268
 30
0.0
 10
125.2963846017
 20
175.283707124
 30
0.0
  0
SPLINE
  5
584
100
AcDbEntity
  8
00_COMPONENTS_1
100
AcDbSpline
 62
7
  6
CONTINUOUS
 70
0
 71
3
 72
9
 73
5
 74
0
 42
0.0000001
 43
0.0000001
 44
0.0000000001
 40
0.0
 40
0.0
 40
0.0
 40
0.0
 40
0.5255728229
 40
1.0
 40
1.0
 40
1.0
 40
1.0
 10
115.5567425217
 20
168.5495615627
 30
0.0
 10
116.5352244453
 20
167.6107415129
 30
0.0
 10
118.5289559137
 20
165.9549098253
 30
0.0
 10
120.791773073
 20
164.6729243873
 30
0.0
 10
121.920730048
 20
164.1998541689
 30
0.0
  0
SPLINE
  5
585
100
AcDbEntity
  8
00_COMPONENTS_1
100
AcDbSpline
 62
7
  6
CONTINUOUS
 70
0
 71
3
 72
9
 73
5
 74
0
 42
0.0000001
 43
0.0000001
 44
0.0000000001
 40
0.0
 40
0.0
 40
0.0
 40
0.0
 40
0.5255728229
 40
1.0
 40
1.0
 40
1.0
 40
1.0
 10
117.6780540334
 20
169.7742940243
 30
0.0
 10
118.656535957
 20
168.8354739746
 30
0.0
 10
120.6502674254
 20
167.179642287
 30
0.0
 10
122.9130845847
 20
165.8976568489
 30
0.0
 10
124.0420415597
 20
165.4245866305
 30
0.0
  0
SPLINE
  5
586
100
AcDbEntity
  8
00_COMPONENTS_1
100
AcDbSpline
 62
7
  6
CONTINUOUS
 70
0
 71
3
 72
9
 73
5
 74
0
 42
0.0000001
 43
0.0000001
 44
0.0000000001
 40
0.0
 40
0.0
 40
0.0
 40
0.0
 40
0.5255728229
 40
1.0
 40
1.0
 40
1.0
 40
1.0
 10
119.799365545
 20
170.9990264859
 30
0.0
 10
120.7778474686
 20
170.0602064362
 30
0.0
 10
122.771578937
 20
168.4043747486
 30
0.0
 10
125.0343960963
 20
167.1223893105
 30
0.0
 10
126.1633530713
 20
166.6493190921
 30
0.0
  0
SPLINE
  5
587
100
AcDbEntity
  8
00_COMPONENTS_1
100
AcDbSpline
 62
7
  6
CONTINUOUS
 70
0
 71
3
 72
8
 73
4
 74
0
 42
0.0000001
 43
0.0000001
 44
0.0000000001
 40
0.0
 40
0.0
 40
0.0
 40
0.0
 40
1.0
 40
1.0
 40
1.0
 40
1.0
 10
103.6822677697
 20
182.732429435
 30
0.0
 10
103.6822935032
 20
182.7385608988
 30
0.0
 10
103.6814811871
 20
182.7447564158
 30
0.0
 10
103.6798321714
 20
182.7506620282
 30
0.0
  0
SPLINE
  5
588
100
AcDbEntity
  8
00_COMPONENTS_1
100
AcDbSpline
 62
7
  6
CONTINUOUS
 70
0
 71
3
 72
10
 73
6
 74
0
 42
0.0000001
 43
0.0000001
 44
0.0000000001
 40
0.0
 40
0.0
 40
0.0
 40
0.0
 40
0.4032704741
 40
0.6756312231
 40
1.0
 40
1.0
 40
1.0
 40
1.0
 10
103.6798321714
 20
182.7506620282
 30
0.0
 10
103.6735243448
 20
182.7732522201
 30
0.0
 10
103.6413475473
 20
182.8034221871
 30
0.0
 10
103.588242166
 20
182.8256640718
 30
0.0
 10
103.5543400959
 20
182.8344041052
 30
0.0
 10
103.5358242028
 20
182.838018565
 30
0.0
  0
SPLINE
  5
589
100
AcDbEntity
  8
00_COMPONENTS_1
100
AcDbSpline
 62
7
  6
CONTINUOUS
 70
0
 71
3
 72
9
 73
5
 74
0
 42
0.0000001
 43
0.0000001
 44
0.0000000001
 40
0.0
 40
0.0
 40
0.0
 40
0.0
 40
0.5255728229
 40
1.0
 40
1.0
 40
1.0
 40
1.0
 10
121.9206770567
 20
172.2237589475
 30
0.0
 10
122.8991589803
 20
171.2849388978
 30
0.0
 10
124.8928904487
 20
169.6291072102
 30
0.0
 10
127.1557076079
 20
168.3471217721
 30
0.0
 10
128.284664583
 20
167.8740515538
 30
0.0
  0
SPLINE
  5
58A
100
AcDbEntity
  8
00_COMPONENTS_1
100
AcDbSpline
 62
7
  6
CONTINUOUS
 70
0
 71
3
 72
9
 73
5
 74
0
 42
0.0000001
 43
0.0000001
 44
0.0000000001
 40
0.0
 40
0.0
 40
0.0
 40
0.0
 40
0.5093056806
 40
1.0
 40
1.0
 40
1.0
 40
1.0
 10
97.1718366765
 20
185.8366447527
 30
0.0
 10
97.071329948
 20
185.9105816656
 30
0.0
 10
96.8282002316
 20
185.9907577817
 30
0.0
 10
96.5688599828
 20
185.9579684763
 30
0.0
 10
96.4647520218
 20
185.8978620643
 30
0.0
  0
SPLINE
  5
58B
100
AcDbEntity
  8
00_COMPONENTS_1
100
AcDbSpline
 62
7
  6
CONTINUOUS
 70
0
 71
3
 72
9
 73
5
 74
0
 42
0.0000001
 43
0.0000001
 44
0.0000000001
 40
0.0
 40
0.0
 40
0.0
 40
0.0
 40
0.5093056806
 40
1.0
 40
1.0
 40
1.0
 40
1.0
 10
95.0505251649
 20
184.6119122911
 30
0.0
 10
94.9500184364
 20
184.685849204
 30
0.0
 10
94.7068887199
 20
184.76602532
 30
0.0
 10
94.4475484711
 20
184.7332360146
 30
0.0
 10
94.3434405101
 20
184.6731296027
 30
0.0
  0
SPLINE
  5
58C
100
AcDbEntity
  8
00_COMPONENTS_1
100
AcDbSpline
 62
7
  6
CONTINUOUS
 70
0
 71
3
 72
9
 73
5
 74
0
 42
0.0000001
 43
0.0000001
 44
0.0000000001
 40
0.0
 40
0.0
 40
0.0
 40
0.0
 40
0.5093056806
 40
1.0
 40
1.0
 40
1.0
 40
1.0
 10
92.9292136532
 20
183.3871798294
 30
0.0
 10
92.8287069248
 20
183.4611167424
 30
0.0
 10
92.5855772083
 20
183.5412928584
 30
0.0
 10
92.3262369595
 20
183.508503553
 30
0.0
 10
92.2221289985
 20
183.4483971411
 30
0.0
  0
SPLINE
  5
58D
100
AcDbEntity
  8
00_COMPONENTS_1
100
AcDbSpline
 62
7
  6
CONTINUOUS
 70
0
 71
3
 72
9
 73
5
 74
0
 42
0.0000001
 43
0.0000001
 44
0.0000000001
 40
0.0
 40
0.0
 40
0.0
 40
0.0
 40
0.2416096853
 40
1.0
 40
1.0
 40
1.0
 40
1.0
 10
34.1245403442
 20
79.6311448695
 30
0.0
 10
34.1245403447
 20
79.6400004912
 30
0.0
 10
34.1216273033
 20
79.6766617698
 30
0.0
 10
34.1065578849
 20
79.7118035756
 30
0.0
 10
34.0911218814
 20
79.7349207008
 30
0.0
  0
SPLINE
  5
58E
100
AcDbEntity
  8
00_COMPONENTS_1
100
AcDbSpline
 62
7
  6
CONTINUOUS
 70
0
 71
3
 72
9
 73
5
 74
0
 42
0.0000001
 43
0.0000001
 44
0.0000000001
 40
0.0
 40
0.0
 40
0.0
 40
0.0
 40
0.2294302915
 40
1.0
 40
1.0
 40
1.0
 40
1.0
 10
34.0911218814
 20
79.7349207008
 30
0.0
 10
34.0846704751
 20
79.7445823965
 30
0.0
 10
34.0533582456
 20
79.7845644408
 30
0.0
 10
34.0118949064
 20
79.8157576846
 30
0.0
 10
33.9781031092
 20
79.8352669464
 30
0.0
  0
SPLINE
  5
58F
100
AcDbEntity
  8
00_COMPONENTS_1
100
AcDbSpline
 62
7
  6
CONTINUOUS
 70
0
 71
3
 72
9
 73
5
 74
0
 42
0.0000001
 43
0.0000001
 44
0.0000000001
 40
0.0
 40
0.0
 40
0.0
 40
0.0
 40
0.5093056806
 40
1.0
 40
1.0
 40
1.0
 40
1.0
 10
90.8079021416
 20
182.1624473678
 30
0.0
 10
90.7073954131
 20
182.2363842808
 30
0.0
 10
90.4642656966
 20
182.3165603968
 30
0.0
 10
90.2049254479
 20
182.2837710914
 30
0.0
 10
90.1008174869
 20
182.2236646795
 30
0.0
  0
SPLINE
  5
590
100
AcDbEntity
  8
00_COMPONENTS_1
100
AcDbSpline
 62
7
  6
CONTINUOUS
 70
0
 71
3
 72
9
 73
5
 74
0
 42
0.0000001
 43
0.0000001
 44
0.0000000001
 40
0.0
 40
0.0
 40
0.0
 40
0.0
 40
0.2471474676
 40
1.0
 40
1.0
 40
1.0
 40
1.0
 10
100.5475434553
 20
188.7351771029
 30
0.0
 10
101.1716569127
 20
188.4633573486
 30
0.0
 10
103.6892412309
 20
187.3459507743
 30
0.0
 10
106.1760035835
 20
186.1592686972
 30
0.0
 10
108.0298509766
 20
185.2301646303
 30
0.0
  0
SPLINE
  5
591
100
AcDbEntity
  8
00_COMPONENTS_1
100
AcDbSpline
 62
7
  6
CONTINUOUS
 70
0
 71
3
 72
10
 73
6
 74
0
 42
0.0000001
 43
0.0000001
 44
0.0000000001
 40
0.0
 40
0.0
 40
0.0
 40
0.0
 40
0.4635996788
 40
0.7232805039
 40
1.0
 40
1.0
 40
1.0
 40
1.0
 10
108.0854442326
 20
185.11463306
 30
0.0
 10
106.7958086017
 20
185.3080372969
 30
0.0
 10
104.8348347522
 20
185.983292941
 30
0.0
 10
102.3845182891
 20
187.3664898739
 30
0.0
 10
101.1566300158
 20
188.2505189852
 30
0.0
 10
100.5475434553
 20
188.7351771029
 30
0.0
  0
SPLINE
  5
592
100
AcDbEntity
  8
00_COMPONENTS_1
100
AcDbSpline
 62
7
  6
CONTINUOUS
 70
0
 71
3
 72
10
 73
6
 74
0
 42
0.0000001
 43
0.0000001
 44
0.0000000001
 40
0.0
 40
0.0
 40
0.0
 40
0.0
 40
0.2727924899
 40
0.5308817027
 40
1.0
 40
1.0
 40
1.0
 40
1.0
 10
97.1718366765
 20
185.8366447527
 30
0.0
 10
97.6905177119
 20
185.4550814968
 30
0.0
 10
98.7325659209
 20
184.7544709639
 30
0.0
 10
100.8092157275
 20
183.6303338584
 30
0.0
 10
102.4490121651
 20
183.0501735188
 30
0.0
 10
103.5358242028
 20
182.838018565
 30
0.0
  0
SPLINE
  5
593
100
AcDbEntity
  8
00_COMPONENTS_1
100
AcDbSpline
 62
7
  6
CONTINUOUS
 70
0
 71
3
 72
10
 73
6
 74
0
 42
0.0000001
 43
0.0000001
 44
0.0000000001
 40
0.0
 40
0.0
 40
0.0
 40
0.0
 40
0.2727924899
 40
0.5308817027
 40
1.0
 40
1.0
 40
1.0
 40
1.0
 10
95.0505251649
 20
184.6119122911
 30
0.0
 10
95.5692062002
 20
184.2303490352
 30
0.0
 10
96.6112544092
 20
183.5297385023
 30
0.0
 10
98.6879042158
 20
182.4056013968
 30
0.0
 10
100.3277006534
 20
181.8254410572
 30
0.0
 10
101.4145126912
 20
181.6132861034
 30
0.0
  0
SPLINE
  5
594
100
AcDbEntity
  8
00_COMPONENTS_1
100
AcDbSpline
 62
7
  6
CONTINUOUS
 70
0
 71
3
 72
11
 73
7
 74
0
 42
0.0000001
 43
0.0000001
 44
0.0000000001
 40
0.0
 40
0.0
 40
0.0
 40
0.0
 40
0.2076987099
 40
0.4341017743
 40
0.6967133246
 40
1.0
 40
1.0
 40
1.0
 40
1.0
 10
128.4310544189
 20
167.7121311358
 30
0.0
 10
128.4310672529
 20
167.7280851391
 30
0.0
 10
128.4239681606
 20
167.7617885954
 30
0.0
 10
128.3930007583
 20
167.806695225
 30
0.0
 10
128.3450923613
 20
167.8451504337
 30
0.0
 10
128.3061508841
 20
167.8650480847
 30
0.0
 10
128.284664583
 20
167.8740515538
 30
0.0
  0
SPLINE
  5
595
100
AcDbEntity
  8
00_COMPONENTS_1
100
AcDbSpline
 62
7
  6
CONTINUOUS
 70
0
 71
3
 72
10
 73
6
 74
0
 42
0.0000001
 43
0.0000001
 44
0.0000000001
 40
0.0
 40
0.0
 40
0.0
 40
0.0
 40
0.2727924899
 40
0.5308817027
 40
1.0
 40
1.0
 40
1.0
 40
1.0
 10
92.9292136532
 20
183.3871798295
 30
0.0
 10
93.4478946886
 20
183.0056165736
 30
0.0
 10
94.4899428976
 20
182.3050060407
 30
0.0
 10
96.5665927042
 20
181.1808689351
 30
0.0
 10
98.2063891418
 20
180.6007085956
 30
0.0
 10
99.2932011795
 20
180.3885536417
 30
0.0
  0
SPLINE
  5
596
100
AcDbEntity
  8
00_COMPONENTS_1
100
AcDbSpline
 62
7
  6
CONTINUOUS
 70
0
 71
3
 72
10
 73
6
 74
0
 42
0.0000001
 43
0.0000001
 44
0.0000000001
 40
0.0
 40
0.0
 40
0.0
 40
0.0
 40
0.2727924899
 40
0.5308817027
 40
1.0
 40
1.0
 40
1.0
 40
1.0
 10
90.8079021416
 20
182.1624473678
 30
0.0
 10
91.326583177
 20
181.7808841119
 30
0.0
 10
92.3686313859
 20
181.0802735791
 30
0.0
 10
94.4452811925
 20
179.9561364735
 30
0.0
 10
96.0850776302
 20
179.375976134
 30
0.0
 10
97.1718896679
 20
179.1638211801
 30
0.0
  0
SPLINE
  5
597
100
AcDbEntity
  8
00_COMPONENTS_1
100
AcDbSpline
 62
7
  6
CONTINUOUS
 70
0
 71
3
 72
11
 73
7
 74
0
 42
0.0000001
 43
0.0000001
 44
0.0000000001
 40
0.0
 40
0.0
 40
0.0
 40
0.0
 40
0.2076987099
 40
0.4341017743
 40
0.6967133246
 40
1.0
 40
1.0
 40
1.0
 40
1.0
 10
126.3097429073
 20
166.4873986742
 30
0.0
 10
126.3097557413
 20
166.5033526775
 30
0.0
 10
126.3026566489
 20
166.5370561337
 30
0.0
 10
126.2716892466
 20
166.5819627634
 30
0.0
 10
126.2237808496
 20
166.6204179721
 30
0.0
 10
126.1848393724
 20
166.6403156231
 30
0.0
 10
126.1633530713
 20
166.6493190921
 30
0.0
  0
SPLINE
  5
598
100
AcDbEntity
  8
00_COMPONENTS_1
100
AcDbSpline
 62
7
  6
CONTINUOUS
 70
0
 71
3
 72
11
 73
7
 74
0
 42
0.0000001
 43
0.0000001
 44
0.0000000001
 40
0.0
 40
0.0
 40
0.0
 40
0.0
 40
0.2076987099
 40
0.4341017743
 40
0.6967133246
 40
1.0
 40
1.0
 40
1.0
 40
1.0
 10
124.1884313956
 20
165.2626662126
 30
0.0
 10
124.1884442296
 20
165.2786202159
 30
0.0
 10
124.1813451373
 20
165.3123236721
 30
0.0
 10
124.150377735
 20
165.3572303017
 30
0.0
 10
124.102469338
 20
165.3956855105
 30
0.0
 10
124.0635278608
 20
165.4155831615
 30
0.0
 10
124.0420415597
 20
165.4245866305
 30
0.0
  0
SPLINE
  5
599
100
AcDbEntity
  8
00_COMPONENTS_1
100
AcDbSpline
 62
7
  6
CONTINUOUS
 70
0
 71
3
 72
10
 73
6
 74
0
 42
0.0000001
 43
0.0000001
 44
0.0000000001
 40
0.0
 40
0.0
 40
0.0
 40
0.0
 40
0.2531333719
 40
0.5180579712
 40
1.0
 40
1.0
 40
1.0
 40
1.0
 10
109.192702004
 20
180.0019395592
 30
0.0
 10
109.1451165053
 20
180.0435997351
 30
0.0
 10
109.0332774861
 20
180.1135318738
 30
0.0
 10
108.7950879797
 20
180.188230732
 30
0.0
 10
108.5898758724
 20
180.1732146238
 30
0.0
 10
108.4855951971
 20
180.1130084405
 30
0.0
  0
SPLINE
  5
59A
100
AcDbEntity
  8
00_COMPONENTS_1
100
AcDbSpline
 62
7
  6
CONTINUOUS
 70
0
 71
3
 72
10
 73
6
 74
0
 42
0.0000001
 43
0.0000001
 44
0.0000000001
 40
0.0
 40
0.0
 40
0.0
 40
0.0
 40
0.2531333768
 40
0.5180579796
 40
1.0
 40
1.0
 40
1.0
 40
1.0
 10
102.8287674691
 20
176.3277421744
 30
0.0
 10
102.781181961
 20
176.3694023586
 30
0.0
 10
102.6693429177
 20
176.4393345072
 30
0.0
 10
102.4311533595
 20
176.5140333658
 30
0.0
 10
102.2259412277
 20
176.4990172064
 30
0.0
 10
102.1216605355
 20
176.4388110134
 30
0.0
  0
SPLINE
  5
59B
100
AcDbEntity
  8
00_COMPONENTS_1
100
AcDbSpline
 62
7
  6
CONTINUOUS
 70
0
 71
3
 72
10
 73
6
 74
0
 42
0.0000001
 43
0.0000001
 44
0.0000000001
 40
0.0
 40
0.0
 40
0.0
 40
0.0
 40
0.2531333768
 40
0.5180579796
 40
1.0
 40
1.0
 40
1.0
 40
1.0
 10
104.9500789807
 20
177.552474636
 30
0.0
 10
104.9024934726
 20
177.5941348202
 30
0.0
 10
104.7906544294
 20
177.6640669688
 30
0.0
 10
104.5524648711
 20
177.7387658274
 30
0.0
 10
104.3472527393
 20
177.723749668
 30
0.0
 10
104.2429720472
 20
177.663543475
 30
0.0
  0
SPLINE
  5
59C
100
AcDbEntity
  8
00_COMPONENTS_1
100
AcDbSpline
 62
7
  6
CONTINUOUS
 70
0
 71
3
 72
10
 73
6
 74
0
 42
0.0000001
 43
0.0000001
 44
0.0000000001
 40
0.0
 40
0.0
 40
0.0
 40
0.0
 40
0.2531333768
 40
0.5180579796
 40
1.0
 40
1.0
 40
1.0
 40
1.0
 10
107.0713904924
 20
178.7772070976
 30
0.0
 10
107.0238049843
 20
178.8188672818
 30
0.0
 10
106.911965941
 20
178.8887994304
 30
0.0
 10
106.6737763828
 20
178.963498289
 30
0.0
 10
106.4685642509
 20
178.9484821296
 30
0.0
 10
106.3642835588
 20
178.8882759366
 30
0.0
  0
SPLINE
  5
59D
100
AcDbEntity
  8
00_COMPONENTS_1
100
AcDbSpline
 62
7
  6
CONTINUOUS
 70
0
 71
3
 72
9
 73
5
 74
0
 42
0.0000001
 43
0.0000001
 44
0.0000000001
 40
0.0
 40
0.0
 40
0.0
 40
0.0
 40
0.5274957896
 40
1.0
 40
1.0
 40
1.0
 40
1.0
 10
109.192702004
 20
180.0019395592
 30
0.0
 10
110.1821497804
 20
179.1356973303
 30
0.0
 10
112.1840623715
 20
177.62949474
 30
0.0
 10
114.4419812084
 20
176.5199822563
 30
0.0
 10
115.5566895303
 20
176.1391597212
 30
0.0
  0
SPLINE
  5
59E
100
AcDbEntity
  8
00_COMPONENTS_1
100
AcDbSpline
 62
7
  6
CONTINUOUS
 70
0
 71
3
 72
9
 73
5
 74
0
 42
0.0000001
 43
0.0000001
 44
0.0000000001
 40
0.0
 40
0.0
 40
0.0
 40
0.0
 40
0.2472703216
 40
1.0
 40
1.0
 40
1.0
 40
1.0
 10
112.9219646365
 20
182.6743323429
 30
0.0
 10
113.5723826315
 20
182.3207227147
 30
0.0
 10
116.1934217651
 20
180.8735162587
 30
0.0
 10
118.7770687899
 20
179.3587175992
 30
0.0
 10
120.700171739
 20
178.1836839703
 30
0.0
  0
SPLINE
  5
59F
100
AcDbEntity
  8
00_COMPONENTS_1
100
AcDbSpline
 62
7
  6
CONTINUOUS
 70
0
 71
3
 72
11
 73
7
 74
0
 42
0.0000001
 43
0.0000001
 44
0.0000000001
 40
0.0
 40
0.0
 40
0.0
 40
0.0
 40
0.2238232546
 40
0.4657182091
 40
0.7250497218
 40
1.0
 40
1.0
 40
1.0
 40
1.0
 10
120.700171739
 20
178.1836839703
 30
0.0
 10
120.0436032265
 20
178.3458954598
 30
0.0
 10
118.7048941654
 20
178.800102975
 30
0.0
 10
116.7424793439
 20
179.7865259052
 30
0.0
 10
114.7839359157
 20
181.085543441
 30
0.0
 10
113.5371558723
 20
182.1159756019
 30
0.0
 10
112.9219646365
 20
182.6743323429
 30
0.0
  0
SPLINE
  5
5A0
100
AcDbEntity
  8
00_COMPONENTS_1
100
AcDbSpline
 62
7
  6
CONTINUOUS
 70
0
 71
3
 72
11
 73
7
 74
0
 42
0.0000001
 43
0.0000001
 44
0.0000000001
 40
0.0
 40
0.0
 40
0.0
 40
0.0
 40
0.2076987099
 40
0.4341017743
 40
0.6967133246
 40
1.0
 40
1.0
 40
1.0
 40
1.0
 10
122.067119884
 20
164.037933751
 30
0.0
 10
122.067132718
 20
164.0538877543
 30
0.0
 10
122.0600336256
 20
164.0875912105
 30
0.0
 10
122.0290662234
 20
164.1324978401
 30
0.0
 10
121.9811578264
 20
164.1709530489
 30
0.0
 10
121.9422163492
 20
164.1908506999
 30
0.0
 10
121.920730048
 20
164.1998541689
 30
0.0
  0
SPLINE
  5
5A1
100
AcDbEntity
  8
00_COMPONENTS_1
100
AcDbSpline
 62
7
  6
CONTINUOUS
 70
0
 71
3
 72
9
 73
5
 74
0
 42
0.0000001
 43
0.0000001
 44
0.0000000001
 40
0.0
 40
0.0
 40
0.0
 40
0.0
 40
0.5274957896
 40
1.0
 40
1.0
 40
1.0
 40
1.0
 10
102.8287674691
 20
176.3277421744
 30
0.0
 10
103.8182152455
 20
175.4614999455
 30
0.0
 10
105.8201278365
 20
173.9552973552
 30
0.0
 10
108.0780466735
 20
172.8457848714
 30
0.0
 10
109.1927549954
 20
172.4649623363
 30
0.0
  0
SPLINE
  5
5A2
100
AcDbEntity
  8
00_COMPONENTS_1
100
AcDbSpline
 62
7
  6
CONTINUOUS
 70
0
 71
3
 72
9
 73
5
 74
0
 42
0.0000001
 43
0.0000001
 44
0.0000000001
 40
0.0
 40
0.0
 40
0.0
 40
0.0
 40
0.5274957896
 40
1.0
 40
1.0
 40
1.0
 40
1.0
 10
104.9500789807
 20
177.552474636
 30
0.0
 10
105.9395267571
 20
176.6862324071
 30
0.0
 10
107.9414393482
 20
175.1800298168
 30
0.0
 10
110.1993581851
 20
174.070517333
 30
0.0
 10
111.314066507
 20
173.6896947979
 30
0.0
  0
SPLINE
  5
5A3
100
AcDbEntity
  8
00_COMPONENTS_1
100
AcDbSpline
 62
7
  6
CONTINUOUS
 70
0
 71
3
 72
9
 73
5
 74
0
 42
0.0000001
 43
0.0000001
 44
0.0000000001
 40
0.0
 40
0.0
 40
0.0
 40
0.0
 40
0.5274957896
 40
1.0
 40
1.0
 40
1.0
 40
1.0
 10
107.0713904924
 20
178.7772070976
 30
0.0
 10
108.0608382687
 20
177.9109648687
 30
0.0
 10
110.0627508598
 20
176.4047622784
 30
0.0
 10
112.3206696968
 20
175.2952497947
 30
0.0
 10
113.4353780187
 20
174.9144272596
 30
0.0
  0
SPLINE
  5
5A4
100
AcDbEntity
  8
00_COMPONENTS_1
100
AcDbSpline
 62
7
  6
CONTINUOUS
 70
0
 71
3
 72
9
 73
5
 74
0
 42
0.0000001
 43
0.0000001
 44
0.0000000001
 40
0.0
 40
0.0
 40
0.0
 40
0.0
 40
0.2534382789
 40
1.0
 40
1.0
 40
1.0
 40
1.0
 10
76.3125643426
 20
136.2107134019
 30
0.0
 10
75.271673273
 20
136.6578361862
 30
0.0
 10
71.1784591983
 20
138.4541050739
 30
0.0
 10
67.1418673476
 20
140.3798922678
 30
0.0
 10
64.1678141884
 20
141.8935903821
 30
0.0
  0
SPLINE
  5
5A5
100
AcDbEntity
  8
00_COMPONENTS_1
100
AcDbSpline
 62
7
  6
CONTINUOUS
 70
0
 71
3
 72
9
 73
5
 74
0
 42
0.0000001
 43
0.0000001
 44
0.0000000001
 40
0.0
 40
0.0
 40
0.0
 40
0.0
 40
0.2464949224
 40
1.0
 40
1.0
 40
1.0
 40
1.0
 10
66.647667194
 20
143.3253256361
 30
0.0
 10
67.6311781835
 20
142.8259490545
 30
0.0
 10
71.6386077722
 20
140.8345249645
 30
0.0
 10
75.7135776387
 20
138.9794724067
 30
0.0
 10
78.814450226
 20
137.655169268
 30
0.0
  0
SPLINE
  5
5A6
100
AcDbEntity
  8
00_COMPONENTS_1
100
AcDbSpline
 62
7
  6
CONTINUOUS
 70
0
 71
3
 72
9
 73
5
 74
0
 42
0.0000001
 43
0.0000001
 44
0.0000000001
 40
0.0
 40
0.0
 40
0.0
 40
0.0
 40
0.252809216
 40
1.0
 40
1.0
 40
1.0
 40
1.0
 10
59.5769563787
 20
144.3088676386
 30
0.0
 10
58.8941241535
 20
144.6801683312
 30
0.0
 10
56.2023892663
 20
146.1657847594
 30
0.0
 10
53.5482454995
 20
147.7196560749
 30
0.0
 10
51.589705269
 20
148.9202049158
 30
0.0
  0
SPLINE
  5
5A7
100
AcDbEntity
  8
00_COMPONENTS_1
100
AcDbSpline
 62
7
  6
CONTINUOUS
 70
0
 71
3
 72
9
 73
5
 74
0
 42
0.0000001
 43
0.0000001
 44
0.0000000001
 40
0.0
 40
0.0
 40
0.0
 40
0.0
 40
0.2471440537
 40
1.0
 40
1.0
 40
1.0
 40
1.0
 10
54.0656990506
 20
150.3497120591
 30
0.0
 10
54.7133156988
 20
149.9522846457
 30
0.0
 10
57.3446909108
 20
148.3621379863
 30
0.0
 10
60.0189698408
 20
146.8431298858
 30
0.0
 10
62.0529501599
 20
145.7383747817
 30
0.0
  0
SPLINE
  5
5A8
100
AcDbEntity
  8
00_COMPONENTS_1
100
AcDbSpline
 62
7
  6
CONTINUOUS
 70
0
 71
3
 72
20
 73
16
 74
0
 42
0.0000001
 43
0.0000001
 44
0.0000000001
 40
0.0
 40
0.0
 40
0.0
 40
0.0
 40
0.0624079536
 40
0.1288053412
 40
0.2703018691
 40
0.4173615593
 40
0.5616167771
 40
0.6302536235
 40
0.695379131
 40
0.7563626758
 40
0.8128322735
 40
0.8647628344
 40
0.9125665255
 40
0.957167981
 40
1.0
 40
1.0
 40
1.0
 40
1.0
 10
48.613460288
 20
76.7989821907
 30
0.0
 10
48.613460288
 20
77.3866246022
 30
0.0
 10
48.5337558416
 20
78.6003479628
 30
0.0
 10
48.087381548
 20
81.1099641969
 30
0.0
 10
47.0098361288
 20
84.2962611005
 30
0.0
 10
45.0620289845
 20
87.8953639294
 30
0.0
 10
42.9640143996
 20
90.5823904829
 30
0.0
 10
41.0759513649
 20
92.4010389601
 30
0.0
 10
39.6291493041
 20
93.5336854257
 30
0.0
 10
38.158982126
 20
94.4331794944
 30
0.0
 10
36.6951096287
 20
95.0800819329
 30
0.0
 10
35.2667666025
 20
95.4595539638
 30
0.0
 10
33.9019703309
 20
95.5600675993
 30
0.0
 10
32.6309920351
 20
95.3738284685
 30
0.0
 10
31.8610909302
 20
95.0537427492
 30
0.0
 10
31.5117982396
 20
94.8521103369
 30
0.0
  0
SPLINE
  5
5A9
100
AcDbEntity
  8
00_COMPONENTS_1
100
AcDbSpline
 62
7
  6
CONTINUOUS
 70
0
 71
3
 72
11
 73
7
 74
0
 42
0.0000001
 43
0.0000001
 44
0.0000000001
 40
0.0
 40
0.0
 40
0.0
 40
0.0
 40
0.2847897174
 40
0.5486284172
 40
0.7872805271
 40
1.0
 40
1.0
 40
1.0
 40
1.0
 10
94.1845132182
 20
172.626040896
 30
0.0
 10
94.7989970427
 20
172.4896433234
 30
0.0
 10
95.9683632142
 20
172.1532288979
 30
0.0
 10
97.5607671383
 20
171.434513477
 30
0.0
 10
98.8772458826
 20
170.5441339496
 30
0.0
 10
99.5737551477
 20
169.813365954
 30
0.0
 10
99.8463174726
 20
169.4302841966
 30
0.0
  0
SPLINE
  5
5AA
100
AcDbEntity
  8
00_COMPONENTS_1
100
AcDbSpline
 62
7
  6
CONTINUOUS
 70
0
 71
3
 72
11
 73
7
 74
0
 42
0.0000001
 43
0.0000001
 44
0.0000000001
 40
0.0
 40
0.0
 40
0.0
 40
0.0
 40
0.2897033281
 40
0.5490895198
 40
0.7822165953
 40
1.0
 40
1.0
 40
1.0
 40
1.0
 10
57.927864575
 20
56.3161353078
 30
0.0
 10
57.927864575
 20
56.1134627303
 30
0.0
 10
57.8971364304
 20
55.7280224422
 30
0.0
 10
57.7410377381
 20
55.1984476849
 30
0.0
 10
57.4782193827
 20
54.7687277177
 30
0.0
 10
57.2313531735
 20
54.5611876221
 30
0.0
 10
57.099406741
 20
54.4850088268
 30
0.0
  0
SPLINE
  5
5AB
100
AcDbEntity
  8
00_COMPONENTS_1
100
AcDbSpline
 62
7
  6
CONTINUOUS
 70
0
 71
3
 72
10
 73
6
 74
0
 42
0.0000001
 43
0.0000001
 44
0.0000000001
 40
0.0
 40
0.0
 40
0.0
 40
0.0
 40
0.2292066842
 40
0.4811764293
 40
1.0
 40
1.0
 40
1.0
 40
1.0
 10
92.0525712292
 20
172.3647508276
 30
0.0
 10
92.1972189033
 20
172.4482627026
 30
0.0
 10
92.5242616559
 20
172.5842790917
 30
0.0
 10
93.2398959616
 20
172.7318750626
 30
0.0
 10
93.8154262288
 20
172.7079674942
 30
0.0
 10
94.1845132182
 20
172.626040896
 30
0.0
  0
SPLINE
  5
5AC
100
AcDbEntity
  8
00_COMPONENTS_1
100
AcDbSpline
 62
7
  6
CONTINUOUS
 70
0
 71
3
 72
10
 73
6
 74
0
 42
0.0000001
 43
0.0000001
 44
0.0000000001
 40
0.0
 40
0.0
 40
0.0
 40
0.0
 40
0.4564085541
 40
0.7187750923
 40
1.0
 40
1.0
 40
1.0
 40
1.0
 10
97.8722066667
 20
169.7626025537
 30
0.0
 10
97.5477572429
 20
170.1643035441
 30
0.0
 10
96.88450352
 20
170.6749643528
 30
0.0
 10
95.8636280697
 20
171.1620754253
 30
0.0
 10
95.2772858382
 20
171.355410464
 30
0.0
 10
94.9700574322
 20
171.4381212902
 30
0.0
  0
SPLINE
  5
5AD
100
AcDbEntity
  8
00_COMPONENTS_1
100
AcDbSpline
 62
7
  6
CONTINUOUS
 70
0
 71
3
 72
10
 73
6
 74
0
 42
0.0000001
 43
0.0000001
 44
0.0000000001
 40
0.0
 40
0.0
 40
0.0
 40
0.0
 40
0.5163935082
 40
0.7699081112
 40
1.0
 40
1.0
 40
1.0
 40
1.0
 10
93.0508503667
 20
171.9548026869
 30
0.0
 10
92.8583751217
 20
172.0066201173
 30
0.0
 10
92.5532172407
 20
172.0272772329
 30
0.0
 10
92.1729179921
 20
171.9553297826
 30
0.0
 10
91.998042872
 20
171.8842004845
 30
0.0
 10
91.9211261531
 20
171.8397928612
 30
0.0
  0
SPLINE
  5
5AE
100
AcDbEntity
  8
00_COMPONENTS_1
100
AcDbSpline
 62
7
  6
CONTINUOUS
 70
0
 71
3
 72
11
 73
7
 74
0
 42
0.0000001
 43
0.0000001
 44
0.0000000001
 40
0.0
 40
0.0
 40
0.0
 40
0.0
 40
0.237239768
 40
0.4999988393
 40
0.7627585384
 40
1.0
 40
1.0
 40
1.0
 40
1.0
 10
55.0994256744
 20
91.4256974282
 30
0.0
 10
55.5009843152
 20
91.1938626837
 30
0.0
 10
56.2608794096
 20
90.5543149115
 30
0.0
 10
57.1477802581
 20
89.3423380423
 30
0.0
 10
57.7539402909
 20
87.9682707062
 30
0.0
 10
57.927864575
 20
86.9904054078
 30
0.0
 10
57.927864575
 20
86.5267247416
 30
0.0
  0
SPLINE
  5
5AF
100
AcDbEntity
  8
00_COMPONENTS_1
100
AcDbSpline
 62
7
  6
CONTINUOUS
 70
0
 71
3
 72
11
 73
7
 74
0
 42
0.0000001
 43
0.0000001
 44
0.0000000001
 40
0.0
 40
0.0
 40
0.0
 40
0.0
 40
0.2161883766
 40
0.4484187895
 40
0.7083361885
 40
1.0
 40
1.0
 40
1.0
 40
1.0
 10
35.6075829956
 20
81.3076792693
 30
0.0
 10
35.6085472015
 20
81.4396477328
 30
0.0
 10
35.5605000605
 20
81.7156251606
 30
0.0
 10
35.3498856634
 20
82.1001874982
 30
0.0
 10
35.0158038242
 20
82.4485964025
 30
0.0
 10
34.7364393371
 20
82.6403849399
 30
0.0
 10
34.5822185011
 20
82.7293583828
 30
0.0
  0
SPLINE
  5
5B0
100
AcDbEntity
  8
00_COMPONENTS_1
100
AcDbSpline
 62
7
  6
CONTINUOUS
 70
0
 71
3
 72
10
 73
6
 74
0
 42
0.0000001
 43
0.0000001
 44
0.0000000001
 40
0.0
 40
0.0
 40
0.0
 40
0.0
 40
0.2292066842
 40
0.4811764293
 40
1.0
 40
1.0
 40
1.0
 40
1.0
 10
104.4269914193
 20
165.2205376234
 30
0.0
 10
104.5716390934
 20
165.3040494985
 30
0.0
 10
104.898681846
 20
165.4400658876
 30
0.0
 10
105.6143161516
 20
165.5876618585
 30
0.0
 10
106.1898464188
 20
165.5637542901
 30
0.0
 10
106.5589334082
 20
165.4818276919
 30
0.0
  0
SPLINE
  5
5B1
100
AcDbEntity
  8
00_COMPONENTS_1
100
AcDbSpline
 62
7
  6
CONTINUOUS
 70
0
 71
3
 72
11
 73
7
 74
0
 42
0.0000001
 43
0.0000001
 44
0.0000000001
 40
0.0
 40
0.0
 40
0.0
 40
0.0
 40
0.2847897174
 40
0.5486284172
 40
0.7872805271
 40
1.0
 40
1.0
 40
1.0
 40
1.0
 10
106.5589334082
 20
165.4818276919
 30
0.0
 10
107.1734172328
 20
165.3454301193
 30
0.0
 10
108.3427834043
 20
165.0090156938
 30
0.0
 10
109.9351873283
 20
164.2903002729
 30
0.0
 10
111.2516660726
 20
163.3999207455
 30
0.0
 10
111.9481753378
 20
162.6691527499
 30
0.0
 10
112.2207376627
 20
162.2860709925
 30
0.0
  0
SPLINE
  5
5B2
100
AcDbEntity
  8
00_COMPONENTS_1
100
AcDbSpline
 62
7
  6
CONTINUOUS
 70
0
 71
3
 72
18
 73
14
 74
0
 42
0.0000001
 43
0.0000001
 44
0.0000000001
 40
0.0
 40
0.0
 40
0.0
 40
0.0
 40
0.0428799318
 40
0.0872122459
 40
0.1342175005
 40
0.1847559793
 40
0.2393034928
 40
0.2979832704
 40
0.4267166715
 40
0.5674775369
 40
0.7144394551
 40
0.8608425466
 40
1.0
 40
1.0
 40
1.0
 40
1.0
 10
27.8843546972
 20
92.7578193019
 30
0.0
 10
28.1988475735
 20
92.939366231
 30
0.0
 10
28.8840486376
 20
93.2349349575
 30
0.0
 10
30.0101104694
 20
93.4421386617
 30
0.0
 10
31.2186473686
 20
93.4169416626
 30
0.0
 10
32.4871974793
 20
93.1632565065
 30
0.0
 10
33.7949485372
 20
92.6879755521
 30
0.0
 10
35.6179889432
 20
91.7422933968
 30
0.0
 10
37.8456872428
 20
90.045396614
 30
0.0
 10
40.2401988389
 20
87.4362430554
 30
0.0
 10
42.2828305471
 20
84.3616812649
 30
0.0
 10
43.8356233292
 20
81.0299056791
 30
0.0
 10
44.5025134383
 20
78.6905114081
 30
0.0
 10
44.71541731
 20
77.5314362225
 30
0.0
  0
SPLINE
  5
5B3
100
AcDbEntity
  8
00_COMPONENTS_1
100
AcDbSpline
 62
7
  6
CONTINUOUS
 70
0
 71
3
 72
9
 73
5
 74
0
 42
0.0000001
 43
0.0000001
 44
0.0000000001
 40
0.0
 40
0.0
 40
0.0
 40
0.0
 40
0.2546527225
 40
1.0
 40
1.0
 40
1.0
 40
1.0
 10
44.9350129937
 20
75.8987666672
 30
0.0
 10
44.9434498832
 20
75.7976510621
 30
0.0
 10
44.9726709971
 20
75.400267195
 30
0.0
 10
44.9860176031
 20
75.0016750489
 30
0.0
 10
44.9860176031
 20
74.7046896813
 30
0.0
  0
SPLINE
  5
5B4
100
AcDbEntity
  8
00_COMPONENTS_1
100
AcDbSpline
 62
7
  6
CONTINUOUS
 70
0
 71
3
 72
9
 73
5
 74
0
 42
0.0000001
 43
0.0000001
 44
0.0000000001
 40
0.0
 40
0.0
 40
0.0
 40
0.0
 40
0.4709411243
 40
1.0
 40
1.0
 40
1.0
 40
1.0
 10
133.4390982739
 20
177.2178610015
 30
0.0
 10
134.3063914382
 20
176.9474494538
 30
0.0
 10
136.0705611362
 20
176.1190020642
 30
0.0
 10
137.6289862459
 20
174.9646956236
 30
0.0
 10
138.3999001931
 20
174.295903946
 30
0.0
  0
SPLINE
  5
5B5
100
AcDbEntity
  8
00_COMPONENTS_1
100
AcDbSpline
 62
7
  6
CONTINUOUS
 70
0
 71
3
 72
10
 73
6
 74
0
 42
0.0000001
 43
0.0000001
 44
0.0000000001
 40
0.0
 40
0.0
 40
0.0
 40
0.0
 40
0.4564085541
 40
0.7187750923
 40
1.0
 40
1.0
 40
1.0
 40
1.0
 10
110.2466268568
 20
162.6183893496
 30
0.0
 10
109.922177433
 20
163.02009034
 30
0.0
 10
109.25892371
 20
163.5307511487
 30
0.0
 10
108.2380482598
 20
164.0178622212
 30
0.0
 10
107.6517060283
 20
164.2111972599
 30
0.0
 10
107.3444776223
 20
164.2939080861
 30
0.0
  0
SPLINE
  5
5B6
100
AcDbEntity
  8
00_COMPONENTS_1
100
AcDbSpline
 62
7
  6
CONTINUOUS
 70
0
 71
3
 72
10
 73
6
 74
0
 42
0.0000001
 43
0.0000001
 44
0.0000000001
 40
0.0
 40
0.0
 40
0.0
 40
0.0
 40
0.5163935082
 40
0.7699081112
 40
1.0
 40
1.0
 40
1.0
 40
1.0
 10
105.4252705568
 20
164.8105894828
 30
0.0
 10
105.2327953118
 20
164.8624069132
 30
0.0
 10
104.9276374307
 20
164.8830640288
 30
0.0
 10
104.5473381822
 20
164.8111165785
 30
0.0
 10
104.3724630621
 20
164.7399872804
 30
0.0
 10
104.2955463432
 20
164.6955796571
 30
0.0
  0
SPLINE
  5
5B7
100
AcDbEntity
  8
00_COMPONENTS_1
100
AcDbSpline
 62
7
  6
CONTINUOUS
 70
0
 71
3
 72
9
 73
5
 74
0
 42
0.0000001
 43
0.0000001
 44
0.0000000001
 40
0.0
 40
0.0
 40
0.0
 40
0.0
 40
0.2744553508
 40
1.0
 40
1.0
 40
1.0
 40
1.0
 10
42.3712928252
 20
149.9274382086
 30
0.0
 10
42.3712928252
 20
150.0414972721
 30
0.0
 10
42.3904889903
 20
150.4559128207
 30
0.0
 10
42.4945209896
 20
150.8732762228
 30
0.0
 10
42.6375090165
 20
151.138740526
 30
0.0
  0
SPLINE
  5
5B8
100
AcDbEntity
  8
00_COMPONENTS_1
100
AcDbSpline
 62
7
  6
CONTINUOUS
 70
0
 71
3
 72
9
 73
5
 74
0
 42
0.0000001
 43
0.0000001
 44
0.0000000001
 40
0.0
 40
0.0
 40
0.0
 40
0.0
 40
0.2706688481
 40
1.0
 40
1.0
 40
1.0
 40
1.0
 10
67.1201332053
 20
135.6390118004
 30
0.0
 10
67.1201332053
 20
135.737964589
 30
0.0
 10
67.1349287605
 20
136.1028950987
 30
0.0
 10
67.2130713957
 20
136.4689895734
 30
0.0
 10
67.3197949844
 20
136.7133324431
 30
0.0
  0
SPLINE
  5
5B9
100
AcDbEntity
  8
00_COMPONENTS_1
100
AcDbSpline
 62
7
  6
CONTINUOUS
 70
0
 71
3
 72
12
 73
8
 74
0
 42
0.0000001
 43
0.0000001
 44
0.0000000001
 40
0.0
 40
0.0
 40
0.0
 40
0.0
 40
0.1081598454
 40
0.2183605424
 40
0.4513598968
 40
0.7104246825
 40
1.0
 40
1.0
 40
1.0
 40
1.0
 10
45.6791860117
 20
70.3133284176
 30
0.0
 10
45.9114522633
 20
70.4474530663
 30
0.0
 10
46.3580271461
 20
70.7591608201
 30
0.0
 10
47.1592272942
 20
71.5470992258
 30
0.0
 10
47.9526057175
 20
72.840679497
 30
0.0
 10
48.5046383104
 20
74.7155374689
 30
0.0
 10
48.613460288
 20
76.0809039877
 30
0.0
 10
48.613460288
 20
76.7989821907
 30
0.0
  0
SPLINE
  5
5BA
100
AcDbEntity
  8
00_COMPONENTS_1
100
AcDbSpline
 62
7
  6
CONTINUOUS
 70
0
 71
3
 72
11
 73
7
 74
0
 42
0.0000001
 43
0.0000001
 44
0.0000000001
 40
0.0
 40
0.0
 40
0.0
 40
0.0
 40
0.2177843137
 40
0.4509117637
 40
0.7102976701
 40
1.0
 40
1.0
 40
1.0
 40
1.0
 10
20.006709471
 20
110.7294445704
 30
0.0
 10
20.1386529266
 20
110.805621647
 30
0.0
 10
20.4418135288
 20
110.9156411124
 30
0.0
 10
20.945358123
 20
110.9283907645
 30
0.0
 10
21.4820186492
 20
110.7987968145
 30
0.0
 10
21.8311752413
 20
110.6326962509
 30
0.0
 10
22.0066905376
 20
110.5313647398
 30
0.0
  0
SPLINE
  5
5BB
100
AcDbEntity
  8
00_COMPONENTS_1
100
AcDbSpline
 62
7
  6
CONTINUOUS
 70
0
 71
3
 72
9
 73
5
 74
0
 42
0.0000001
 43
0.0000001
 44
0.0000000001
 40
0.0
 40
0.0
 40
0.0
 40
0.0
 40
0.2617453374
 40
1.0
 40
1.0
 40
1.0
 40
1.0
 10
54.7457130153
 20
142.7832250045
 30
0.0
 10
54.7457130153
 20
142.8442970923
 30
0.0
 10
54.75159617
 20
143.0775282051
 30
0.0
 10
54.7816692605
 20
143.310593136
 30
0.0
 10
54.8209251248
 20
143.4783146692
 30
0.0
  0
SPLINE
  5
5BC
100
AcDbEntity
  8
00_COMPONENTS_1
100
AcDbSpline
 62
7
  6
CONTINUOUS
 70
0
 71
3
 72
11
 73
7
 74
0
 42
0.0000001
 43
0.0000001
 44
0.0000000001
 40
0.0
 40
0.0
 40
0.0
 40
0.0
 40
0.2847897174
 40
0.5486284172
 40
0.7872805271
 40
1.0
 40
1.0
 40
1.0
 40
1.0
 10
81.8100930281
 20
179.7702541001
 30
0.0
 10
82.4245768526
 20
179.6338565275
 30
0.0
 10
83.5939430241
 20
179.297442102
 30
0.0
 10
85.1863469482
 20
178.5787266811
 30
0.0
 10
86.5028256925
 20
177.6883471537
 30
0.0
 10
87.1993349577
 20
176.9575791581
 30
0.0
 10
87.4718972825
 20
176.5744974007
 30
0.0
  0
SPLINE
  5
5BD
100
AcDbEntity
  8
00_COMPONENTS_1
100
AcDbSpline
 62
7
  6
CONTINUOUS
 70
0
 71
3
 72
10
 73
6
 74
0
 42
0.0000001
 43
0.0000001
 44
0.0000000001
 40
0.0
 40
0.0
 40
0.0
 40
0.0
 40
0.2292066842
 40
0.4811764293
 40
1.0
 40
1.0
 40
1.0
 40
1.0
 10
79.6781510392
 20
179.5089640317
 30
0.0
 10
79.8227987132
 20
179.5924759067
 30
0.0
 10
80.1498414658
 20
179.7284922958
 30
0.0
 10
80.8654757715
 20
179.8760882667
 30
0.0
 10
81.4410060387
 20
179.8521806983
 30
0.0
 10
81.8100930281
 20
179.7702541001
 30
0.0
  0
SPLINE
  5
5BE
100
AcDbEntity
  8
00_COMPONENTS_1
100
AcDbSpline
 62
7
  6
CONTINUOUS
 70
0
 71
3
 72
9
 73
5
 74
0
 42
0.0000001
 43
0.0000001
 44
0.0000000001
 40
0.0
 40
0.0
 40
0.0
 40
0.0
 40
0.4675089685
 40
1.0
 40
1.0
 40
1.0
 40
1.0
 10
85.107054043
 20
177.0888239719
 30
0.0
 10
84.8257947861
 20
177.3700765037
 30
0.0
 10
84.1275284027
 20
177.8758879691
 30
0.0
 10
83.3406873934
 20
178.2134882124
 30
0.0
 10
82.9108924768
 20
178.3567497591
 30
0.0
  0
SPLINE
  5
5BF
100
AcDbEntity
  8
00_COMPONENTS_1
100
AcDbSpline
 62
7
  6
CONTINUOUS
 70
0
 71
3
 72
10
 73
6
 74
0
 42
0.0000001
 43
0.0000001
 44
0.0000000001
 40
0.0
 40
0.0
 40
0.0
 40
0.0
 40
0.5127551467
 40
0.768452585
 40
1.0
 40
1.0
 40
1.0
 40
1.0
 10
80.7538120826
 20
179.0757593647
 30
0.0
 10
80.5531117463
 20
179.1426578772
 30
0.0
 10
80.2267069504
 20
179.1752441745
 30
0.0
 10
79.8188054708
 20
179.1066332255
 30
0.0
 10
79.6294405296
 20
179.0317726044
 30
0.0
 10
79.5467059631
 20
178.9840060653
 30
0.0
  0
ELLIPSE
  5
5C0
100
AcDbEntity
  8
00_COMPONENTS_1
100
AcDbEllipse
 62
7
  6
CONTINUOUS
 10
190.5026016849
 20
72.1402135493
 30
0.0
 11
138.5364028408
 21
1460.7268564931
 31
0.0
 40
0.0841322714
 41
-4.6825420814
 42
-4.6823351633
  0
ENDSEC
  0
SECTION
  2
OBJECTS
  0
DICTIONARY
  5
C
100
AcDbDictionary
280
0
281
1
  3
ACAD_GROUP
350
D
  3
ACAD_MLINESTYLE
350
17
  3
ACAD_LAYOUT
350
1A
  3
ACAD_PLOTSETTINGS
350
19
  3
ACAD_PLOTSTYLENAME
350
E
  0
DICTIONARY
  5
D
102
{ACAD_REACTORS
330
C
102
}
100
AcDbDictionary
280
0
281
1
  0
ACDBDICTIONARYWDFLT
  5
E
102
{ACAD_REACTORS
330
C
102
}
100
AcDbDictionary
281
1
  3
Normal
350
F
100
AcDbDictionaryWithDefault
340
F
  0
DICTIONARY
  5
17
102
{ACAD_REACTORS
330
C
102
}
100
AcDbDictionary
280
0
281
1
  3
Standard
350
18
  0
DICTIONARY
  5
19
102
{ACAD_REACTORS
330
C
102
}
100
AcDbDictionary
281
1
  0
DICTIONARY
  5
1A
102
{ACAD_REACTORS
330
C
102
}
100
AcDbDictionary
281
1
  3
Model
350
5C1
  3
Layout1
350
5C2
  0
ACDBPLACEHOLDER
  5
F
102
{ACAD_REACTORS
330
E
102
}
  0
MLINESTYLE
  5
18
102
{ACAD_REACTORS
330
17
102
}
100
AcDbMlineStyle
  2
STANDARD
 70
0
  3

 62
256
 51
90.0
 52
90.0
 71
2
 49
0.5
 62
256
  6
BYLAYER
 49
-0.5
 62
256
  6
BYLAYER
  0
LAYOUT
  5
5C1
102
{ACAD_REACTORS
330
1A
102
}
100
AcDbPlotSettings
  1

  2
none_device
  4

  6

 40
0.0
 41
0.0
 42
0.0
 43
0.0
 44
210.0
 45
297.0
 46
0.0
 47
0.0
 48
0.0
 49
0.0
140
0.0
141
0.0
142
1.0
143
1.0
 70
1024
 72
1
 73
0
 74
0
  7

 75
0
147
1.0
148
0.0
149
0.0
100
AcDbLayout
  1
Model
 70
0
 71
0
 10
0.0
 20
0.0
 11
210.0
 21
297.0
 12
0.0
 22
0.0
 32
0.0
 14
0.0
 24
0.0
 34
0.0
 15
0.0
 25
0.0
 35
0.0
146
0.0
 13
0.0
 23
0.0
 33
0.0
 16
1.0
 26
0.0
 36
0.0
 17
0.0
 27
1.0
 37
0.0
 76
0
330
212
345
0
346
0
  0
LAYOUT
  5
5C2
102
{ACAD_REACTORS
330
1A
102
}
100
AcDbPlotSettings
  1

  2
none_device
  4

  6

 40
0.0
 41
0.0
 42
0.0
 43
0.0
 44
210.0
 45
297.0
 46
0.0
 47
0.0
 48
0.0
 49
0.0
140
0.0
141
0.0
142
1.0
143
1.0
 70
0
 72
1
 73
0
 74
0
  7

 75
0
147
1.0
148
0.0
149
0.0
100
AcDbLayout
  1
Layout1
 70
0
 71
1
 10
0.0
 20
0.0
 11
210.0
 21
297.0
 12
0.0
 22
0.0
 32
0.0
 14
0.0
 24
0.0
 34
0.0
 15
0.0
 25
0.0
 35
0.0
146
0.0
 13
0.0
 23
0.0
 33
0.0
 16
1.0
 26
0.0
 36
0.0
 17
0.0
 27
1.0
 37
0.0
 76
0
330
213
345
0
346
0
  0
ENDSEC
  0
EOF
