999
DXF file: C:\Users\sesa63760\Dev\_Creo\CAD\MCADID0003538_3D-CAD\drw0001_6.dxf
999
Pro/ENGINEER 2019471 by Parametric Technology Corporation
  0
SECTION
  2
HEADER
  9
$ACADVER
  1
AC1024
  9
$DWGCODEPAGE
  3
ANSI_1252
  9
$EXTMAX
 10
63.8022086599
 20
90.2345522475
 30
0.0
  9
$EXTMIN
 10
0.0
 20
0.0
 30
0.0
  9
$LIMMIN
 10
0.0
 20
0.0
  9
$LIMMAX
 10
63.8022086599
 20
90.2345522475
  9
$VIEWCTR
 10
31.9011043299
 20
45.1172761238
  9
$VIEWSIZE
 40
90.2345522475
  9
$CLAYER
  8
0
  9
$LTSCALE
 40
5.8819559984
  9
$CELTYPE
  6
BYLAYER
  9
$DIMSCALE
 40
1.0
  9
$DIMASZ
 40
0.7595501031
  9
$DIMEXO
 40
1.0
  9
$DIMDLI
 40
4.0638968716
  9
$DIMEXE
 40
1.0
  9
$DIMCEN
 40
0.9625018906
  9
$DIMLFAC
 40
1.0
  9
$DIMBLK
  1
_FILLED
  9
$DIMALT
 70
0
  9
$DIMALTF
 40
0.0393700787
  9
$DIMTXT
 40
1.0633701443
  9
$DIMTOL
 70
1
  9
$DIMLIM
 70
0
  9
$DIMTFAC
 40
1.0
  9
$DIMTP
 40
0.01
  9
$DIMTM
 40
0.01
  9
$DIMGAP
 40
0.625
  9
$DIMDSEP
 70
46
  9
$AUNITS
 70
0
  9
$PDMODE
 70
3
  9
$PDSIZE
 40
0.3125
  9
$HANDSEED
  5
25F
  9
$TILEMODE
 70
1
  9
$MEASUREMENT
 70
1
  9
$INSUNITS
 70
4
  0
ENDSEC
  0
SECTION
  2
CLASSES
  0
CLASS
  1
ACDBDICTIONARYWDFLT
  2
AcDbDictionaryWithDefault
  3
AutoCAD 2000
 90
0
 91
1
280
0
281
0
  0
CLASS
  1
ACDBPLACEHOLDER
  2
AcDbPlaceHolder
  3
AutoCAD 2000
 90
0
 91
1
280
0
281
0
  0
CLASS
  1
LAYOUT
  2
AcDbLayout
  3
AutoCAD 2000
 90
0
 91
0
280
0
281
0
  0
ENDSEC
  0
SECTION
  2
TABLES
  0
TABLE
  2
VPORT
  5
8
100
AcDbSymbolTable
 70
2
  0
VPORT
  5
1F4
100
AcDbSymbolTableRecord
100
AcDbViewportTableRecord
  2
*ACTIVE
 70
0
 10
0.0
 20
0.0
 11
1.0
 21
1.0
 12
31.9011043299
 22
45.1172761238
 13
0.0
 23
0.0
 14
1.0
 24
1.0
 15
0.0
 25
0.0
 16
0.0
 26
0.0
 36
1.0
 17
0.0
 27
0.0
 37
0.0
 40
90.2345522475
 41
0.7070707071
 42
50.0
 43
0.0
 44
0.0
 50
0.0
 51
0.0
 71
0
 72
100
 73
1
 74
1
 75
0
 76
0
 77
0
 78
0
  0
ENDTAB
  0
TABLE
  2
LTYPE
  5
5
100
AcDbSymbolTable
 70
6
  0
LTYPE
  5
14
100
AcDbSymbolTableRecord
100
AcDbLinetypeTableRecord
  2
BYBLOCK
 70
0
  3

 72
65
 73
0
 40
0.0
  0
LTYPE
  5
15
100
AcDbSymbolTableRecord
100
AcDbLinetypeTableRecord
  2
BYLAYER
 70
0
  3

 72
65
 73
0
 40
0.0
  0
LTYPE
  5
16
100
AcDbSymbolTableRecord
100
AcDbLinetypeTableRecord
  2
CONTINUOUS
 70
64
  3
Solid line
 72
65
 73
0
 40
0.0
  0
LTYPE
  5
1F5
100
AcDbSymbolTableRecord
100
AcDbLinetypeTableRecord
  2
CENTER
 70
64
  3
____ _ ____ _ ____ _ ____ _ ____ _ ____ _ ____
 72
65
 73
4
 40
0.6
 49
0.375
 74
0
 49
-0.075
 74
0
 49
0.075
 74
0
 49
-0.075
 74
0
  0
LTYPE
  5
1F6
100
AcDbSymbolTableRecord
100
AcDbLinetypeTableRecord
  2
HIDDEN
 70
64
  3
- - - - - - - - - - - - - - - - - - - -
 72
65
 73
2
 40
0.2
 49
0.1
 74
0
 49
-0.1
 74
0
  0
LTYPE
  5
1F7
100
AcDbSymbolTableRecord
100
AcDbLinetypeTableRecord
  2
PHANTOM
 70
64
  3
_____ _ _ _____ _ _ _____ _ _ _____
 72
65
 73
6
 40
0.8
 49
0.45
 74
0
 49
-0.05
 74
0
 49
0.1
 74
0
 49
-0.05
 74
0
 49
0.1
 74
0
 49
-0.05
 74
0
  0
LTYPE
  5
1F8
100
AcDbSymbolTableRecord
100
AcDbLinetypeTableRecord
  2
DOT
 70
64
  3
. . . . . . . . . . . . . . . . . . . .
 72
65
 73
2
 40
0.2
 49
0.1
 74
0
 49
-0.1
 74
0
  0
LTYPE
  5
1F9
100
AcDbSymbolTableRecord
100
AcDbLinetypeTableRecord
  2
DASHED
 70
64
  3
- - - - - - - - - - - - - - - - - - - -
 72
65
 73
2
 40
0.2
 49
0.1
 74
0
 49
-0.1
 74
0
  0
ENDTAB
  0
TABLE
  2
LAYER
  5
2
100
AcDbSymbolTable
 70
36
  0
LAYER
  5
10
100
AcDbSymbolTableRecord
100
AcDbLayerTableRecord
  2
0
 70
0
 62
7
  6
CONTINUOUS
370
-3
390
F
  0
LAYER
  5
1FA
100
AcDbSymbolTableRecord
100
AcDbLayerTableRecord
  2
DEFAULT_1
 70
0
 62
7
  6
CENTER
370
-3
390
F
  0
LAYER
  5
1FB
100
AcDbSymbolTableRecord
100
AcDbLayerTableRecord
  2
DEFAULT_2
 70
0
 62
7
  6
HIDDEN
370
-3
390
F
  0
LAYER
  5
1FC
100
AcDbSymbolTableRecord
100
AcDbLayerTableRecord
  2
DEFAULT_3
 70
0
 62
7
  6
PHANTOM
370
-3
390
F
  0
LAYER
  5
1FD
100
AcDbSymbolTableRecord
100
AcDbLayerTableRecord
  2
00_COMPONENTS
 70
0
 62
7
  6
CONTINUOUS
370
-3
390
F
  0
LAYER
  5
1FE
100
AcDbSymbolTableRecord
100
AcDbLayerTableRecord
  2
01_1_DEFAULT_DATUMS
 70
0
 62
7
  6
CONTINUOUS
370
-3
390
F
  0
LAYER
  5
1FF
100
AcDbSymbolTableRecord
100
AcDbLayerTableRecord
  2
01_PLANES
 70
0
 62
7
  6
CONTINUOUS
370
-3
390
F
  0
LAYER
  5
200
100
AcDbSymbolTableRecord
100
AcDbLayerTableRecord
  2
02_COORD_SYS
 70
0
 62
7
  6
CONTINUOUS
370
-3
390
F
  0
LAYER
  5
201
100
AcDbSymbolTableRecord
100
AcDbLayerTableRecord
  2
03_AXES
 70
0
 62
7
  6
CONTINUOUS
370
-3
390
F
  0
LAYER
  5
202
100
AcDbSymbolTableRecord
100
AcDbLayerTableRecord
  2
04_POINTS
 70
0
 62
7
  6
CONTINUOUS
370
-3
390
F
  0
LAYER
  5
203
100
AcDbSymbolTableRecord
100
AcDbLayerTableRecord
  2
05_CURVES
 70
0
 62
7
  6
CONTINUOUS
370
-3
390
F
  0
LAYER
  5
204
100
AcDbSymbolTableRecord
100
AcDbLayerTableRecord
  2
06_SURFS
 70
0
 62
7
  6
CONTINUOUS
370
-3
390
F
  0
LAYER
  5
205
100
AcDbSymbolTableRecord
100
AcDbLayerTableRecord
  2
07_COSMETICS
 70
0
 62
7
  6
CONTINUOUS
370
-3
390
F
  0
LAYER
  5
206
100
AcDbSymbolTableRecord
100
AcDbLayerTableRecord
  2
10_NOTES
 70
0
 62
7
  6
CONTINUOUS
370
-3
390
F
  0
LAYER
  5
207
100
AcDbSymbolTableRecord
100
AcDbLayerTableRecord
  2
11_NOTES_PUB
 70
0
 62
7
  6
CONTINUOUS
370
-3
390
F
  0
LAYER
  5
208
100
AcDbSymbolTableRecord
100
AcDbLayerTableRecord
  2
13_REF_GTOL
 70
0
 62
7
  6
CONTINUOUS
370
-3
390
F
  0
LAYER
  5
209
100
AcDbSymbolTableRecord
100
AcDbLayerTableRecord
  2
16_MISC
 70
0
 62
7
  6
CONTINUOUS
370
-3
390
F
  0
LAYER
  5
20A
100
AcDbSymbolTableRecord
100
AcDbLayerTableRecord
  2
17_NO_PRINT
 70
0
 62
7
  6
CONTINUOUS
370
-3
390
F
  0
LAYER
  5
20B
100
AcDbSymbolTableRecord
100
AcDbLayerTableRecord
  2
18_DATUM_CAMS_JOINTS
 70
0
 62
7
  6
CONTINUOUS
370
-3
390
F
  0
LAYER
  5
20C
100
AcDbSymbolTableRecord
100
AcDbLayerTableRecord
  2
19_DATUM_FUNCTIONAL
 70
0
 62
7
  6
CONTINUOUS
370
-3
390
F
  0
LAYER
  5
20D
100
AcDbSymbolTableRecord
100
AcDbLayerTableRecord
  2
20_DATUM_KINEMATIC_SCHEME
 70
0
 62
7
  6
CONTINUOUS
370
-3
390
F
  0
ENDTAB
  0
TABLE
  2
STYLE
  5
3
100
AcDbSymbolTable
 70
1
  0
STYLE
  5
11
100
AcDbSymbolTableRecord
100
AcDbTextStyleTableRecord
  2
STANDARD
 70
0
 40
0.0
 41
1.0
 50
0.0
 71
0
 42
0.2
  3
ARIAL.TTF
  4

  0
STYLE
  5
20E
100
AcDbSymbolTableRecord
100
AcDbTextStyleTableRecord
  2
TEXTSTYLE_1
 70
0
 40
0.0
 41
0.8
 50
0.0
 71
0
 42
0.2
  3
gdt
  4

  0
ENDTAB
  0
TABLE
  2
VIEW
  5
6
100
AcDbSymbolTable
 70
0
  0
ENDTAB
  0
TABLE
  2
UCS
  5
7
100
AcDbSymbolTable
 70
0
  0
ENDTAB
  0
TABLE
  2
APPID
  5
9
100
AcDbSymbolTable
 70
1
  0
APPID
  5
20F
100
AcDbSymbolTableRecord
100
AcDbRegAppTableRecord
  2
ACAD
 70
0
  0
ENDTAB
  0
TABLE
  2
BLOCK_RECORD
  5
1
100
AcDbSymbolTable
 70
0
  0
BLOCK_RECORD
  5
210
100
AcDbSymbolTableRecord
100
AcDbBlockTableRecord
  2
*Model_Space
  0
BLOCK_RECORD
  5
211
100
AcDbSymbolTableRecord
100
AcDbBlockTableRecord
  2
*Paper_Space
  0
BLOCK_RECORD
  5
212
100
AcDbSymbolTableRecord
100
AcDbBlockTableRecord
  2
_FILLED
  0
ENDTAB
  0
TABLE
  2
DIMSTYLE
  5
A
100
AcDbSymbolTable
 70
1
100
AcDbDimStyleTable
 71
0
  0
DIMSTYLE
105
213
100
AcDbSymbolTableRecord
100
AcDbDimStyleTableRecord
  2
STANDARD
 70
0
  3

  4

 40
1.0
 41
0.7595501031
 42
1.0
 43
0.38
 44
1.0
 45
0.0
 46
0.0
 47
0.01
 48
0.01
140
1.0633701443
141
0.09
142
0.0
143
25.4
144
1.0
145
0.0
146
1.0
147
0.625
 71
1
 72
0
 73
0
 74
0
 75
0
 76
0
 77
1
 78
8
 79
2
170
0
171
1
172
0
173
0
174
0
175
0
176
0
177
0
178
0
270
2
179
2
271
2
272
2
273
2
274
2
275
0
280
0
281
0
282
0
283
1
284
8
285
0
286
0
287
3
288
0
340
11
278
46
341
212
342
212
343
212
344
212
  0
ENDTAB
  0
ENDSEC
  0
SECTION
  2
BLOCKS
  0
BLOCK
  5
20
100
AcDbEntity
  8
0
100
AcDbBlockBegin
  2
*Model_Space
 70
0
 10
0.0
 20
0.0
 30
0.0
  3
*Model_Space
  1

  0
ENDBLK
  5
21
100
AcDbEntity
  8
0
100
AcDbBlockEnd
  0
BLOCK
  5
1C
100
AcDbEntity
  8
0
100
AcDbBlockBegin
  2
*Paper_Space
 70
0
 10
0.0
 20
0.0
 30
0.0
  3
*Paper_Space
  1

  0
ENDBLK
  5
1D
100
AcDbEntity
  8
0
100
AcDbBlockEnd
  0
BLOCK
  5
214
100
AcDbEntity
  8
0
100
AcDbBlockBegin
  2
_FILLED
 70
64
 10
0.0
 20
0.0
  3
_FILLED
  1

  0
SOLID
  5
215
100
AcDbEntity
  8
0
  6
BYBLOCK
 62
0
100
AcDbTrace
 10
0.0
 20
0.0
 11
-1.0
 21
0.25
 12
-1.0
 22
-0.25
 13
-1.0
 23
-0.25
  0
ENDBLK
  5
216
100
AcDbEntity
  8
0
  6
BYBLOCK
 62
0
100
AcDbBlockEnd
  0
ENDSEC
  0
SECTION
  2
ENTITIES
  0
LINE
  5
217
100
AcDbEntity
  8
0
100
AcDbLine
 62
7
  6
BYLAYER
 10
24.5533353718
 20
12.3928018603
 11
29.0533353718
 21
12.3928018603
  0
LINE
  5
218
100
AcDbEntity
  8
0
100
AcDbLine
 62
7
  6
BYLAYER
 10
36.0533353718
 20
12.3928018603
 11
40.5533353718
 21
12.3928018603
  0
LINE
  5
219
100
AcDbEntity
  8
0
100
AcDbLine
 62
7
  6
BYLAYER
 10
25.8033353718
 20
15.2133523886
 11
29.0533353718
 21
15.2133537149
  0
LINE
  5
21A
100
AcDbEntity
  8
0
100
AcDbLine
 62
7
  6
BYLAYER
 10
36.0533353718
 20
15.2133787257
 11
39.3033353718
 21
15.2133523886
  0
LINE
  5
21B
100
AcDbEntity
  8
0
100
AcDbLine
 62
7
  6
BYLAYER
 10
40.5533353718
 20
17.3928018603
 11
39.3033353718
 21
17.3928018604
  0
LINE
  5
21C
100
AcDbEntity
  8
0
100
AcDbLine
 62
7
  6
BYLAYER
 10
25.8033353718
 20
17.3928018603
 11
24.5533353718
 21
17.3928018603
  0
LINE
  5
21D
100
AcDbEntity
  8
0
100
AcDbLine
 62
7
  6
BYLAYER
 10
27.8033353718
 20
18.3929283274
 11
29.1216013066
 21
18.3929283223
  0
LINE
  5
21E
100
AcDbEntity
  8
0
100
AcDbLine
 62
7
  6
BYLAYER
 10
35.985069437
 20
18.3929283223
 11
37.3033353718
 21
18.3929283274
  0
LINE
  5
21F
100
AcDbEntity
  8
0
100
AcDbLine
 62
7
  6
BYLAYER
 10
39.3033353718
 20
24.8929283274
 11
37.3033353718
 21
24.8929283274
  0
LINE
  5
220
100
AcDbEntity
  8
0
100
AcDbLine
 62
7
  6
BYLAYER
 10
25.8033353718
 20
24.8929283274
 11
27.8033353718
 21
24.8929283274
  0
LINE
  5
221
100
AcDbEntity
  8
0
100
AcDbLine
 62
7
  6
BYLAYER
 10
25.3033353718
 20
63.8929283274
 11
24.8033353718
 21
63.3929283274
  0
LINE
  5
222
100
AcDbEntity
  8
0
100
AcDbLine
 62
7
  6
BYLAYER
 10
25.8033353718
 20
26.3929283274
 11
39.3033353718
 21
26.3929283274
  0
LINE
  5
223
100
AcDbEntity
  8
0
100
AcDbLine
 62
7
  6
BYLAYER
 10
26.5533488212
 20
75.4929622016
 11
26.5557046322
 21
75.5024341426
  0
LINE
  5
224
100
AcDbEntity
  8
0
100
AcDbLine
 62
7
  6
BYLAYER
 10
24.3533353718
 20
59.6744939106
 11
24.3533353718
 21
57.5079021154
  0
LINE
  5
225
100
AcDbEntity
  8
0
100
AcDbLine
 62
7
  6
BYLAYER
 10
24.5533353718
 20
12.3928018603
 11
24.5533353718
 21
62.3927506319
  0
LINE
  5
226
100
AcDbEntity
  8
0
100
AcDbLine
 62
7
  6
BYLAYER
 10
24.8033353718
 20
62.3929283274
 11
24.8033353718
 21
63.3929283274
  0
LINE
  5
227
100
AcDbEntity
  8
0
100
AcDbLine
 62
7
  6
BYLAYER
 10
25.8033353718
 20
15.2133523886
 11
25.8033353718
 21
26.3929283274
  0
LINE
  5
228
100
AcDbEntity
  8
0
100
AcDbLine
 62
7
  6
BYLAYER
 10
26.5533353718
 20
63.8929283274
 11
26.5533353718
 21
75.4929283274
  0
LINE
  5
229
100
AcDbEntity
  8
0
100
AcDbLine
 62
7
  6
BYLAYER
 10
27.8033353718
 20
24.8929283274
 11
27.8033353718
 21
18.3929283274
  0
LINE
  5
22A
100
AcDbEntity
  8
0
100
AcDbLine
 62
7
  6
BYLAYER
 10
29.0533353718
 20
8.4784200323
 11
29.0533353718
 21
17.6864787016
  0
LINE
  5
22B
100
AcDbEntity
  8
0
100
AcDbLine
 62
7
  6
BYLAYER
 10
29.0533353718
 20
77.9929283274
 11
29.0533353718
 21
79.6929283274
  0
LINE
  5
22C
100
AcDbEntity
  8
0
100
AcDbLine
 62
7
  6
BYLAYER
 10
30.5533353718
 20
68.1929283274
 11
30.5533353718
 21
76.739031669
  0
LINE
  5
22D
100
AcDbEntity
  8
0
100
AcDbLine
 62
7
  6
BYLAYER
 10
30.7533353718
 20
71.1929787145
 11
30.7533353718
 21
82.7928779402
  0
LINE
  5
22E
100
AcDbEntity
  8
0
100
AcDbLine
 62
7
  6
BYLAYER
 10
29.0524002309
 20
17.6864759834
 11
29.0840714662
 21
18.3929283486
  0
LINE
  5
22F
100
AcDbEntity
  8
0
100
AcDbLine
 62
7
  6
BYLAYER
 10
36.0225992771
 20
18.3929283486
 11
36.0542404533
 21
17.6864761691
  0
LINE
  5
230
100
AcDbEntity
  8
0
100
AcDbLine
 62
7
  6
BYLAYER
 10
34.3533353718
 20
82.7928779402
 11
34.3533353718
 21
71.1929787145
  0
LINE
  5
231
100
AcDbEntity
  8
0
100
AcDbLine
 62
7
  6
BYLAYER
 10
34.5533353718
 20
76.739031669
 11
34.5533353718
 21
68.1929283274
  0
LINE
  5
232
100
AcDbEntity
  8
0
100
AcDbLine
 62
7
  6
BYLAYER
 10
36.0533353718
 20
8.4784200323
 11
36.0533353718
 21
17.6864787016
  0
LINE
  5
233
100
AcDbEntity
  8
0
100
AcDbLine
 62
7
  6
BYLAYER
 10
36.0533353718
 20
77.9929283274
 11
36.0533353718
 21
79.6929283274
  0
LINE
  5
234
100
AcDbEntity
  8
0
100
AcDbLine
 62
7
  6
BYLAYER
 10
37.3033353718
 20
24.8929283274
 11
37.3033353718
 21
18.3929283274
  0
LINE
  5
235
100
AcDbEntity
  8
0
100
AcDbLine
 62
7
  6
BYLAYER
 10
38.5533353718
 20
63.8929283274
 11
38.5533353718
 21
75.4929283274
  0
LINE
  5
236
100
AcDbEntity
  8
0
100
AcDbLine
 62
7
  6
BYLAYER
 10
39.3033353718
 20
15.2133523886
 11
39.3033353718
 21
26.3929283274
  0
LINE
  5
237
100
AcDbEntity
  8
0
100
AcDbLine
 62
7
  6
BYLAYER
 10
40.3033353718
 20
62.3929283274
 11
40.3033353718
 21
63.3929283274
  0
LINE
  5
238
100
AcDbEntity
  8
0
100
AcDbLine
 62
7
  6
BYLAYER
 10
40.5533353718
 20
12.3928018603
 11
40.5533353718
 21
62.3927506319
  0
LINE
  5
239
100
AcDbEntity
  8
0
100
AcDbLine
 62
7
  6
BYLAYER
 10
24.5533353718
 20
57.5079021154
 11
24.3533353718
 21
57.5079021154
  0
LINE
  5
23A
100
AcDbEntity
  8
0
100
AcDbLine
 62
7
  6
BYLAYER
 10
24.5533353718
 20
59.6744939106
 11
24.3533353718
 21
59.6744939106
  0
LINE
  5
23B
100
AcDbEntity
  8
0
100
AcDbLine
 62
7
  6
BYLAYER
 10
24.5533353718
 20
60.3928018604
 11
40.5533353718
 21
60.3928018604
  0
LINE
  5
23C
100
AcDbEntity
  8
0
100
AcDbLine
 62
7
  6
BYLAYER
 10
38.550884891
 20
75.5027634412
 11
38.5533353718
 21
75.4930067418
  0
LINE
  5
23D
100
AcDbEntity
  8
0
100
AcDbLine
 62
7
  6
BYLAYER
 10
40.5533353718
 20
62.3929283274
 11
40.3033353718
 21
62.3929283274
  0
LINE
  5
23E
100
AcDbEntity
  8
0
100
AcDbLine
 62
7
  6
BYLAYER
 10
24.8033353718
 20
62.3929283274
 11
24.5533353718
 21
62.3929283274
  0
LINE
  5
23F
100
AcDbEntity
  8
0
100
AcDbLine
 62
7
  6
BYLAYER
 10
24.8033353718
 20
63.3929283274
 11
40.3033353718
 21
63.3929283274
  0
LINE
  5
240
100
AcDbEntity
  8
0
100
AcDbLine
 62
7
  6
BYLAYER
 10
25.3035255614
 20
63.8929283274
 11
39.8031451823
 21
63.8929283274
  0
LINE
  5
241
100
AcDbEntity
  8
0
100
AcDbLine
 62
7
  6
BYLAYER
 10
39.8033353718
 20
63.8929283274
 11
40.3033353718
 21
63.3929283274
  0
LINE
  5
242
100
AcDbEntity
  8
0
100
AcDbLine
 62
7
  6
BYLAYER
 10
30.5533353718
 20
68.1929283274
 11
34.5533353718
 21
68.1929283274
  0
LINE
  5
243
100
AcDbEntity
  8
0
100
AcDbLine
 62
7
  6
BYLAYER
 10
34.3533353718
 20
71.1929283274
 11
30.7533353718
 21
71.1929283274
  0
LINE
  5
244
100
AcDbEntity
  8
0
100
AcDbLine
 62
7
  6
BYLAYER
 10
34.5533353718
 20
74.2929283274
 11
34.3533353718
 21
74.2929283274
  0
LINE
  5
245
100
AcDbEntity
  8
0
100
AcDbLine
 62
7
  6
BYLAYER
 10
30.7533353718
 20
74.2929283274
 11
30.5533353718
 21
74.2929283274
  0
LINE
  5
246
100
AcDbEntity
  8
0
100
AcDbLine
 62
7
  6
BYLAYER
 10
26.6100436858
 20
75.739031669
 11
30.5533353718
 21
75.739031669
  0
LINE
  5
247
100
AcDbEntity
  8
0
100
AcDbLine
 62
7
  6
BYLAYER
 10
34.5533353718
 20
75.739031669
 11
38.4966391504
 21
75.739031669
  0
LINE
  5
248
100
AcDbEntity
  8
0
100
AcDbLine
 62
7
  6
BYLAYER
 10
27.7768862313
 20
76.739031669
 11
30.5533353718
 21
76.739031669
  0
LINE
  5
249
100
AcDbEntity
  8
0
100
AcDbLine
 62
7
  6
BYLAYER
 10
34.5533353718
 20
76.739031669
 11
37.3297844437
 21
76.739031669
  0
LINE
  5
24A
100
AcDbEntity
  8
0
100
AcDbLine
 62
7
  6
BYLAYER
 10
29.0533897499
 20
79.6929283274
 11
30.7533353718
 21
79.6929283274
  0
LINE
  5
24B
100
AcDbEntity
  8
0
100
AcDbLine
 62
7
  6
BYLAYER
 10
34.3533353718
 20
79.6929283274
 11
36.0532809938
 21
79.6929283274
  0
LINE
  5
24C
100
AcDbEntity
  8
0
100
AcDbLine
 62
7
  6
BYLAYER
 10
34.3533353718
 20
82.7929283274
 11
30.7533353718
 21
82.7929283274
  0
ARC
  5
24D
100
AcDbEntity
  8
0
100
AcDbCircle
 62
7
  6
BYLAYER
 10
39.2859650459
 20
76.9936504296
 40
3.378527785
100
AcDbArc
 50
180.0122459879
 51
184.3737176563
  0
ARC
  5
24E
100
AcDbEntity
  8
0
100
AcDbCircle
 62
7
  6
BYLAYER
 10
25.8241590079
 20
76.9935262659
 40
3.3750744507
100
AcDbArc
 50
355.6232357157
 51
359.9898493033
  0
SPLINE
  5
24F
100
AcDbEntity
  8
0
100
AcDbSpline
 62
7
  6
BYLAYER
 70
0
 71
3
 72
28
 73
24
 74
0
 42
0.0000001
 43
0.0000001
 44
0.0000000001
 40
0.0
 40
0.0
 40
0.0
 40
0.0
 40
0.0003146026
 40
0.0012528819
 40
0.0028145231
 40
0.0049992111
 40
0.0078061576
 40
0.0112316863
 40
0.0199194346
 40
0.0310243846
 40
0.0445085469
 40
0.0603318345
 40
0.0784388325
 40
0.1212568834
 40
0.1724591796
 40
0.2314567269
 40
0.2976269105
 40
0.3703163379
 40
0.4488568708
 40
0.5325326419
 40
0.6205809655
 40
0.8066111674
 40
1.0
 40
1.0
 40
1.0
 40
1.0
 10
29.0533399665
 20
77.9929527386
 30
0.0
 10
29.0533460085
 20
77.9928465891
 30
0.0
 10
29.0535160782
 20
77.9924482739
 30
0.0
 10
29.0537225468
 20
77.9915243295
 30
0.0
 10
29.054184467
 20
77.9900061868
 30
0.0
 10
29.0547755713
 20
77.9878733322
 30
0.0
 10
29.0555572159
 20
77.9851376059
 30
0.0
 10
29.0569286505
 20
77.9802856243
 30
0.0
 10
29.0590570439
 20
77.9727329105
 30
0.0
 10
29.0620767489
 20
77.961899915
 30
0.0
 10
29.0657064961
 20
77.9487334957
 30
0.0
 10
29.0699165805
 20
77.9332725187
 30
0.0
 10
29.0766302247
 20
77.9082189604
 30
0.0
 10
29.0861582515
 20
77.8715416872
 30
0.0
 10
29.0985810176
 20
77.8213415108
 30
0.0
 10
29.1120824602
 20
77.763283409
 30
0.0
 10
29.1261672084
 20
77.6979135685
 30
0.0
 10
29.1403178107
 20
77.6258130315
 30
0.0
 10
29.1539916039
 20
77.5476058966
 30
0.0
 10
29.1666767481
 20
77.4639762809
 30
0.0
 10
29.1818728765
 20
77.3440194922
 30
0.0
 10
29.1954600786
 20
77.1865407046
 30
0.0
 10
29.1992334056
 20
77.0582848974
 30
0.0
 10
29.1992334056
 20
76.9929283274
 30
0.0
  0
SPLINE
  5
250
100
AcDbEntity
  8
0
100
AcDbSpline
 62
7
  6
BYLAYER
 70
0
 71
3
 72
26
 73
22
 74
0
 42
0.0000001
 43
0.0000001
 44
0.0000000001
 40
0.0
 40
0.0
 40
0.0
 40
0.0
 40
0.1933853844
 40
0.3794086748
 40
0.5511161331
 40
0.7023422675
 40
0.7685188944
 40
0.82752408
 40
0.8787300654
 40
0.9215485356
 40
0.9396574195
 40
0.9554852476
 40
0.9689761605
 40
0.9800880518
 40
0.9887810892
 40
0.9922080692
 40
0.9950153642
 40
0.997198608
 40
0.998756919
 40
0.9996906112
 40
1.0
 40
1.0
 40
1.0
 40
1.0
 10
35.9074373381
 20
76.9929283274
 30
0.0
 10
35.9074373381
 20
77.0582823607
 30
0.0
 10
35.9112120252
 20
77.1865334288
 30
0.0
 10
35.9272256014
 20
77.3721814008
 30
0.0
 10
35.9509353784
 20
77.5426101304
 30
0.0
 10
35.9749083071
 20
77.6719451709
 30
0.0
 10
35.9945824777
 20
77.7632647894
 30
0.0
 10
36.008084999
 20
77.8213276714
 30
0.0
 10
36.0205090135
 20
77.8715305601
 30
0.0
 10
36.030038796
 20
77.9082084531
 30
0.0
 10
36.0367534638
 20
77.9332639057
 30
0.0
 10
36.0409644767
 20
77.9487280928
 30
0.0
 10
36.0445943191
 20
77.9619029512
 30
0.0
 10
36.047612997
 20
77.9727360208
 30
0.0
 10
36.0497418733
 20
77.9803085106
 30
0.0
 10
36.051112104
 20
77.9851397917
 30
0.0
 10
36.051897056
 20
77.9879238746
 30
0.0
 10
36.0524809254
 20
77.9899300975
 30
0.0
 10
36.052960026
 20
77.9917272287
 30
0.0
 10
36.0531363616
 20
77.9921524513
 30
0.0
 10
36.0533367189
 20
77.9930571267
 30
0.0
 10
36.0533307772
 20
77.9929527386
 30
0.0
  0
SPLINE
  5
251
100
AcDbEntity
  8
0
100
AcDbSpline
 62
7
  6
BYLAYER
 70
0
 71
3
 72
19
 73
15
 74
0
 42
0.0000001
 43
0.0000001
 44
0.0000000001
 40
0.0
 40
0.0
 40
0.0
 40
0.0
 40
0.1786975545
 40
0.3511720247
 40
0.5113859477
 40
0.6540826774
 40
0.7174912867
 40
0.7750248334
 40
0.8264282943
 40
0.8715955489
 40
0.9106897751
 40
0.9442506313
 40
0.9733905201
 40
1.0
 40
1.0
 40
1.0
 40
1.0
 10
32.5533353718
 20
7.4551190657
 30
0.0
 10
32.78101536
 20
7.4551190657
 30
0.0
 10
33.2285531453
 20
7.4677935327
 30
0.0
 10
33.8780665864
 20
7.5242970626
 30
0.0
 10
34.4772278965
 20
7.615988778
 30
0.0
 10
34.9324688256
 20
7.722165484
 30
0.0
 10
35.2526022327
 20
7.8244520138
 30
0.0
 10
35.4573281105
 20
7.9043403182
 30
0.0
 10
35.6344679792
 20
7.9895829275
 30
0.0
 10
35.7824868454
 20
8.0795279146
 30
0.0
 10
35.9002083208
 20
8.1735294241
 30
0.0
 10
35.9867325341
 20
8.2713323604
 30
0.0
 10
36.0406552724
 20
8.3730665635
 30
0.0
 10
36.05332513
 20
8.4445166805
 30
0.0
 10
36.0533240859
 20
8.4784200324
 30
0.0
  0
SPLINE
  5
252
100
AcDbEntity
  8
0
100
AcDbSpline
 62
7
  6
BYLAYER
 70
0
 71
3
 72
14
 73
10
 74
0
 42
0.0000001
 43
0.0000001
 44
0.0000000001
 40
0.0
 40
0.0
 40
0.0
 40
0.0
 40
0.0161408255
 40
0.0645363578
 40
0.1449219913
 40
0.2567119652
 40
0.3992998642
 40
0.5717635696
 40
1.0
 40
1.0
 40
1.0
 40
1.0
 10
38.5533219882
 20
75.4929634296
 30
0.0
 10
38.5530946135
 20
75.4943029272
 30
0.0
 10
38.5515386321
 20
75.4995235388
 30
0.0
 10
38.5488267342
 20
75.5114101463
 30
0.0
 10
38.5438424824
 20
75.5310429005
 30
0.0
 10
38.5372725418
 20
75.5584433469
 30
0.0
 10
38.5289692857
 20
75.5934010862
 30
0.0
 10
38.5149062444
 20
75.6543666198
 30
0.0
 10
38.5040812269
 20
75.7037613389
 30
0.0
 10
38.4966391504
 20
75.739031669
 30
0.0
  0
SPLINE
  5
253
100
AcDbEntity
  8
0
100
AcDbSpline
 62
7
  6
BYLAYER
 70
0
 71
3
 72
19
 73
15
 74
0
 42
0.0000001
 43
0.0000001
 44
0.0000000001
 40
0.0
 40
0.0
 40
0.0
 40
0.0
 40
0.0266091533
 40
0.0557482807
 40
0.0893085906
 40
0.1284011139
 40
0.1735676239
 40
0.2249692513
 40
0.2825019992
 40
0.3459102078
 40
0.4886082049
 40
0.6488238584
 40
0.821302234
 40
1.0
 40
1.0
 40
1.0
 40
1.0
 10
29.0533466578
 20
8.4784200321
 30
0.0
 10
29.0533477019
 20
8.4445171009
 30
0.0
 10
29.0660152241
 20
8.3730688163
 30
0.0
 10
29.1199348092
 20
8.2713345604
 30
0.0
 10
29.2064588175
 20
8.1735368516
 30
0.0
 10
29.3241730999
 20
8.0795327106
 30
0.0
 10
29.4721895786
 20
7.9895939091
 30
0.0
 10
29.649322656
 20
7.9043477349
 30
0.0
 10
29.8540455045
 20
7.8244618614
 30
0.0
 10
30.174177715
 20
7.7221718648
 30
0.0
 10
30.6294219241
 20
7.6159941229
 30
0.0
 10
31.2285913375
 20
7.5242982275
 30
0.0
 10
31.8781122086
 20
7.4677941982
 30
0.0
 10
32.3256551441
 20
7.4551190657
 30
0.0
 10
32.5533353718
 20
7.4551190657
 30
0.0
  0
SPLINE
  5
254
100
AcDbEntity
  8
0
100
AcDbSpline
 62
7
  6
BYLAYER
 70
0
 71
3
 72
10
 73
6
 74
0
 42
0.0000001
 43
0.0000001
 44
0.0000000001
 40
0.0
 40
0.0
 40
0.0
 40
0.0
 40
0.2188526732
 40
0.4655632004
 40
1.0
 40
1.0
 40
1.0
 40
1.0
 10
38.4966347474
 20
75.7388194724
 30
0.0
 10
38.4099031863
 20
75.8098803391
 30
0.0
 10
38.2260862677
 20
75.961888207
 30
0.0
 10
37.8339151331
 20
76.2915568286
 30
0.0
 10
37.5323828652
 20
76.5548441397
 30
0.0
 10
37.3297844525
 20
76.7390314276
 30
0.0
  0
SPLINE
  5
255
100
AcDbEntity
  8
0
100
AcDbSpline
 62
7
  6
BYLAYER
 70
0
 71
3
 72
10
 73
6
 74
0
 42
0.0000001
 43
0.0000001
 44
0.0000000001
 40
0.0
 40
0.0
 40
0.0
 40
0.0
 40
0.5344369165
 40
0.7811473507
 40
1.0
 40
1.0
 40
1.0
 40
1.0
 10
27.7768862915
 20
76.7390314279
 30
0.0
 10
27.5742868636
 20
76.554843217
 30
0.0
 10
27.2727530814
 20
76.291554708
 30
0.0
 10
26.88058014
 20
75.9618844159
 30
0.0
 10
26.6967619659
 20
75.8098763662
 30
0.0
 10
26.6100299225
 20
75.7388152598
 30
0.0
  0
SPLINE
  5
256
100
AcDbEntity
  8
0
100
AcDbSpline
 62
7
  6
BYLAYER
 70
0
 71
3
 72
14
 73
10
 74
0
 42
0.0000001
 43
0.0000001
 44
0.0000000001
 40
0.0
 40
0.0
 40
0.0
 40
0.0
 40
0.4281887315
 40
0.600625093
 40
0.7432202347
 40
0.8550390227
 40
0.9354570442
 40
0.9838690288
 40
1.0
 40
1.0
 40
1.0
 40
1.0
 10
26.6100436858
 20
75.739031669
 30
0.0
 10
26.6026014762
 20
75.7037649165
 30
0.0
 10
26.5917539219
 20
75.6542485545
 30
0.0
 10
26.577728836
 20
75.5935750985
 30
0.0
 10
26.5693316981
 20
75.5580146745
 30
0.0
 10
26.5630010669
 20
75.5321775321
 30
0.0
 10
26.5574702321
 20
75.5089563965
 30
0.0
 10
26.5557210347
 20
75.5033758777
 30
0.0
 10
26.5531664119
 20
75.4916166601
 30
0.0
 10
26.5533488212
 20
75.4929622016
 30
0.0
  0
SPLINE
  5
257
100
AcDbEntity
  8
0
100
AcDbSpline
 62
7
  6
BYLAYER
 70
0
 71
3
 72
16
 73
12
 74
0
 42
0.0000001
 43
0.0000001
 44
0.0000000001
 40
0.0
 40
0.0
 40
0.0
 40
0.0
 40
0.0625576252
 40
0.1251146463
 40
0.1876769457
 40
0.2502426233
 40
0.3751979202
 40
0.5002214259
 40
0.749749297
 40
0.8748679398
 40
1.0
 40
1.0
 40
1.0
 40
1.0
 10
32.5533353718
 20
22.436572418
 30
0.0
 10
32.4329084921
 20
22.436572418
 30
0.0
 10
32.1917124758
 20
22.4194709438
 30
0.0
 10
31.8373593485
 20
22.3436591648
 30
0.0
 10
31.4964158868
 20
22.2208441579
 30
0.0
 10
31.0669545837
 20
22.0009003344
 30
0.0
 10
30.584270817
 20
21.6325676514
 30
0.0
 10
29.9489496314
 20
20.9044874788
 30
0.0
 10
29.5089378651
 20
20.031120339
 30
0.0
 10
29.2386305733
 20
19.1069966479
 30
0.0
 10
29.1530197345
 20
18.6317567228
 30
0.0
 10
29.1216013066
 20
18.3929283223
 30
0.0
  0
SPLINE
  5
258
100
AcDbEntity
  8
0
100
AcDbSpline
 62
7
  6
BYLAYER
 70
0
 71
3
 72
25
 73
21
 74
0
 42
0.0000001
 43
0.0000001
 44
0.0000000001
 40
0.0
 40
0.0
 40
0.0
 40
0.0
 40
0.1947067236
 40
0.3819390468
 40
0.7060047497
 40
0.7719707036
 40
0.8305525151
 40
0.8811754387
 40
0.9233256878
 40
0.9410899002
 40
0.9565883786
 40
0.9697777905
 40
0.980621881
 40
0.9890917699
 40
0.9924274663
 40
0.9951589033
 40
0.997282563
 40
0.9987968096
 40
0.9997023409
 40
1.0
 40
1.0
 40
1.0
 40
1.0
 10
32.5533353718
 20
61.865907073
 30
0.0
 10
32.0488118096
 20
61.865907073
 30
0.0
 10
31.0590724408
 20
61.8791191198
 30
0.0
 10
29.2309561025
 20
61.9513257419
 30
0.0
 10
27.7386747057
 20
62.0623190627
 30
0.0
 10
26.582067732
 20
62.1786896538
 30
0.0
 10
26.1308295804
 20
62.2278455543
 30
0.0
 10
25.7412615107
 20
62.273152517
 30
0.0
 10
25.4569603332
 20
62.3079619169
 30
0.0
 10
25.2630907333
 20
62.3324693685
 30
0.0
 10
25.1437141895
 20
62.347829666
 30
0.0
 10
25.0421217319
 20
62.3610788963
 30
0.0
 10
24.9586699782
 20
62.3720805516
 30
0.0
 10
24.9003811535
 20
62.3798347998
 30
0.0
 10
24.8632189728
 20
62.3848271878
 30
0.0
 10
24.8418233003
 20
62.3876854823
 30
0.0
 10
24.8263993682
 20
62.3898207048
 30
0.0
 10
24.8126285669
 20
62.3915571664
 30
0.0
 10
24.8093232327
 20
62.3922210573
 30
0.0
 10
24.8024639409
 20
62.3929293226
 30
0.0
 10
24.8032351624
 20
62.3929187754
 30
0.0
  0
SPLINE
  5
259
100
AcDbEntity
  8
0
100
AcDbSpline
 62
7
  6
BYLAYER
 70
0
 71
3
 72
19
 73
15
 74
0
 42
0.0000001
 43
0.0000001
 44
0.0000000001
 40
0.0
 40
0.0
 40
0.0
 40
0.0
 40
0.0266091533
 40
0.0557482807
 40
0.0893085906
 40
0.1284011139
 40
0.1735676239
 40
0.2249692513
 40
0.2825019992
 40
0.3459102078
 40
0.4886082049
 40
0.6488238584
 40
0.821302234
 40
1.0
 40
1.0
 40
1.0
 40
1.0
 10
36.0533240859
 20
8.4784200324
 30
0.0
 10
36.0533230418
 20
8.5123229636
 30
0.0
 10
36.0406555196
 20
8.5837712482
 30
0.0
 10
35.9867359345
 20
8.6855055041
 30
0.0
 10
35.9002119262
 20
8.7833032129
 30
0.0
 10
35.7824976438
 20
8.877307354
 30
0.0
 10
35.6344811651
 20
8.9672461554
 30
0.0
 10
35.4573480877
 20
9.0524923296
 30
0.0
 10
35.2526252392
 20
9.1323782032
 30
0.0
 10
34.9324930287
 20
9.2346681997
 30
0.0
 10
34.4772488196
 20
9.3408459417
 30
0.0
 10
33.8780794062
 20
9.432541837
 30
0.0
 10
33.2285585351
 20
9.4890458663
 30
0.0
 10
32.7810155995
 20
9.5017209988
 30
0.0
 10
32.5533353718
 20
9.5017209988
 30
0.0
  0
SPLINE
  5
25A
100
AcDbEntity
  8
0
100
AcDbSpline
 62
7
  6
BYLAYER
 70
0
 71
3
 72
16
 73
12
 74
0
 42
0.0000001
 43
0.0000001
 44
0.0000000001
 40
0.0
 40
0.0
 40
0.0
 40
0.0
 40
0.0625577167
 40
0.1251148473
 40
0.187677214
 40
0.2502430078
 40
0.3751983042
 40
0.5002217659
 40
0.7497494966
 40
0.8748680426
 40
1.0
 40
1.0
 40
1.0
 40
1.0
 10
32.5533353718
 20
22.436572418
 30
0.0
 10
32.6737624284
 20
22.436572418
 30
0.0
 10
32.9149588272
 20
22.419470863
 30
0.0
 10
33.2693124732
 20
22.3436589753
 30
0.0
 10
33.6102563525
 20
22.2208434519
 30
0.0
 10
34.0397179216
 20
22.0008993711
 30
0.0
 10
34.5224014741
 20
21.632566146
 30
0.0
 10
35.157722033
 20
20.9044859345
 30
0.0
 10
35.5977333087
 20
20.0311191798
 30
0.0
 10
35.8680402973
 20
19.1069960816
 30
0.0
 10
35.9536510679
 20
18.6317565322
 30
0.0
 10
35.985069437
 20
18.3929283223
 30
0.0
  0
SPLINE
  5
25B
100
AcDbEntity
  8
0
100
AcDbSpline
 62
7
  6
BYLAYER
 70
0
 71
3
 72
19
 73
15
 74
0
 42
0.0000001
 43
0.0000001
 44
0.0000000001
 40
0.0
 40
0.0
 40
0.0
 40
0.0
 40
0.1786975545
 40
0.3511720248
 40
0.5113859477
 40
0.6540826774
 40
0.7174912867
 40
0.7750248334
 40
0.8264282943
 40
0.8715955489
 40
0.9106897751
 40
0.9442506313
 40
0.9733905201
 40
1.0
 40
1.0
 40
1.0
 40
1.0
 10
32.5533353718
 20
9.5017209988
 30
0.0
 10
32.3256553837
 20
9.5017209988
 30
0.0
 10
31.8781175984
 20
9.4890465318
 30
0.0
 10
31.2286041573
 20
9.4325430019
 30
0.0
 10
30.6294428472
 20
9.3408512865
 30
0.0
 10
30.1742019181
 20
9.2346745806
 30
0.0
 10
29.854068511
 20
9.1323880507
 30
0.0
 10
29.6493426332
 20
9.0524997464
 30
0.0
 10
29.4722027645
 20
8.967257137
 30
0.0
 10
29.3241838983
 20
8.8773121499
 30
0.0
 10
29.2064624229
 20
8.7833106404
 30
0.0
 10
29.1199382096
 20
8.6855077042
 30
0.0
 10
29.0660154713
 20
8.583773501
 30
0.0
 10
29.0533456137
 20
8.512323384
 30
0.0
 10
29.0533466578
 20
8.4784200321
 30
0.0
  0
SPLINE
  5
25C
100
AcDbEntity
  8
0
100
AcDbSpline
 62
7
  6
BYLAYER
 70
0
 71
3
 72
28
 73
24
 74
0
 42
0.0000001
 43
0.0000001
 44
0.0000000001
 40
0.0
 40
0.0
 40
0.0
 40
0.0
 40
0.0003093755
 40
0.0012249438
 40
0.0027458624
 40
0.0048712875
 40
0.0075999522
 40
0.010929545
 40
0.0193816376
 40
0.0302078264
 40
0.0433882028
 40
0.0588911499
 40
0.0766668644
 40
0.1188310446
 40
0.1694419585
 40
0.2280105724
 40
0.293975002
 40
0.3666816309
 40
0.4454334531
 40
0.529494823
 40
0.6180608495
 40
0.8052936823
 40
1.0
 40
1.0
 40
1.0
 40
1.0
 10
40.3034355813
 20
62.3929187754
 30
0.0
 10
40.3026339838
 20
62.3929078128
 30
0.0
 10
40.2995037397
 20
62.3922644885
 30
0.0
 10
40.2924363907
 20
62.3915320957
 30
0.0
 10
40.2807294343
 20
62.3898352489
 30
0.0
 10
40.2643540915
 20
62.3876840021
 30
0.0
 10
40.2433393869
 20
62.3848319755
 30
0.0
 10
40.2060735239
 20
62.379834349
 30
0.0
 10
40.1480063763
 20
62.3720749498
 30
0.0
 10
40.064621253
 20
62.3610662164
 30
0.0
 10
39.9631020305
 20
62.3478218248
 30
0.0
 10
39.8436976857
 20
62.3324674743
 30
0.0
 10
39.6497466485
 20
62.3079688136
 30
0.0
 10
39.3654004943
 20
62.2731721457
 30
0.0
 10
38.9758547809
 20
62.2278469705
 30
0.0
 10
38.5246767964
 20
62.1786880704
 30
0.0
 10
38.0161379001
 20
62.1275280794
 30
0.0
 10
37.4550612927
 20
62.0763256872
 30
0.0
 10
36.8467532846
 20
62.0270026237
 30
0.0
 10
36.1969393708
 20
61.9815217841
 30
0.0
 10
35.2660103291
 20
61.9272410316
 30
0.0
 10
34.0476222421
 20
61.879119069
 30
0.0
 10
33.0578700554
 20
61.865907073
 30
0.0
 10
32.5533353718
 20
61.865907073
 30
0.0
  0
ENDSEC
  0
SECTION
  2
OBJECTS
  0
DICTIONARY
  5
C
100
AcDbDictionary
280
0
281
1
  3
ACAD_GROUP
350
D
  3
ACAD_MLINESTYLE
350
17
  3
ACAD_LAYOUT
350
1A
  3
ACAD_PLOTSETTINGS
350
19
  3
ACAD_PLOTSTYLENAME
350
E
  0
DICTIONARY
  5
D
102
{ACAD_REACTORS
330
C
102
}
100
AcDbDictionary
280
0
281
1
  0
ACDBDICTIONARYWDFLT
  5
E
102
{ACAD_REACTORS
330
C
102
}
100
AcDbDictionary
281
1
  3
Normal
350
F
100
AcDbDictionaryWithDefault
340
F
  0
DICTIONARY
  5
17
102
{ACAD_REACTORS
330
C
102
}
100
AcDbDictionary
280
0
281
1
  3
Standard
350
18
  0
DICTIONARY
  5
19
102
{ACAD_REACTORS
330
C
102
}
100
AcDbDictionary
281
1
  0
DICTIONARY
  5
1A
102
{ACAD_REACTORS
330
C
102
}
100
AcDbDictionary
281
1
  3
Model
350
25D
  3
Layout1
350
25E
  0
ACDBPLACEHOLDER
  5
F
102
{ACAD_REACTORS
330
E
102
}
  0
MLINESTYLE
  5
18
102
{ACAD_REACTORS
330
17
102
}
100
AcDbMlineStyle
  2
STANDARD
 70
0
  3

 62
256
 51
90.0
 52
90.0
 71
2
 49
0.5
 62
256
  6
BYLAYER
 49
-0.5
 62
256
  6
BYLAYER
  0
LAYOUT
  5
25D
102
{ACAD_REACTORS
330
1A
102
}
100
AcDbPlotSettings
  1

  2
none_device
  4

  6

 40
0.0
 41
0.0
 42
0.0
 43
0.0
 44
210.0
 45
297.0
 46
0.0
 47
0.0
 48
0.0
 49
0.0
140
0.0
141
0.0
142
1.0
143
1.0
 70
1024
 72
1
 73
0
 74
0
  7

 75
0
147
1.0
148
0.0
149
0.0
100
AcDbLayout
  1
Model
 70
0
 71
0
 10
0.0
 20
0.0
 11
210.0
 21
297.0
 12
0.0
 22
0.0
 32
0.0
 14
0.0
 24
0.0
 34
0.0
 15
0.0
 25
0.0
 35
0.0
146
0.0
 13
0.0
 23
0.0
 33
0.0
 16
1.0
 26
0.0
 36
0.0
 17
0.0
 27
1.0
 37
0.0
 76
0
330
210
345
0
346
0
  0
LAYOUT
  5
25E
102
{ACAD_REACTORS
330
1A
102
}
100
AcDbPlotSettings
  1

  2
none_device
  4

  6

 40
0.0
 41
0.0
 42
0.0
 43
0.0
 44
210.0
 45
297.0
 46
0.0
 47
0.0
 48
0.0
 49
0.0
140
0.0
141
0.0
142
1.0
143
1.0
 70
0
 72
1
 73
0
 74
0
  7

 75
0
147
1.0
148
0.0
149
0.0
100
AcDbLayout
  1
Layout1
 70
0
 71
1
 10
0.0
 20
0.0
 11
210.0
 21
297.0
 12
0.0
 22
0.0
 32
0.0
 14
0.0
 24
0.0
 34
0.0
 15
0.0
 25
0.0
 35
0.0
146
0.0
 13
0.0
 23
0.0
 33
0.0
 16
1.0
 26
0.0
 36
0.0
 17
0.0
 27
1.0
 37
0.0
 76
0
330
211
345
0
346
0
  0
ENDSEC
  0
EOF
