999
DXF file: C:\Users\sesa63760\Dev\_Creo\CAD\MCADID0001856_3D-CAD\drw0001_1.dxf
999
Pro/ENGINEER 2019471 by Parametric Technology Corporation
  0
SECTION
  2
HEADER
  9
$ACADVER
  1
AC1024
  9
$DWGCODEPAGE
  3
ANSI_1252
  9
$EXTMAX
 10
84.8335408656
 20
119.9788649385
 30
0.0
  9
$EXTMIN
 10
0.0
 20
0.0
 30
0.0
  9
$LIMMIN
 10
0.0
 20
0.0
  9
$LIMMAX
 10
84.8335408656
 20
119.9788649385
  9
$VIEWCTR
 10
42.4167704328
 20
59.9894324693
  9
$VIEWSIZE
 40
119.9788649385
  9
$CLAYER
  8
0
  9
$LTSCALE
 40
7.8208445293
  9
$CELTYPE
  6
BYLAYER
  9
$DIMSCALE
 40
1.0
  9
$DIMASZ
 40
1.0099231055
  9
$DIMEXO
 40
1.0
  9
$DIMDLI
 40
5.4034925839
  9
$DIMEXE
 40
1.0
  9
$DIMCEN
 40
1.2797745593
  9
$DIMLFAC
 40
1.0
  9
$DIMBLK
  1
_FILLED
  9
$DIMALT
 70
0
  9
$DIMALTF
 40
0.0393700787
  9
$DIMTXT
 40
1.4138923478
  9
$DIMTOL
 70
1
  9
$DIMLIM
 70
0
  9
$DIMTFAC
 40
1.0
  9
$DIMTP
 40
0.01
  9
$DIMTM
 40
0.01
  9
$DIMGAP
 40
0.625
  9
$DIMDSEP
 70
46
  9
$AUNITS
 70
0
  9
$PDMODE
 70
3
  9
$PDSIZE
 40
0.3125
  9
$HANDSEED
  5
2C7
  9
$TILEMODE
 70
1
  9
$MEASUREMENT
 70
1
  9
$INSUNITS
 70
4
  0
ENDSEC
  0
SECTION
  2
CLASSES
  0
CLASS
  1
ACDBDICTIONARYWDFLT
  2
AcDbDictionaryWithDefault
  3
AutoCAD 2000
 90
0
 91
1
280
0
281
0
  0
CLASS
  1
ACDBPLACEHOLDER
  2
AcDbPlaceHolder
  3
AutoCAD 2000
 90
0
 91
1
280
0
281
0
  0
CLASS
  1
LAYOUT
  2
AcDbLayout
  3
AutoCAD 2000
 90
0
 91
0
280
0
281
0
  0
ENDSEC
  0
SECTION
  2
TABLES
  0
TABLE
  2
VPORT
  5
8
100
AcDbSymbolTable
 70
2
  0
VPORT
  5
1F4
100
AcDbSymbolTableRecord
100
AcDbViewportTableRecord
  2
*ACTIVE
 70
0
 10
0.0
 20
0.0
 11
1.0
 21
1.0
 12
42.4167704328
 22
59.9894324693
 13
0.0
 23
0.0
 14
1.0
 24
1.0
 15
0.0
 25
0.0
 16
0.0
 26
0.0
 36
1.0
 17
0.0
 27
0.0
 37
0.0
 40
119.9788649385
 41
0.7070707071
 42
50.0
 43
0.0
 44
0.0
 50
0.0
 51
0.0
 71
0
 72
100
 73
1
 74
1
 75
0
 76
0
 77
0
 78
0
  0
ENDTAB
  0
TABLE
  2
LTYPE
  5
5
100
AcDbSymbolTable
 70
6
  0
LTYPE
  5
14
100
AcDbSymbolTableRecord
100
AcDbLinetypeTableRecord
  2
BYBLOCK
 70
0
  3

 72
65
 73
0
 40
0.0
  0
LTYPE
  5
15
100
AcDbSymbolTableRecord
100
AcDbLinetypeTableRecord
  2
BYLAYER
 70
0
  3

 72
65
 73
0
 40
0.0
  0
LTYPE
  5
16
100
AcDbSymbolTableRecord
100
AcDbLinetypeTableRecord
  2
CONTINUOUS
 70
64
  3
Solid line
 72
65
 73
0
 40
0.0
  0
LTYPE
  5
1F5
100
AcDbSymbolTableRecord
100
AcDbLinetypeTableRecord
  2
CENTER
 70
64
  3
____ _ ____ _ ____ _ ____ _ ____ _ ____ _ ____
 72
65
 73
4
 40
0.6
 49
0.375
 74
0
 49
-0.075
 74
0
 49
0.075
 74
0
 49
-0.075
 74
0
  0
LTYPE
  5
1F6
100
AcDbSymbolTableRecord
100
AcDbLinetypeTableRecord
  2
HIDDEN
 70
64
  3
- - - - - - - - - - - - - - - - - - - -
 72
65
 73
2
 40
0.2
 49
0.1
 74
0
 49
-0.1
 74
0
  0
LTYPE
  5
1F7
100
AcDbSymbolTableRecord
100
AcDbLinetypeTableRecord
  2
PHANTOM
 70
64
  3
_____ _ _ _____ _ _ _____ _ _ _____
 72
65
 73
6
 40
0.8
 49
0.45
 74
0
 49
-0.05
 74
0
 49
0.1
 74
0
 49
-0.05
 74
0
 49
0.1
 74
0
 49
-0.05
 74
0
  0
LTYPE
  5
1F8
100
AcDbSymbolTableRecord
100
AcDbLinetypeTableRecord
  2
DOT
 70
64
  3
. . . . . . . . . . . . . . . . . . . .
 72
65
 73
2
 40
0.2
 49
0.1
 74
0
 49
-0.1
 74
0
  0
LTYPE
  5
1F9
100
AcDbSymbolTableRecord
100
AcDbLinetypeTableRecord
  2
DASHED
 70
64
  3
- - - - - - - - - - - - - - - - - - - -
 72
65
 73
2
 40
0.2
 49
0.1
 74
0
 49
-0.1
 74
0
  0
ENDTAB
  0
TABLE
  2
LAYER
  5
2
100
AcDbSymbolTable
 70
36
  0
LAYER
  5
10
100
AcDbSymbolTableRecord
100
AcDbLayerTableRecord
  2
0
 70
0
 62
7
  6
CONTINUOUS
370
-3
390
F
  0
LAYER
  5
1FA
100
AcDbSymbolTableRecord
100
AcDbLayerTableRecord
  2
DEFAULT_1
 70
0
 62
7
  6
CENTER
370
-3
390
F
  0
LAYER
  5
1FB
100
AcDbSymbolTableRecord
100
AcDbLayerTableRecord
  2
DEFAULT_2
 70
0
 62
8
  6
HIDDEN
370
-3
390
F
  0
LAYER
  5
1FC
100
AcDbSymbolTableRecord
100
AcDbLayerTableRecord
  2
DEFAULT_3
 70
0
 62
7
  6
PHANTOM
370
-3
390
F
  0
LAYER
  5
1FD
100
AcDbSymbolTableRecord
100
AcDbLayerTableRecord
  2
00_COMPONENTS
 70
0
 62
7
  6
CONTINUOUS
370
-3
390
F
  0
LAYER
  5
1FE
100
AcDbSymbolTableRecord
100
AcDbLayerTableRecord
  2
01_1_DEFAULT_DATUMS
 70
0
 62
7
  6
CONTINUOUS
370
-3
390
F
  0
LAYER
  5
1FF
100
AcDbSymbolTableRecord
100
AcDbLayerTableRecord
  2
01_PLANES
 70
0
 62
7
  6
CONTINUOUS
370
-3
390
F
  0
LAYER
  5
200
100
AcDbSymbolTableRecord
100
AcDbLayerTableRecord
  2
02_COORD_SYS
 70
0
 62
7
  6
CONTINUOUS
370
-3
390
F
  0
LAYER
  5
201
100
AcDbSymbolTableRecord
100
AcDbLayerTableRecord
  2
03_AXES
 70
0
 62
7
  6
CONTINUOUS
370
-3
390
F
  0
LAYER
  5
202
100
AcDbSymbolTableRecord
100
AcDbLayerTableRecord
  2
04_POINTS
 70
0
 62
7
  6
CONTINUOUS
370
-3
390
F
  0
LAYER
  5
203
100
AcDbSymbolTableRecord
100
AcDbLayerTableRecord
  2
05_CURVES
 70
0
 62
7
  6
CONTINUOUS
370
-3
390
F
  0
LAYER
  5
204
100
AcDbSymbolTableRecord
100
AcDbLayerTableRecord
  2
06_SURFS
 70
0
 62
7
  6
CONTINUOUS
370
-3
390
F
  0
LAYER
  5
205
100
AcDbSymbolTableRecord
100
AcDbLayerTableRecord
  2
07_COSMETICS
 70
0
 62
7
  6
CONTINUOUS
370
-3
390
F
  0
LAYER
  5
206
100
AcDbSymbolTableRecord
100
AcDbLayerTableRecord
  2
10_NOTES
 70
0
 62
7
  6
CONTINUOUS
370
-3
390
F
  0
LAYER
  5
207
100
AcDbSymbolTableRecord
100
AcDbLayerTableRecord
  2
11_NOTES_PUB
 70
0
 62
7
  6
CONTINUOUS
370
-3
390
F
  0
LAYER
  5
208
100
AcDbSymbolTableRecord
100
AcDbLayerTableRecord
  2
13_REF_GTOL
 70
0
 62
7
  6
CONTINUOUS
370
-3
390
F
  0
LAYER
  5
209
100
AcDbSymbolTableRecord
100
AcDbLayerTableRecord
  2
16_MISC
 70
0
 62
7
  6
CONTINUOUS
370
-3
390
F
  0
LAYER
  5
20A
100
AcDbSymbolTableRecord
100
AcDbLayerTableRecord
  2
17_NO_PRINT
 70
0
 62
7
  6
CONTINUOUS
370
-3
390
F
  0
LAYER
  5
20B
100
AcDbSymbolTableRecord
100
AcDbLayerTableRecord
  2
18_DATUM_CAMS_JOINTS
 70
0
 62
7
  6
CONTINUOUS
370
-3
390
F
  0
LAYER
  5
20C
100
AcDbSymbolTableRecord
100
AcDbLayerTableRecord
  2
19_DATUM_FUNCTIONAL
 70
0
 62
7
  6
CONTINUOUS
370
-3
390
F
  0
LAYER
  5
20D
100
AcDbSymbolTableRecord
100
AcDbLayerTableRecord
  2
20_DATUM_KINEMATIC_SCHEME
 70
0
 62
7
  6
CONTINUOUS
370
-3
390
F
  0
ENDTAB
  0
TABLE
  2
STYLE
  5
3
100
AcDbSymbolTable
 70
1
  0
STYLE
  5
11
100
AcDbSymbolTableRecord
100
AcDbTextStyleTableRecord
  2
STANDARD
 70
0
 40
0.0
 41
0.8
 50
0.0
 71
0
 42
0.2
  3
txt
  4

  0
STYLE
  5
20E
100
AcDbSymbolTableRecord
100
AcDbTextStyleTableRecord
  2
TEXTSTYLE_1
 70
0
 40
0.0
 41
0.8
 50
0.0
 71
0
 42
0.2
  3
gdt
  4

  0
ENDTAB
  0
TABLE
  2
VIEW
  5
6
100
AcDbSymbolTable
 70
0
  0
ENDTAB
  0
TABLE
  2
UCS
  5
7
100
AcDbSymbolTable
 70
0
  0
ENDTAB
  0
TABLE
  2
APPID
  5
9
100
AcDbSymbolTable
 70
1
  0
APPID
  5
20F
100
AcDbSymbolTableRecord
100
AcDbRegAppTableRecord
  2
ACAD
 70
0
  0
ENDTAB
  0
TABLE
  2
BLOCK_RECORD
  5
1
100
AcDbSymbolTable
 70
0
  0
BLOCK_RECORD
  5
210
100
AcDbSymbolTableRecord
100
AcDbBlockTableRecord
  2
*Model_Space
  0
BLOCK_RECORD
  5
211
100
AcDbSymbolTableRecord
100
AcDbBlockTableRecord
  2
*Paper_Space
  0
BLOCK_RECORD
  5
212
100
AcDbSymbolTableRecord
100
AcDbBlockTableRecord
  2
_FILLED
  0
ENDTAB
  0
TABLE
  2
DIMSTYLE
  5
A
100
AcDbSymbolTable
 70
1
100
AcDbDimStyleTable
 71
0
  0
DIMSTYLE
105
213
100
AcDbSymbolTableRecord
100
AcDbDimStyleTableRecord
  2
STANDARD
 70
0
  3

  4

 40
1.0
 41
1.0099231055
 42
1.0
 43
0.38
 44
1.0
 45
0.0
 46
0.0
 47
0.01
 48
0.01
140
1.4138923478
141
0.09
142
0.0
143
25.4
144
1.0
145
0.0
146
1.0
147
0.625
 71
1
 72
0
 73
0
 74
0
 75
0
 76
0
 77
1
 78
8
 79
2
170
0
171
1
172
0
173
0
174
0
175
0
176
0
177
0
178
0
270
2
179
2
271
2
272
2
273
2
274
2
275
0
280
0
281
0
282
0
283
1
284
8
285
0
286
0
287
3
288
0
340
11
278
46
341
212
342
212
343
212
344
212
  0
ENDTAB
  0
ENDSEC
  0
SECTION
  2
BLOCKS
  0
BLOCK
  5
20
100
AcDbEntity
  8
0
100
AcDbBlockBegin
  2
*Model_Space
 70
0
 10
0.0
 20
0.0
 30
0.0
  3
*Model_Space
  1

  0
ENDBLK
  5
21
100
AcDbEntity
  8
0
100
AcDbBlockEnd
  0
BLOCK
  5
1C
100
AcDbEntity
  8
0
100
AcDbBlockBegin
  2
*Paper_Space
 70
0
 10
0.0
 20
0.0
 30
0.0
  3
*Paper_Space
  1

  0
ENDBLK
  5
1D
100
AcDbEntity
  8
0
100
AcDbBlockEnd
  0
BLOCK
  5
214
100
AcDbEntity
  8
0
100
AcDbBlockBegin
  2
_FILLED
 70
64
 10
0.0
 20
0.0
  3
_FILLED
  1

  0
SOLID
  5
215
100
AcDbEntity
  8
0
  6
BYBLOCK
 62
0
100
AcDbTrace
 10
0.0
 20
0.0
 11
-1.0
 21
0.25
 12
-1.0
 22
-0.25
 13
-1.0
 23
-0.25
  0
ENDBLK
  5
216
100
AcDbEntity
  8
0
  6
BYBLOCK
 62
0
100
AcDbBlockEnd
  0
ENDSEC
  0
SECTION
  2
ENTITIES
  0
LINE
  5
217
100
AcDbEntity
  8
0
100
AcDbLine
 62
7
  6
CONTINUOUS
 10
35.6510480948
 20
20.3316284357
 11
24.690847355
 21
26.6593601308
  0
LINE
  5
218
100
AcDbEntity
  8
0
100
AcDbLine
 62
7
  6
CONTINUOUS
 10
24.5140787556
 20
26.7614465825
 11
23.6301915992
 21
27.2717475257
  0
LINE
  5
219
100
AcDbEntity
  8
0
100
AcDbLine
 62
7
  6
CONTINUOUS
 10
9.8416667735
 20
52.532020371
 11
9.8416667735
 21
67.8928803444
  0
LINE
  5
21A
100
AcDbEntity
  8
0
100
AcDbLine
 62
7
  6
CONTINUOUS
 10
10.7255539299
 20
64.6775068933
 11
10.7255539299
 21
52.0217194278
  0
LINE
  5
21B
100
AcDbEntity
  8
0
100
AcDbLine
 62
7
  6
CONTINUOUS
 10
10.9023225293
 20
52.123776217
 11
10.9023225293
 21
51.9196329761
  0
LINE
  5
21C
100
AcDbEntity
  8
0
100
AcDbLine
 62
7
  6
CONTINUOUS
 10
11.7862096857
 20
64.0651508605
 11
11.7862096857
 21
52.6340856586
  0
LINE
  5
21D
100
AcDbEntity
  8
0
100
AcDbLine
 62
7
  6
CONTINUOUS
 10
25.5747345114
 20
34.314083359
 11
28.0496273813
 21
32.8852356191
  0
LINE
  5
21E
100
AcDbEntity
  8
0
100
AcDbLine
 62
7
  6
CONTINUOUS
 10
31.2316123126
 20
31.0481573228
 11
33.7065051825
 21
29.619309583
  0
LINE
  5
21F
100
AcDbEntity
  8
0
100
AcDbLine
 62
7
  6
CONTINUOUS
 10
28.7567856819
 20
32.9866681821
 11
17.7965849421
 21
39.3143998772
  0
LINE
  5
220
100
AcDbEntity
  8
0
100
AcDbLine
 62
7
  6
CONTINUOUS
 10
17.6198163428
 20
39.4164863289
 11
16.7359291863
 21
39.926787272
  0
LINE
  5
221
100
AcDbEntity
  8
0
100
AcDbLine
 62
7
  6
CONTINUOUS
 10
14.0169173405
 20
60.8622644736
 11
14.0169173405
 21
62.7772803311
  0
LINE
  5
222
100
AcDbEntity
  8
0
100
AcDbLine
 62
7
  6
CONTINUOUS
 10
14.2611025556
 20
49.9805156552
 11
14.2611025556
 21
62.6363031207
  0
LINE
  5
223
100
AcDbEntity
  8
0
100
AcDbLine
 62
7
  6
CONTINUOUS
 10
33.7065051825
 20
32.1950883818
 11
33.4623199673
 21
32.3360655921
  0
LINE
  5
224
100
AcDbEntity
  8
0
100
AcDbLine
 62
7
  6
CONTINUOUS
 10
33.7065051825
 20
34.1101042393
 11
32.2045628986
 21
34.9772314042
  0
LINE
  5
225
100
AcDbEntity
  8
0
100
AcDbLine
 62
7
  6
CONTINUOUS
 10
16.3824317311
 20
61.4115808571
 11
16.3824317311
 21
48.7557933916
  0
LINE
  5
226
100
AcDbEntity
  8
0
100
AcDbLine
 62
7
  6
CONTINUOUS
 10
16.7359291863
 20
39.926787272
 11
16.7359291863
 21
48.5516747957
  0
LINE
  5
227
100
AcDbEntity
  8
0
100
AcDbLine
 62
7
  6
CONTINUOUS
 10
17.4430874869
 20
60.7992248244
 11
17.4430874869
 21
49.3681596224
  0
LINE
  5
228
100
AcDbEntity
  8
0
100
AcDbLine
 62
7
  6
CONTINUOUS
 10
17.6198163428
 20
48.0413738525
 11
17.6198163428
 21
39.4164863289
  0
LINE
  5
229
100
AcDbEntity
  8
0
100
AcDbLine
 62
7
  6
CONTINUOUS
 10
17.7965849421
 20
39.5185431181
 11
17.7965849421
 21
39.3143998772
  0
LINE
  5
22A
100
AcDbEntity
  8
0
100
AcDbLine
 62
7
  6
CONTINUOUS
 10
18.6804720986
 20
47.4290178197
 11
18.6804720986
 21
40.0288525597
  0
LINE
  5
22B
100
AcDbEntity
  8
0
100
AcDbLine
 62
7
  6
CONTINUOUS
 10
19.6737951417
 20
57.5963384374
 11
19.6737951417
 21
59.5113542949
  0
LINE
  5
22C
100
AcDbEntity
  8
0
100
AcDbLine
 62
7
  6
CONTINUOUS
 10
19.9179803568
 20
46.714589619
 11
19.9179803568
 21
59.3703770845
  0
LINE
  5
22D
100
AcDbEntity
  8
0
100
AcDbLine
 62
7
  6
CONTINUOUS
 10
20.8018675133
 20
61.5651486493
 11
20.8018675133
 21
46.2042886759
  0
LINE
  5
22E
100
AcDbEntity
  8
0
100
AcDbLine
 62
7
  6
CONTINUOUS
 10
21.1553649685
 20
37.3752825563
 11
21.1553649685
 21
46.0001700799
  0
LINE
  5
22F
100
AcDbEntity
  8
0
100
AcDbLine
 62
7
  6
CONTINUOUS
 10
21.8625232691
 20
45.591901281
 11
21.8625232691
 21
46.8166549067
  0
LINE
  5
230
100
AcDbEntity
  8
0
100
AcDbLine
 62
7
  6
CONTINUOUS
 10
65.3493179948
 20
99.9400464233
 11
51.7375691284
 21
92.0813464613
  0
LINE
  5
231
100
AcDbEntity
  8
0
100
AcDbLine
 62
7
  6
CONTINUOUS
 10
23.87738444
 20
75.9963573462
 11
9.8416667735
 21
67.8928803444
  0
LINE
  5
232
100
AcDbEntity
  8
0
100
AcDbLine
 62
7
  6
CONTINUOUS
 10
40.379725151
 20
83.9419852297
 11
37.5513098022
 21
82.3090086142
  0
LINE
  5
233
100
AcDbEntity
  8
0
100
AcDbLine
 62
7
  6
CONTINUOUS
 10
51.7289618649
 20
89.6779285716
 11
53.1075942209
 21
90.4738775823
  0
LINE
  5
234
100
AcDbEntity
  8
0
100
AcDbLine
 62
7
  6
CONTINUOUS
 10
51.2028808861
 20
88.5066362349
 11
41.8381878361
 21
83.099960455
  0
LINE
  5
235
100
AcDbEntity
  8
0
100
AcDbLine
 62
7
  6
CONTINUOUS
 10
37.1867034676
 20
80.4144407331
 11
26.7058722176
 21
74.3633661097
  0
LINE
  5
236
100
AcDbEntity
  8
0
100
AcDbLine
 62
7
  6
CONTINUOUS
 10
18.6804720986
 20
46.9691231053
 11
21.1553649685
 21
45.5402753655
  0
LINE
  5
237
100
AcDbEntity
  8
0
100
AcDbLine
 62
7
  6
CONTINUOUS
 10
24.3373498997
 20
43.7031970691
 11
26.8122427697
 21
42.2743493293
  0
LINE
  5
238
100
AcDbEntity
  8
0
100
AcDbLine
 62
7
  6
CONTINUOUS
 10
21.8625232691
 20
45.591901281
 11
10.9023225293
 21
51.9196329761
  0
LINE
  5
239
100
AcDbEntity
  8
0
100
AcDbLine
 62
7
  6
CONTINUOUS
 10
10.7255539299
 20
52.0217194278
 11
9.8416667735
 21
52.532020371
  0
LINE
  5
23A
100
AcDbEntity
  8
0
100
AcDbLine
 62
7
  6
CONTINUOUS
 10
26.8122427697
 20
44.8501281281
 11
26.5680575545
 21
44.9911053385
  0
LINE
  5
23B
100
AcDbEntity
  8
0
100
AcDbLine
 62
7
  6
CONTINUOUS
 10
23.2766941439
 20
46.4083683426
 11
23.2766941439
 21
36.1505602927
  0
LINE
  5
23C
100
AcDbEntity
  8
0
100
AcDbLine
 62
7
  6
CONTINUOUS
 10
23.6301915992
 20
27.2717475257
 11
23.6301915992
 21
35.9464416968
  0
LINE
  5
23D
100
AcDbEntity
  8
0
100
AcDbLine
 62
7
  6
CONTINUOUS
 10
23.8070588214
 20
60.8506790519
 11
23.8070588214
 21
59.2176742177
  0
LINE
  5
23E
100
AcDbEntity
  8
0
100
AcDbLine
 62
7
  6
CONTINUOUS
 10
24.3373498997
 20
47.0207345734
 11
24.3373498997
 21
36.7629265235
  0
LINE
  5
23F
100
AcDbEntity
  8
0
100
AcDbLine
 62
7
  6
CONTINUOUS
 10
24.5140787556
 20
35.4361407536
 11
24.5140787556
 21
26.7614465825
  0
LINE
  5
240
100
AcDbEntity
  8
0
100
AcDbLine
 62
7
  6
CONTINUOUS
 10
24.690847355
 20
26.8635033718
 11
24.690847355
 21
26.6593601308
  0
LINE
  5
241
100
AcDbEntity
  8
0
100
AcDbLine
 62
7
  6
CONTINUOUS
 10
25.5747345114
 20
34.8237847208
 11
25.5747345114
 21
27.3738128134
  0
LINE
  5
242
100
AcDbEntity
  8
0
100
AcDbLine
 62
7
  6
CONTINUOUS
 10
26.8122427697
 20
46.7651439856
 11
25.3534349243
 21
47.6073680342
  0
LINE
  5
243
100
AcDbEntity
  8
0
100
AcDbLine
 62
7
  6
CONTINUOUS
 10
26.5680575545
 20
44.9911053385
 11
26.5680575545
 21
46.906121196
  0
LINE
  5
244
100
AcDbEntity
  8
0
100
AcDbLine
 62
7
  6
CONTINUOUS
 10
26.8122427697
 20
34.1093565201
 11
26.8122427697
 21
46.7651439856
  0
LINE
  5
245
100
AcDbEntity
  8
0
100
AcDbLine
 62
7
  6
CONTINUOUS
 10
27.6961299261
 20
48.9599155504
 11
27.6961299261
 21
33.599055577
  0
LINE
  5
246
100
AcDbEntity
  8
0
100
AcDbLine
 62
7
  6
CONTINUOUS
 10
28.0496273813
 20
24.7202428099
 11
28.0496273813
 21
33.394936981
  0
LINE
  5
247
100
AcDbEntity
  8
0
100
AcDbLine
 62
7
  6
CONTINUOUS
 10
28.0496759568
 20
63.3001405758
 11
28.0496759568
 21
62.4836240493
  0
LINE
  5
248
100
AcDbEntity
  8
0
100
AcDbLine
 62
7
  6
CONTINUOUS
 10
28.7567856819
 20
32.9866681821
 11
28.7567856819
 21
34.2114218078
  0
LINE
  5
249
100
AcDbEntity
  8
0
100
AcDbLine
 62
7
  6
CONTINUOUS
 10
28.7567856819
 20
62.0753832948
 11
28.7567856819
 21
63.708388129
  0
LINE
  5
24A
100
AcDbEntity
  8
0
100
AcDbLine
 62
7
  6
CONTINUOUS
 10
14.0169173405
 20
60.8622644736
 11
11.7862096857
 21
59.5743562042
  0
LINE
  5
24B
100
AcDbEntity
  8
0
100
AcDbLine
 62
7
  6
CONTINUOUS
 10
48.5998757059
 20
79.1961864584
 11
45.771460357
 21
77.5632098429
  0
LINE
  5
24C
100
AcDbEntity
  8
0
100
AcDbLine
 62
7
  6
CONTINUOUS
 10
11.7862096857
 20
59.5743562042
 11
14.2611025556
 21
58.1455084644
  0
LINE
  5
24D
100
AcDbEntity
  8
0
100
AcDbLine
 62
7
  6
CONTINUOUS
 10
17.4430874869
 20
56.308430168
 11
19.9179803568
 21
54.8795824282
  0
LINE
  5
24E
100
AcDbEntity
  8
0
100
AcDbLine
 62
7
  6
CONTINUOUS
 10
19.9179803568
 20
57.455361227
 11
19.6737951417
 21
57.5963384374
  0
LINE
  5
24F
100
AcDbEntity
  8
0
100
AcDbLine
 62
7
  6
CONTINUOUS
 10
14.2611025556
 20
60.7212872632
 11
14.0169173405
 21
60.8622644736
  0
LINE
  5
250
100
AcDbEntity
  8
0
100
AcDbLine
 62
7
  6
CONTINUOUS
 10
30.1709565568
 20
33.8031352437
 11
30.1709565568
 21
23.4955205464
  0
LINE
  5
251
100
AcDbEntity
  8
0
100
AcDbLine
 62
7
  6
CONTINUOUS
 10
31.2316123126
 20
34.4155014745
 11
31.2316123126
 21
24.1078867772
  0
LINE
  5
252
100
AcDbEntity
  8
0
100
AcDbLine
 62
7
  6
CONTINUOUS
 10
59.9491124197
 20
84.9321298003
 11
61.3277447757
 21
85.728078811
  0
LINE
  5
253
100
AcDbEntity
  8
0
100
AcDbLine
 62
7
  6
CONTINUOUS
 10
76.3095187345
 20
93.6123147283
 11
62.6977698682
 21
85.7536147662
  0
LINE
  5
254
100
AcDbEntity
  8
0
100
AcDbLine
 62
7
  6
CONTINUOUS
 10
34.8375851798
 20
69.6686256512
 11
20.8018675133
 21
61.5651486493
  0
LINE
  5
255
100
AcDbEntity
  8
0
100
AcDbLine
 62
7
  6
CONTINUOUS
 10
45.0643565198
 20
73.8889560206
 11
49.3069795431
 21
76.3384209438
  0
LINE
  5
256
100
AcDbEntity
  8
0
100
AcDbLine
 62
7
  6
CONTINUOUS
 10
59.592480388
 20
82.2767221785
 11
61.3277447757
 21
83.2785715596
  0
LINE
  5
257
100
AcDbEntity
  8
0
100
AcDbLine
 62
7
  6
CONTINUOUS
 10
73.3043274264
 20
89.4277698229
 11
68.3546005659
 21
86.5700607458
  0
LINE
  5
258
100
AcDbEntity
  8
0
100
AcDbLine
 62
7
  6
CONTINUOUS
 10
28.7567856819
 20
63.708388129
 11
23.8070588214
 21
60.8506790519
  0
LINE
  5
259
100
AcDbEntity
  8
0
100
AcDbLine
 62
7
  6
CONTINUOUS
 10
19.9179803568
 20
59.3703770845
 11
16.3824317311
 21
61.4115808571
  0
LINE
  5
25A
100
AcDbEntity
  8
0
100
AcDbLine
 62
7
  6
CONTINUOUS
 10
14.2611025556
 20
62.6363031207
 11
10.7255539299
 21
64.6775068933
  0
LINE
  5
25B
100
AcDbEntity
  8
0
100
AcDbLine
 62
7
  6
CONTINUOUS
 10
33.4623199673
 20
32.3360655921
 11
33.4623199673
 21
34.2510814497
  0
LINE
  5
25C
100
AcDbEntity
  8
0
100
AcDbLine
 62
7
  6
CONTINUOUS
 10
33.7065051825
 20
21.4543167738
 11
33.7065051825
 21
34.1101042393
  0
LINE
  5
25D
100
AcDbEntity
  8
0
100
AcDbLine
 62
7
  6
CONTINUOUS
 10
34.5903923389
 20
36.3546824515
 11
34.5903923389
 21
20.9440158306
  0
LINE
  5
25E
100
AcDbEntity
  8
0
100
AcDbLine
 62
7
  6
CONTINUOUS
 10
35.6510480948
 20
20.3316284357
 11
35.6510480948
 21
21.5563820614
  0
LINE
  5
25F
100
AcDbEntity
  8
0
100
AcDbLine
 62
7
  6
CONTINUOUS
 10
36.844205965
 20
78.6347547919
 11
37.5513098022
 21
82.3090086142
  0
LINE
  5
260
100
AcDbEntity
  8
0
100
AcDbLine
 62
7
  6
CONTINUOUS
 10
35.3130945555
 20
66.67714981
 11
35.8278240541
 21
68.6073320849
  0
LINE
  5
261
100
AcDbEntity
  8
0
100
AcDbLine
 62
7
  6
CONTINUOUS
 10
35.3130945555
 20
66.67714981
 11
62.6977698682
 21
82.4876050977
  0
LINE
  5
262
100
AcDbEntity
  8
0
100
AcDbLine
 62
7
  6
CONTINUOUS
 10
72.5972177012
 20
88.2030057432
 11
68.3546005659
 21
85.7535442193
  0
LINE
  5
263
100
AcDbEntity
  8
0
100
AcDbLine
 62
7
  6
CONTINUOUS
 10
28.0496759568
 20
62.4836240493
 11
23.8070588214
 21
60.0341625254
  0
LINE
  5
264
100
AcDbEntity
  8
0
100
AcDbLine
 62
7
  6
CONTINUOUS
 10
19.6737951417
 20
57.5963384374
 11
17.4430874869
 21
56.308430168
  0
LINE
  5
265
100
AcDbEntity
  8
0
100
AcDbLine
 62
7
  6
CONTINUOUS
 10
10.7255539299
 20
52.0217194278
 11
11.7862096857
 21
52.6340856586
  0
LINE
  5
266
100
AcDbEntity
  8
0
100
AcDbLine
 62
7
  6
CONTINUOUS
 10
23.8070588214
 20
59.2176742177
 11
28.7567856819
 21
62.0753832948
  0
LINE
  5
267
100
AcDbEntity
  8
0
100
AcDbLine
 62
7
  6
CONTINUOUS
 10
68.3546005659
 20
84.9370559116
 11
73.3043274264
 21
87.7947649887
  0
LINE
  5
268
100
AcDbEntity
  8
0
100
AcDbLine
 62
7
  6
CONTINUOUS
 10
9.8416667735
 20
67.8928803444
 11
20.8018675133
 21
61.5651486493
  0
LINE
  5
269
100
AcDbEntity
  8
0
100
AcDbLine
 62
7
  6
CONTINUOUS
 10
45.4479635457
 20
50.8054177316
 11
45.2711861144
 21
50.9074779202
  0
LINE
  5
26A
100
AcDbEntity
  8
0
100
AcDbLine
 62
7
  6
CONTINUOUS
 10
50.9862827092
 20
88.024391495
 11
51.7289618649
 21
89.6779285716
  0
LINE
  5
26B
100
AcDbEntity
  8
0
100
AcDbLine
 62
7
  6
CONTINUOUS
 10
16.3824317311
 20
48.7557933916
 11
17.4430874869
 21
49.3681596224
  0
LINE
  5
26C
100
AcDbEntity
  8
0
100
AcDbLine
 62
7
  6
CONTINUOUS
 10
46.3318418702
 20
51.519844151
 11
46.5086193015
 21
51.4177839624
  0
LINE
  5
26D
100
AcDbEntity
  8
0
100
AcDbLine
 62
7
  6
CONTINUOUS
 10
28.0496759568
 20
62.4836240493
 11
28.7567856819
 21
62.0753832948
  0
LINE
  5
26E
100
AcDbEntity
  8
0
100
AcDbLine
 62
7
  6
CONTINUOUS
 10
50.3976904062
 20
52.4383522749
 11
51.1047942434
 21
52.0301149197
  0
LINE
  5
26F
100
AcDbEntity
  8
0
100
AcDbLine
 62
7
  6
CONTINUOUS
 10
41.4846547518
 20
23.6996427052
 11
41.4846547518
 21
51.052473679
  0
LINE
  5
270
100
AcDbEntity
  8
0
100
AcDbLine
 62
7
  6
CONTINUOUS
 10
45.771460357
 20
77.5632098429
 11
45.0643565198
 21
73.8889560206
  0
LINE
  5
271
100
AcDbEntity
  8
0
100
AcDbLine
 62
7
  6
CONTINUOUS
 10
19.078755779
 20
47.1990738317
 11
18.6804720986
 21
46.9691231053
  0
LINE
  5
272
100
AcDbEntity
  8
0
100
AcDbLine
 62
7
  6
CONTINUOUS
 10
76.3095187345
 20
78.2514547548
 11
75.2488629787
 21
77.639088524
  0
LINE
  5
273
100
AcDbEntity
  8
0
100
AcDbLine
 62
7
  6
CONTINUOUS
 10
21.8625232691
 20
46.8166549067
 11
20.8018675133
 21
46.2042886759
  0
LINE
  5
274
100
AcDbEntity
  8
0
100
AcDbLine
 62
7
  6
CONTINUOUS
 10
75.2488629787
 20
76.4143348983
 11
62.6977698682
 21
69.1680011671
  0
LINE
  5
275
100
AcDbEntity
  8
0
100
AcDbLine
 62
7
  6
CONTINUOUS
 10
27.6961299261
 20
48.9599155504
 11
21.8625232691
 21
45.591901281
  0
LINE
  5
276
100
AcDbEntity
  8
0
100
AcDbLine
 62
7
  6
CONTINUOUS
 10
54.6403134295
 20
56.1125917319
 11
54.4635359982
 21
56.2146519206
  0
LINE
  5
277
100
AcDbEntity
  8
0
100
AcDbLine
 62
7
  6
CONTINUOUS
 10
55.524191754
 20
56.8270181514
 11
55.7009691853
 21
56.7249579627
  0
LINE
  5
278
100
AcDbEntity
  8
0
100
AcDbLine
 62
7
  6
CONTINUOUS
 10
35.8278240541
 20
68.6073320849
 11
34.8375851798
 21
69.6686256512
  0
LINE
  5
279
100
AcDbEntity
  8
0
100
AcDbLine
 62
7
  6
CONTINUOUS
 10
50.3976904062
 20
53.2548756001
 11
50.3976904062
 21
51.6218707659
  0
LINE
  5
27A
100
AcDbEntity
  8
0
100
AcDbLine
 62
7
  6
CONTINUOUS
 10
59.9491124197
 20
84.9321298003
 11
59.2064332641
 21
83.2785927237
  0
LINE
  5
27B
100
AcDbEntity
  8
0
100
AcDbLine
 62
7
  6
CONTINUOUS
 10
26.5680575545
 20
44.9911053385
 11
24.3373498997
 21
43.7031970691
  0
LINE
  5
27C
100
AcDbEntity
  8
0
100
AcDbLine
 62
7
  6
CONTINUOUS
 10
17.6198163428
 20
39.4164863289
 11
18.6804720986
 21
40.0288525597
  0
LINE
  5
27D
100
AcDbEntity
  8
0
100
AcDbLine
 62
7
  6
CONTINUOUS
 10
61.5876168438
 20
62.6588549736
 11
41.4846547518
 21
51.052473679
  0
LINE
  5
27E
100
AcDbEntity
  8
0
100
AcDbLine
 62
7
  6
CONTINUOUS
 10
34.8375851798
 20
69.6686256512
 11
23.87738444
 21
75.9963573462
  0
LINE
  5
27F
100
AcDbEntity
  8
0
100
AcDbLine
 62
7
  6
CONTINUOUS
 10
61.5876168438
 20
56.9433380537
 11
60.6011987772
 21
57.5128339062
  0
LINE
  5
280
100
AcDbEntity
  8
0
100
AcDbLine
 62
7
  6
CONTINUOUS
 10
51.1047942434
 20
52.0301149197
 11
51.1047942434
 21
53.663119754
  0
LINE
  5
281
100
AcDbEntity
  8
0
100
AcDbLine
 62
7
  6
CONTINUOUS
 10
51.7375691284
 20
92.0813464613
 11
51.7375691284
 21
89.6779285716
  0
LINE
  5
282
100
AcDbEntity
  8
0
100
AcDbLine
 62
7
  6
CONTINUOUS
 10
55.7009691853
 20
58.357962797
 11
54.6403134295
 21
57.7455965662
  0
LINE
  5
283
100
AcDbEntity
  8
0
100
AcDbLine
 62
7
  6
CONTINUOUS
 10
46.5086193015
 20
53.0507887967
 11
45.4479635457
 21
52.4384225659
  0
LINE
  5
284
100
AcDbEntity
  8
0
100
AcDbLine
 62
7
  6
CONTINUOUS
 10
55.524191754
 20
56.8270181514
 11
54.4635359982
 21
56.2146519206
  0
LINE
  5
285
100
AcDbEntity
  8
0
100
AcDbLine
 62
7
  6
CONTINUOUS
 10
46.3318418702
 20
51.519844151
 11
45.2711861144
 21
50.9074779202
  0
LINE
  5
286
100
AcDbEntity
  8
0
100
AcDbLine
 62
7
  6
CONTINUOUS
 10
45.4479635457
 20
50.8054177316
 11
46.5086193015
 21
51.4177839624
  0
LINE
  5
287
100
AcDbEntity
  8
0
100
AcDbLine
 62
7
  6
CONTINUOUS
 10
54.6403134295
 20
56.1125917319
 11
55.7009691853
 21
56.7249579627
  0
LINE
  5
288
100
AcDbEntity
  8
0
100
AcDbLine
 62
7
  6
CONTINUOUS
 10
51.1047942434
 20
53.663119754
 11
50.3976904062
 21
53.2548756001
  0
LINE
  5
289
100
AcDbEntity
  8
0
100
AcDbLine
 62
7
  6
CONTINUOUS
 10
49.3069795431
 20
76.3384209438
 11
48.5998757059
 21
79.1961864584
  0
LINE
  5
28A
100
AcDbEntity
  8
0
100
AcDbLine
 62
7
  6
CONTINUOUS
 10
23.2766941439
 20
36.1505602927
 11
24.3373498997
 21
36.7629265235
  0
LINE
  5
28B
100
AcDbEntity
  8
0
100
AcDbLine
 62
7
  6
CONTINUOUS
 10
60.6011987772
 20
57.5128339062
 11
51.1047942434
 21
52.0301149197
  0
LINE
  5
28C
100
AcDbEntity
  8
0
100
AcDbLine
 62
7
  6
CONTINUOUS
 10
50.3976904062
 20
51.6218707659
 11
41.4846547518
 21
46.4759579485
  0
LINE
  5
28D
100
AcDbEntity
  8
0
100
AcDbLine
 62
7
  6
CONTINUOUS
 10
62.6977698682
 20
57.5842813753
 11
61.5876168438
 21
56.9433380537
  0
LINE
  5
28E
100
AcDbEntity
  8
0
100
AcDbLine
 62
7
  6
CONTINUOUS
 10
26.0161523576
 20
34.5689377739
 11
25.5747345114
 21
34.314083359
  0
LINE
  5
28F
100
AcDbEntity
  8
0
100
AcDbLine
 62
7
  6
CONTINUOUS
 10
36.844205965
 20
78.6347547919
 11
45.0643565198
 21
73.8889560206
  0
LINE
  5
290
100
AcDbEntity
  8
0
100
AcDbLine
 62
7
  6
CONTINUOUS
 10
60.6011987772
 20
62.0893496368
 11
60.6011987772
 21
57.5128339062
  0
LINE
  5
291
100
AcDbEntity
  8
0
100
AcDbLine
 62
7
  6
CONTINUOUS
 10
28.7567856819
 20
34.2114218078
 11
27.6961299261
 21
33.599055577
  0
LINE
  5
292
100
AcDbEntity
  8
0
100
AcDbLine
 62
7
  6
CONTINUOUS
 10
34.5903923389
 20
36.3546824515
 11
28.7567856819
 21
32.9866681821
  0
LINE
  5
293
100
AcDbEntity
  8
0
100
AcDbLine
 62
7
  6
CONTINUOUS
 10
45.771460357
 20
77.5632098429
 11
37.5513098022
 21
82.3090086142
  0
LINE
  5
294
100
AcDbEntity
  8
0
100
AcDbLine
 62
7
  6
CONTINUOUS
 10
51.3723298332
 20
87.0225209498
 11
50.9862827092
 21
88.024391495
  0
LINE
  5
295
100
AcDbEntity
  8
0
100
AcDbLine
 62
7
  6
CONTINUOUS
 10
61.3277447757
 20
83.2785715596
 11
61.3277447757
 21
85.728078811
  0
LINE
  5
296
100
AcDbEntity
  8
0
100
AcDbLine
 62
7
  6
CONTINUOUS
 10
61.5876168438
 20
62.6588549736
 11
61.5876168438
 21
56.9433380537
  0
LINE
  5
297
100
AcDbEntity
  8
0
100
AcDbLine
 62
7
  6
CONTINUOUS
 10
62.6977698682
 20
57.5842813753
 11
62.6977698682
 21
69.1680011671
  0
LINE
  5
298
100
AcDbEntity
  8
0
100
AcDbLine
 62
7
  6
CONTINUOUS
 10
62.6977698682
 20
82.4876050977
 11
62.6977698682
 21
85.7536147662
  0
LINE
  5
299
100
AcDbEntity
  8
0
100
AcDbLine
 62
7
  6
CONTINUOUS
 10
33.4623199673
 20
32.3360655921
 11
31.2316123126
 21
31.0481573228
  0
LINE
  5
29A
100
AcDbEntity
  8
0
100
AcDbLine
 62
7
  6
CONTINUOUS
 10
24.5140787556
 20
26.7614465825
 11
25.5747345114
 21
27.3738128134
  0
LINE
  5
29B
100
AcDbEntity
  8
0
100
AcDbLine
 62
7
  6
CONTINUOUS
 10
48.5998757059
 20
79.1961864584
 11
40.379725151
 21
83.9419852297
  0
LINE
  5
29C
100
AcDbEntity
  8
0
100
AcDbLine
 62
7
  6
CONTINUOUS
 10
59.2064332641
 20
83.2785927237
 11
59.592480388
 21
82.2767221785
  0
LINE
  5
29D
100
AcDbEntity
  8
0
100
AcDbLine
 62
7
  6
CONTINUOUS
 10
68.3546005659
 20
86.5700607458
 11
68.3546005659
 21
84.9370559116
  0
LINE
  5
29E
100
AcDbEntity
  8
0
100
AcDbLine
 62
7
  6
CONTINUOUS
 10
30.1709565568
 20
23.4955205464
 11
31.2316123126
 21
24.1078867772
  0
LINE
  5
29F
100
AcDbEntity
  8
0
100
AcDbLine
 62
7
  6
CONTINUOUS
 10
51.3723298332
 20
87.0225209498
 11
59.592480388
 21
82.2767221785
  0
LINE
  5
2A0
100
AcDbEntity
  8
0
100
AcDbLine
 62
7
  6
CONTINUOUS
 10
50.9862827092
 20
88.024391495
 11
59.2064332641
 21
83.2785927237
  0
LINE
  5
2A1
100
AcDbEntity
  8
0
100
AcDbLine
 62
7
  6
CONTINUOUS
 10
72.5972177012
 20
89.0195222697
 11
72.5972177012
 21
88.2030057432
  0
LINE
  5
2A2
100
AcDbEntity
  8
0
100
AcDbLine
 62
7
  6
CONTINUOUS
 10
73.3043274264
 20
87.7947649887
 11
73.3043274264
 21
89.4277698229
  0
LINE
  5
2A3
100
AcDbEntity
  8
0
100
AcDbLine
 62
7
  6
CONTINUOUS
 10
35.6510480948
 20
21.5563820614
 11
34.5903923389
 21
20.9440158306
  0
LINE
  5
2A4
100
AcDbEntity
  8
0
100
AcDbLine
 62
7
  6
CONTINUOUS
 10
41.4846547518
 20
23.6996427052
 11
35.6510480948
 21
20.3316284357
  0
LINE
  5
2A5
100
AcDbEntity
  8
0
100
AcDbLine
 62
7
  6
CONTINUOUS
 10
61.3277447757
 20
83.2785715596
 11
62.6977698682
 21
82.4876050977
  0
LINE
  5
2A6
100
AcDbEntity
  8
0
100
AcDbLine
 62
7
  6
CONTINUOUS
 10
51.7289618649
 20
89.6779285716
 11
59.9491124197
 21
84.9321298003
  0
LINE
  5
2A7
100
AcDbEntity
  8
0
100
AcDbLine
 62
7
  6
CONTINUOUS
 10
61.3277447757
 20
85.728078811
 11
53.1075942209
 21
90.4738775823
  0
LINE
  5
2A8
100
AcDbEntity
  8
0
100
AcDbLine
 62
7
  6
CONTINUOUS
 10
75.2488629787
 20
77.639088524
 11
75.2488629787
 21
76.4143348983
  0
LINE
  5
2A9
100
AcDbEntity
  8
0
100
AcDbLine
 62
7
  6
CONTINUOUS
 10
76.3095187345
 20
78.2514547548
 11
76.3095187345
 21
93.6123147283
  0
LINE
  5
2AA
100
AcDbEntity
  8
0
100
AcDbLine
 62
7
  6
CONTINUOUS
 10
62.6977698682
 20
85.7536147662
 11
51.7375691284
 21
92.0813464613
  0
LINE
  5
2AB
100
AcDbEntity
  8
0
100
AcDbLine
 62
7
  6
CONTINUOUS
 10
72.5972177012
 20
88.2030057432
 11
73.3043274264
 21
87.7947649887
  0
LINE
  5
2AC
100
AcDbEntity
  8
0
100
AcDbLine
 62
7
  6
CONTINUOUS
 10
76.3095187345
 20
93.6123147283
 11
65.3493179948
 21
99.9400464233
  0
ARC
  5
2AD
100
AcDbEntity
  8
0
100
AcDbCircle
 62
7
  6
CONTINUOUS
 10
44.952158339
 20
51.2009340721
 40
0.3897140228
100
AcDbArc
 50
259.7411651834
 51
265.3526526184
  0
ARC
  5
2AE
100
AcDbEntity
  8
0
100
AcDbCircle
 62
7
  6
CONTINUOUS
 10
54.1444849985
 20
56.5079225866
 40
0.3895263345
100
AcDbArc
 50
259.6796424876
 51
265.3259007239
  0
SPLINE
  5
2AF
100
AcDbEntity
  8
0
100
AcDbSpline
 62
7
  6
CONTINUOUS
 70
0
 71
3
 72
9
 73
5
 74
0
 42
0.0000001
 43
0.0000001
 44
0.0000000001
 40
0.0
 40
0.0
 40
0.0
 40
0.0
 40
0.4768554515
 40
1.0
 40
1.0
 40
1.0
 40
1.0
 10
54.1403424947
 20
56.0630994476
 30
0.0
 10
54.1009166603
 20
56.0858604946
 30
0.0
 10
54.0278891861
 20
56.1517821654
 30
0.0
 10
53.9846664371
 20
56.2390547364
 30
0.0
 10
53.968566341
 20
56.2863319115
 30
0.0
  0
SPLINE
  5
2B0
100
AcDbEntity
  8
0
100
AcDbSpline
 62
7
  6
CONTINUOUS
 70
0
 71
3
 72
15
 73
11
 74
0
 42
0.0000001
 43
0.0000001
 44
0.0000000001
 40
0.0
 40
0.0
 40
0.0
 40
0.0
 40
0.1011647881
 40
0.2159001864
 40
0.342355743
 40
0.4768941668
 40
0.6148464613
 40
0.751102755
 40
0.8809322646
 40
1.0
 40
1.0
 40
1.0
 40
1.0
 10
53.968566341
 20
56.2863319115
 30
0.0
 10
53.9500197948
 20
56.3407929719
 30
0.0
 10
53.9282836666
 20
56.4632528888
 30
0.0
 10
53.9366097226
 20
56.6588205779
 30
0.0
 10
53.9824950873
 20
56.8684737562
 30
0.0
 10
54.0635467158
 20
57.0811826835
 30
0.0
 10
54.1754428615
 20
57.2857278725
 30
0.0
 10
54.3121899298
 20
57.4713180226
 30
0.0
 10
54.4665099885
 20
57.6278173877
 30
0.0
 10
54.5816714287
 20
57.7117397934
 30
0.0
 10
54.6403134295
 20
57.7455965662
 30
0.0
  0
SPLINE
  5
2B1
100
AcDbEntity
  8
0
100
AcDbSpline
 62
7
  6
CONTINUOUS
 70
0
 71
3
 72
9
 73
5
 74
0
 42
0.0000001
 43
0.0000001
 44
0.0000000001
 40
0.0
 40
0.0
 40
0.0
 40
0.0
 40
0.4771300345
 40
1.0
 40
1.0
 40
1.0
 40
1.0
 10
44.9479921021
 20
50.7559245846
 30
0.0
 10
44.9088515994
 20
50.7785197988
 30
0.0
 10
44.8363200473
 20
50.8437848147
 30
0.0
 10
44.793109779
 20
50.9301932814
 30
0.0
 10
44.7769523243
 20
50.9770103921
 30
0.0
  0
SPLINE
  5
2B2
100
AcDbEntity
  8
0
100
AcDbSpline
 62
7
  6
CONTINUOUS
 70
0
 71
3
 72
15
 73
11
 74
0
 42
0.0000001
 43
0.0000001
 44
0.0000000001
 40
0.0
 40
0.0
 40
0.0
 40
0.0
 40
0.1010262435
 40
0.215660051
 40
0.3420720992
 40
0.4766295519
 40
0.6146529579
 40
0.7509881006
 40
0.8808799844
 40
1.0
 40
1.0
 40
1.0
 40
1.0
 10
44.7769523243
 20
50.9770103921
 30
0.0
 10
44.7581840721
 20
51.0313924317
 30
0.0
 10
44.736045921
 20
51.1538238396
 30
0.0
 10
44.7439560893
 20
51.3495139104
 30
0.0
 10
44.7895700431
 20
51.5594488994
 30
0.0
 10
44.8705042195
 20
51.7725569689
 30
0.0
 10
44.9824341329
 20
51.9775478433
 30
0.0
 10
45.1193219794
 20
52.1635658257
 30
0.0
 10
45.2738624929
 20
52.3204142316
 30
0.0
 10
45.3892182515
 20
52.4045061569
 30
0.0
 10
45.4479635457
 20
52.4384225659
 30
0.0
  0
SPLINE
  5
2B3
100
AcDbEntity
  8
0
100
AcDbSpline
 62
7
  6
CONTINUOUS
 70
0
 71
3
 72
9
 73
5
 74
0
 42
0.0000001
 43
0.0000001
 44
0.0000000001
 40
0.0
 40
0.0
 40
0.0
 40
0.0
 40
0.2789886294
 40
1.0
 40
1.0
 40
1.0
 40
1.0
 10
46.5086193015
 20
53.0507887967
 30
0.0
 10
46.5380726248
 20
53.0677935793
 30
0.0
 10
46.6463961282
 20
53.1228586503
 30
0.0
 10
46.7712390435
 20
53.1528917646
 30
0.0
 10
46.858846162
 20
53.1457976194
 30
0.0
  0
SPLINE
  5
2B4
100
AcDbEntity
  8
0
100
AcDbSpline
 62
7
  6
CONTINUOUS
 70
0
 71
3
 72
9
 73
5
 74
0
 42
0.0000001
 43
0.0000001
 44
0.0000000001
 40
0.0
 40
0.0
 40
0.0
 40
0.0
 40
0.5083752801
 40
1.0
 40
1.0
 40
1.0
 40
1.0
 10
46.858846162
 20
53.1457976194
 30
0.0
 10
46.8854469567
 20
53.1436435718
 30
0.0
 10
46.9375468772
 20
53.1341877325
 30
0.0
 10
46.9862390397
 20
53.1131847174
 30
0.0
 10
47.0085902363
 20
53.100281081
 30
0.0
  0
SPLINE
  5
2B5
100
AcDbEntity
  8
0
100
AcDbSpline
 62
7
  6
CONTINUOUS
 70
0
 71
3
 72
9
 73
5
 74
0
 42
0.0000001
 43
0.0000001
 44
0.0000000001
 40
0.0
 40
0.0
 40
0.0
 40
0.0
 40
0.2789886294
 40
1.0
 40
1.0
 40
1.0
 40
1.0
 10
55.7009691853
 20
58.357962797
 30
0.0
 10
55.7304225086
 20
58.3749675796
 30
0.0
 10
55.8387460119
 20
58.4300326507
 30
0.0
 10
55.9635889273
 20
58.4600657649
 30
0.0
 10
56.0511960458
 20
58.4529716197
 30
0.0
  0
SPLINE
  5
2B6
100
AcDbEntity
  8
0
100
AcDbSpline
 62
7
  6
CONTINUOUS
 70
0
 71
3
 72
9
 73
5
 74
0
 42
0.0000001
 43
0.0000001
 44
0.0000000001
 40
0.0
 40
0.0
 40
0.0
 40
0.0
 40
0.5083752801
 40
1.0
 40
1.0
 40
1.0
 40
1.0
 10
56.0511960458
 20
58.4529716197
 30
0.0
 10
56.0777968404
 20
58.4508175722
 30
0.0
 10
56.1298967609
 20
58.4413617328
 30
0.0
 10
56.1785889235
 20
58.4203587177
 30
0.0
 10
56.20094012
 20
58.4074550813
 30
0.0
  0
SPLINE
  5
2B7
100
AcDbEntity
  8
0
100
AcDbSpline
 62
7
  6
CONTINUOUS
 70
0
 71
3
 72
11
 73
7
 74
0
 42
0.0000001
 43
0.0000001
 44
0.0000000001
 40
0.0
 40
0.0
 40
0.0
 40
0.0
 40
0.2177648073
 40
0.4508950352
 40
0.7103684932
 40
1.0
 40
1.0
 40
1.0
 40
1.0
 10
51.6405320116
 20
81.5077928914
 30
0.0
 10
51.6405078069
 20
81.4468571496
 30
0.0
 10
51.6180845537
 20
81.3198319007
 30
0.0
 10
51.5217368377
 20
81.1428372137
 30
0.0
 10
51.3694863104
 20
80.9828846961
 30
0.0
 10
51.2421288938
 20
80.8951302698
 30
0.0
 10
51.1719411108
 20
80.8546075762
 30
0.0
  0
SPLINE
  5
2B8
100
AcDbEntity
  8
0
100
AcDbSpline
 62
7
  6
CONTINUOUS
 70
0
 71
3
 72
17
 73
13
 74
0
 42
0.0000001
 43
0.0000001
 44
0.0000000001
 40
0.0
 40
0.0
 40
0.0
 40
0.0
 40
0.128688448
 40
0.2702796817
 40
0.4174325464
 40
0.5617749928
 40
0.6954478191
 40
0.8127119577
 40
0.8646769781
 40
0.912510124
 40
0.9571398159
 40
1.0
 40
1.0
 40
1.0
 40
1.0
 10
51.1719411108
 20
80.8546075762
 30
0.0
 10
51.0535038486
 20
80.7862281992
 30
0.0
 10
50.7853403953
 20
80.6755848503
 30
0.0
 10
50.3482926726
 20
80.5881417388
 30
0.0
 10
49.8860338272
 20
80.575345293
 30
0.0
 10
49.4362928829
 20
80.6385415478
 30
0.0
 10
49.035526111
 20
80.7724021715
 30
0.0
 10
48.7567924839
 20
80.9420707038
 30
0.0
 10
48.593218346
 20
81.1062389142
 30
0.0
 10
48.5063174329
 20
81.2340518326
 30
0.0
 10
48.4527688782
 20
81.3688688396
 30
0.0
 10
48.440580997
 20
81.4622444445
 30
0.0
 10
48.4405990895
 20
81.5077926755
 30
0.0
  0
SPLINE
  5
2B9
100
AcDbEntity
  8
0
100
AcDbSpline
 62
7
  6
CONTINUOUS
 70
0
 71
3
 72
17
 73
13
 74
0
 42
0.0000001
 43
0.0000001
 44
0.0000000001
 40
0.0
 40
0.0
 40
0.0
 40
0.0
 40
0.0428567916
 40
0.0874847188
 40
0.1353117925
 40
0.187277638
 40
0.3045377072
 40
0.4382000305
 40
0.5825388704
 40
0.729686241
 40
0.8713150959
 40
1.0
 40
1.0
 40
1.0
 40
1.0
 10
47.0085902363
 20
53.100281081
 30
0.0
 10
47.0332423884
 20
53.0860490729
 30
0.0
 10
47.0800101159
 20
53.0503236014
 30
0.0
 10
47.1361978818
 20
52.9791743346
 30
0.0
 10
47.1782766209
 20
52.8922325845
 30
0.0
 10
47.2159604433
 20
52.7523771991
 30
0.0
 10
47.2207384895
 20
52.5485102846
 30
0.0
 10
47.1679631303
 20
52.2897589134
 30
0.0
 10
47.0616315738
 20
52.0265964073
 30
0.0
 10
46.910272682
 20
51.7803517632
 30
0.0
 10
46.7263368032
 20
51.5711175436
 30
0.0
 10
46.5826405538
 20
51.4605198973
 30
0.0
 10
46.5086193015
 20
51.4177839624
 30
0.0
  0
SPLINE
  5
2BA
100
AcDbEntity
  8
0
100
AcDbSpline
 62
7
  6
CONTINUOUS
 70
0
 71
3
 72
17
 73
13
 74
0
 42
0.0000001
 43
0.0000001
 44
0.0000000001
 40
0.0
 40
0.0
 40
0.0
 40
0.0
 40
0.0428567916
 40
0.0874847188
 40
0.1353117925
 40
0.187277638
 40
0.3045377072
 40
0.4382000305
 40
0.5825388704
 40
0.729686241
 40
0.8713150959
 40
1.0
 40
1.0
 40
1.0
 40
1.0
 10
56.20094012
 20
58.4074550813
 30
0.0
 10
56.2255922722
 20
58.3932230732
 30
0.0
 10
56.2723599997
 20
58.3574976017
 30
0.0
 10
56.3285477656
 20
58.2863483349
 30
0.0
 10
56.3706265047
 20
58.1994065849
 30
0.0
 10
56.4083103271
 20
58.0595511994
 30
0.0
 10
56.4130883732
 20
57.8556842849
 30
0.0
 10
56.3603130141
 20
57.5969329137
 30
0.0
 10
56.2539814576
 20
57.3337704077
 30
0.0
 10
56.1026225658
 20
57.0875257636
 30
0.0
 10
55.918686687
 20
56.878291544
 30
0.0
 10
55.7749904376
 20
56.7676938976
 30
0.0
 10
55.7009691853
 20
56.7249579627
 30
0.0
  0
SPLINE
  5
2BB
100
AcDbEntity
  8
0
100
AcDbSpline
 62
7
  6
CONTINUOUS
 70
0
 71
3
 72
11
 73
7
 74
0
 42
0.0000001
 43
0.0000001
 44
0.0000000001
 40
0.0
 40
0.0
 40
0.0
 40
0.0
 40
0.2177648073
 40
0.4508950352
 40
0.7103684932
 40
1.0
 40
1.0
 40
1.0
 40
1.0
 10
48.4405990895
 20
81.5077926755
 30
0.0
 10
48.4406232942
 20
81.5687284173
 30
0.0
 10
48.4630465475
 20
81.6957536662
 30
0.0
 10
48.5593942635
 20
81.8727483532
 30
0.0
 10
48.7116447908
 20
82.0327008708
 30
0.0
 10
48.8390022073
 20
82.1204552971
 30
0.0
 10
48.9091899903
 20
82.1609779907
 30
0.0
  0
SPLINE
  5
2BC
100
AcDbEntity
  8
0
100
AcDbSpline
 62
7
  6
CONTINUOUS
 70
0
 71
3
 72
11
 73
7
 74
0
 42
0.0000001
 43
0.0000001
 44
0.0000000001
 40
0.0
 40
0.0
 40
0.0
 40
0.0
 40
0.2895500025
 40
0.5491394143
 40
0.7822775647
 40
1.0
 40
1.0
 40
1.0
 40
1.0
 10
45.4479635457
 20
50.8054177316
 30
0.0
 10
45.4041090512
 20
50.7800984785
 30
0.0
 10
45.316795449
 20
50.7386161635
 30
0.0
 10
45.1826465371
 20
50.7061448906
 30
0.0
 10
45.0567202794
 20
50.7093187737
 30
0.0
 10
44.9809686658
 20
50.7368877183
 30
0.0
 10
44.9479921021
 20
50.7559245846
 30
0.0
  0
SPLINE
  5
2BD
100
AcDbEntity
  8
0
100
AcDbSpline
 62
7
  6
CONTINUOUS
 70
0
 71
3
 72
9
 73
5
 74
0
 42
0.0000001
 43
0.0000001
 44
0.0000000001
 40
0.0
 40
0.0
 40
0.0
 40
0.0
 40
0.2246793316
 40
1.0
 40
1.0
 40
1.0
 40
1.0
 10
54.1127432893
 20
56.1196916898
 30
0.0
 10
54.1401165863
 20
56.1174362757
 30
0.0
 10
54.2630640647
 20
56.1198617083
 30
0.0
 10
54.3814543943
 20
56.1672623673
 30
0.0
 10
54.4635359982
 20
56.2146519206
 30
0.0
  0
SPLINE
  5
2BE
100
AcDbEntity
  8
0
100
AcDbSpline
 62
7
  6
CONTINUOUS
 70
0
 71
3
 72
11
 73
7
 74
0
 42
0.0000001
 43
0.0000001
 44
0.0000000001
 40
0.0
 40
0.0
 40
0.0
 40
0.0
 40
0.2895448512
 40
0.5491358493
 40
0.7822770651
 40
1.0
 40
1.0
 40
1.0
 40
1.0
 10
54.6403134295
 20
56.1125917319
 30
0.0
 10
54.5964597526
 20
56.0872729509
 30
0.0
 10
54.5091467359
 20
56.0457912127
 30
0.0
 10
54.3749981785
 20
56.0133191154
 30
0.0
 10
54.2490712058
 20
56.016493145
 30
0.0
 10
54.1733187021
 20
56.0440618543
 30
0.0
 10
54.1403424947
 20
56.0630994476
 30
0.0
  0
SPLINE
  5
2BF
100
AcDbEntity
  8
0
100
AcDbSpline
 62
7
  6
CONTINUOUS
 70
0
 71
3
 72
15
 73
11
 74
0
 42
0.0000001
 43
0.0000001
 44
0.0000000001
 40
0.0
 40
0.0
 40
0.0
 40
0.0
 40
0.1189193179
 40
0.2485529171
 40
0.3846165736
 40
0.5224346382
 40
0.6569480895
 40
0.7835156122
 40
0.8984985017
 40
1.0
 40
1.0
 40
1.0
 40
1.0
 10
55.524191754
 20
56.8270181514
 30
0.0
 10
55.5825715724
 20
56.860723554
 30
0.0
 10
55.6972347589
 20
56.9442024839
 30
0.0
 10
55.8509977403
 20
57.0998189308
 30
0.0
 10
55.9873986829
 20
57.2843634026
 30
0.0
 10
56.0992456974
 20
57.487841904
 30
0.0
 10
56.180593837
 20
57.6996129109
 30
0.0
 10
56.2271383262
 20
57.9085911671
 30
0.0
 10
56.2364720028
 20
58.1038572512
 30
0.0
 10
56.2157082226
 20
58.2263776569
 30
0.0
 10
56.1976998932
 20
58.2810244485
 30
0.0
  0
SPLINE
  5
2C0
100
AcDbEntity
  8
0
100
AcDbSpline
 62
7
  6
CONTINUOUS
 70
0
 71
3
 72
9
 73
5
 74
0
 42
0.0000001
 43
0.0000001
 44
0.0000000001
 40
0.0
 40
0.0
 40
0.0
 40
0.0
 40
0.2663385292
 40
1.0
 40
1.0
 40
1.0
 40
1.0
 10
56.1976998932
 20
58.2810244485
 30
0.0
 10
56.1920846557
 20
58.2980640477
 30
0.0
 10
56.1680211546
 20
58.3609419704
 30
0.0
 10
56.1304786968
 20
58.4192512899
 30
0.0
 10
56.0956518816
 20
58.4543153408
 30
0.0
  0
SPLINE
  5
2C1
100
AcDbEntity
  8
0
100
AcDbSpline
 62
7
  6
CONTINUOUS
 70
0
 71
3
 72
15
 73
11
 74
0
 42
0.0000001
 43
0.0000001
 44
0.0000000001
 40
0.0
 40
0.0
 40
0.0
 40
0.0
 40
0.1189193179
 40
0.2485529171
 40
0.3846165736
 40
0.5224346382
 40
0.6569480895
 40
0.7835156122
 40
0.8984985017
 40
1.0
 40
1.0
 40
1.0
 40
1.0
 10
46.3318418702
 20
51.519844151
 30
0.0
 10
46.3902216886
 20
51.5535495537
 30
0.0
 10
46.5048848751
 20
51.6370284836
 30
0.0
 10
46.6586478566
 20
51.7926449305
 30
0.0
 10
46.7950487991
 20
51.9771894022
 30
0.0
 10
46.9068958137
 20
52.1806679036
 30
0.0
 10
46.9882439532
 20
52.3924389106
 30
0.0
 10
47.0347884424
 20
52.6014171668
 30
0.0
 10
47.0441221191
 20
52.7966832509
 30
0.0
 10
47.0233583388
 20
52.9192036565
 30
0.0
 10
47.0053500094
 20
52.9738504481
 30
0.0
  0
SPLINE
  5
2C2
100
AcDbEntity
  8
0
100
AcDbSpline
 62
7
  6
CONTINUOUS
 70
0
 71
3
 72
9
 73
5
 74
0
 42
0.0000001
 43
0.0000001
 44
0.0000000001
 40
0.0
 40
0.0
 40
0.0
 40
0.0
 40
0.2663385292
 40
1.0
 40
1.0
 40
1.0
 40
1.0
 10
47.0053500094
 20
52.9738504481
 30
0.0
 10
46.9997347719
 20
52.9908900474
 30
0.0
 10
46.9756712708
 20
53.0537679701
 30
0.0
 10
46.938128813
 20
53.1120772896
 30
0.0
 10
46.9033019978
 20
53.1471413405
 30
0.0
  0
SPLINE
  5
2C3
100
AcDbEntity
  8
0
100
AcDbSpline
 62
7
  6
CONTINUOUS
 70
0
 71
3
 72
9
 73
5
 74
0
 42
0.0000001
 43
0.0000001
 44
0.0000000001
 40
0.0
 40
0.0
 40
0.0
 40
0.0
 40
0.2246870199
 40
1.0
 40
1.0
 40
1.0
 40
1.0
 10
44.9205826945
 20
50.812501326
 30
0.0
 10
44.9479441457
 20
50.8102599113
 30
0.0
 10
45.0708270475
 20
50.8127315322
 30
0.0
 10
45.1891468391
 20
50.8601128053
 30
0.0
 10
45.2711861144
 20
50.9074779202
 30
0.0
  0
SPLINE
  5
2C4
100
AcDbEntity
  8
0
100
AcDbSpline
 62
7
  6
CONTINUOUS
 70
0
 71
3
 72
17
 73
13
 74
0
 42
0.0000001
 43
0.0000001
 44
0.0000000001
 40
0.0
 40
0.0
 40
0.0
 40
0.0
 40
0.128688448
 40
0.2702796817
 40
0.4174325464
 40
0.5617749928
 40
0.6954478191
 40
0.8127119577
 40
0.8646769781
 40
0.912510124
 40
0.9571398159
 40
1.0
 40
1.0
 40
1.0
 40
1.0
 10
48.9091899903
 20
82.1609779907
 30
0.0
 10
49.0276272525
 20
82.2293573677
 30
0.0
 10
49.2957907058
 20
82.3400007166
 30
0.0
 10
49.7328384285
 20
82.4274438281
 30
0.0
 10
50.1950972739
 20
82.4402402739
 30
0.0
 10
50.6448382182
 20
82.3770440191
 30
0.0
 10
51.0456049901
 20
82.2431833954
 30
0.0
 10
51.3243386172
 20
82.0735148631
 30
0.0
 10
51.4879127551
 20
81.9093466527
 30
0.0
 10
51.5748136682
 20
81.7815337343
 30
0.0
 10
51.628362223
 20
81.6467167273
 30
0.0
 10
51.6405501042
 20
81.5533411224
 30
0.0
 10
51.6405320116
 20
81.5077928914
 30
0.0
  0
ENDSEC
  0
SECTION
  2
OBJECTS
  0
DICTIONARY
  5
C
100
AcDbDictionary
280
0
281
1
  3
ACAD_GROUP
350
D
  3
ACAD_MLINESTYLE
350
17
  3
ACAD_LAYOUT
350
1A
  3
ACAD_PLOTSETTINGS
350
19
  3
ACAD_PLOTSTYLENAME
350
E
  0
DICTIONARY
  5
D
102
{ACAD_REACTORS
330
C
102
}
100
AcDbDictionary
280
0
281
1
  0
ACDBDICTIONARYWDFLT
  5
E
102
{ACAD_REACTORS
330
C
102
}
100
AcDbDictionary
281
1
  3
Normal
350
F
100
AcDbDictionaryWithDefault
340
F
  0
DICTIONARY
  5
17
102
{ACAD_REACTORS
330
C
102
}
100
AcDbDictionary
280
0
281
1
  3
Standard
350
18
  0
DICTIONARY
  5
19
102
{ACAD_REACTORS
330
C
102
}
100
AcDbDictionary
281
1
  0
DICTIONARY
  5
1A
102
{ACAD_REACTORS
330
C
102
}
100
AcDbDictionary
281
1
  3
Model
350
2C5
  3
Layout1
350
2C6
  0
ACDBPLACEHOLDER
  5
F
102
{ACAD_REACTORS
330
E
102
}
  0
MLINESTYLE
  5
18
102
{ACAD_REACTORS
330
17
102
}
100
AcDbMlineStyle
  2
STANDARD
 70
0
  3

 62
256
 51
90.0
 52
90.0
 71
2
 49
0.5
 62
256
  6
BYLAYER
 49
-0.5
 62
256
  6
BYLAYER
  0
LAYOUT
  5
2C5
102
{ACAD_REACTORS
330
1A
102
}
100
AcDbPlotSettings
  1

  2
none_device
  4

  6

 40
0.0
 41
0.0
 42
0.0
 43
0.0
 44
210.0
 45
297.0
 46
0.0
 47
0.0
 48
0.0
 49
0.0
140
0.0
141
0.0
142
1.0
143
1.0
 70
1024
 72
1
 73
0
 74
0
  7

 75
0
147
1.0
148
0.0
149
0.0
100
AcDbLayout
  1
Model
 70
0
 71
0
 10
0.0
 20
0.0
 11
210.0
 21
297.0
 12
0.0
 22
0.0
 32
0.0
 14
0.0
 24
0.0
 34
0.0
 15
0.0
 25
0.0
 35
0.0
146
0.0
 13
0.0
 23
0.0
 33
0.0
 16
1.0
 26
0.0
 36
0.0
 17
0.0
 27
1.0
 37
0.0
 76
0
330
210
345
0
346
0
  0
LAYOUT
  5
2C6
102
{ACAD_REACTORS
330
1A
102
}
100
AcDbPlotSettings
  1

  2
none_device
  4

  6

 40
0.0
 41
0.0
 42
0.0
 43
0.0
 44
210.0
 45
297.0
 46
0.0
 47
0.0
 48
0.0
 49
0.0
140
0.0
141
0.0
142
1.0
143
1.0
 70
0
 72
1
 73
0
 74
0
  7

 75
0
147
1.0
148
0.0
149
0.0
100
AcDbLayout
  1
Layout1
 70
0
 71
1
 10
0.0
 20
0.0
 11
210.0
 21
297.0
 12
0.0
 22
0.0
 32
0.0
 14
0.0
 24
0.0
 34
0.0
 15
0.0
 25
0.0
 35
0.0
146
0.0
 13
0.0
 23
0.0
 33
0.0
 16
1.0
 26
0.0
 36
0.0
 17
0.0
 27
1.0
 37
0.0
 76
0
330
211
345
0
346
0
  0
ENDSEC
  0
EOF
