999
DXF file: C:\Gen2D\CAD\GVAS025_3D-CAD\drw0001_1.dxf
999
Pro/ENGINEER 2019471 by Parametric Technology Corporation
  0
SECTION
  2
HEADER
  9
$ACADVER
  1
AC1024
  9
$DWGCODEPAGE
  3
ANSI_1252
  9
$EXTMAX
 10
78.5815490286
 20
111.1367621976
 30
0.0
  9
$EXTMIN
 10
0.0
 20
0.0
 30
0.0
  9
$LIMMIN
 10
0.0
 20
0.0
  9
$LIMMAX
 10
78.5815490286
 20
111.1367621976
  9
$VIEWCTR
 10
39.2907745143
 20
55.5683810988
  9
$VIEWSIZE
 40
111.1367621976
  9
$CLAYER
  8
0
  9
$LTSCALE
 40
7.2444704247
  9
$CELTYPE
  6
BYLAYER
  9
$DIMSCALE
 40
1.0
  9
$DIMASZ
 40
0.9354946313
  9
$DIMEXO
 40
1.0
  9
$DIMDLI
 40
5.0052704753
  9
$DIMEXE
 40
1.0
  9
$DIMCEN
 40
1.1854587968
  9
$DIMLFAC
 40
1.0
  9
$DIMBLK
  1
_FILLED
  9
$DIMALT
 70
0
  9
$DIMALTF
 40
0.0393700787
  9
$DIMTXT
 40
1.3096924838
  9
$DIMTOL
 70
1
  9
$DIMLIM
 70
0
  9
$DIMTFAC
 40
1.0
  9
$DIMTP
 40
0.01
  9
$DIMTM
 40
0.01
  9
$DIMGAP
 40
0.625
  9
$DIMDSEP
 70
46
  9
$AUNITS
 70
0
  9
$PDMODE
 70
3
  9
$PDSIZE
 40
0.3125
  9
$HANDSEED
  5
2D6
  9
$TILEMODE
 70
1
  9
$MEASUREMENT
 70
1
  9
$INSUNITS
 70
4
  0
ENDSEC
  0
SECTION
  2
CLASSES
  0
CLASS
  1
ACDBDICTIONARYWDFLT
  2
AcDbDictionaryWithDefault
  3
AutoCAD 2000
 90
0
 91
1
280
0
281
0
  0
CLASS
  1
ACDBPLACEHOLDER
  2
AcDbPlaceHolder
  3
AutoCAD 2000
 90
0
 91
1
280
0
281
0
  0
CLASS
  1
LAYOUT
  2
AcDbLayout
  3
AutoCAD 2000
 90
0
 91
0
280
0
281
0
  0
ENDSEC
  0
SECTION
  2
TABLES
  0
TABLE
  2
VPORT
  5
8
100
AcDbSymbolTable
 70
2
  0
VPORT
  5
1F4
100
AcDbSymbolTableRecord
100
AcDbViewportTableRecord
  2
*ACTIVE
 70
0
 10
0.0
 20
0.0
 11
1.0
 21
1.0
 12
39.2907745143
 22
55.5683810988
 13
0.0
 23
0.0
 14
1.0
 24
1.0
 15
0.0
 25
0.0
 16
0.0
 26
0.0
 36
1.0
 17
0.0
 27
0.0
 37
0.0
 40
111.1367621976
 41
0.7070707071
 42
50.0
 43
0.0
 44
0.0
 50
0.0
 51
0.0
 71
0
 72
100
 73
1
 74
1
 75
0
 76
0
 77
0
 78
0
  0
ENDTAB
  0
TABLE
  2
LTYPE
  5
5
100
AcDbSymbolTable
 70
6
  0
LTYPE
  5
14
100
AcDbSymbolTableRecord
100
AcDbLinetypeTableRecord
  2
BYBLOCK
 70
0
  3

 72
65
 73
0
 40
0.0
  0
LTYPE
  5
15
100
AcDbSymbolTableRecord
100
AcDbLinetypeTableRecord
  2
BYLAYER
 70
0
  3

 72
65
 73
0
 40
0.0
  0
LTYPE
  5
16
100
AcDbSymbolTableRecord
100
AcDbLinetypeTableRecord
  2
CONTINUOUS
 70
64
  3
Solid line
 72
65
 73
0
 40
0.0
  0
LTYPE
  5
1F5
100
AcDbSymbolTableRecord
100
AcDbLinetypeTableRecord
  2
CENTER
 70
64
  3
____ _ ____ _ ____ _ ____ _ ____ _ ____ _ ____
 72
65
 73
4
 40
0.6
 49
0.375
 74
0
 49
-0.075
 74
0
 49
0.075
 74
0
 49
-0.075
 74
0
  0
LTYPE
  5
1F6
100
AcDbSymbolTableRecord
100
AcDbLinetypeTableRecord
  2
HIDDEN
 70
64
  3
- - - - - - - - - - - - - - - - - - - -
 72
65
 73
2
 40
0.2
 49
0.1
 74
0
 49
-0.1
 74
0
  0
LTYPE
  5
1F7
100
AcDbSymbolTableRecord
100
AcDbLinetypeTableRecord
  2
PHANTOM
 70
64
  3
_____ _ _ _____ _ _ _____ _ _ _____
 72
65
 73
6
 40
0.8
 49
0.45
 74
0
 49
-0.05
 74
0
 49
0.1
 74
0
 49
-0.05
 74
0
 49
0.1
 74
0
 49
-0.05
 74
0
  0
LTYPE
  5
1F8
100
AcDbSymbolTableRecord
100
AcDbLinetypeTableRecord
  2
DOT
 70
64
  3
. . . . . . . . . . . . . . . . . . . .
 72
65
 73
2
 40
0.2
 49
0.1
 74
0
 49
-0.1
 74
0
  0
LTYPE
  5
1F9
100
AcDbSymbolTableRecord
100
AcDbLinetypeTableRecord
  2
DASHED
 70
64
  3
- - - - - - - - - - - - - - - - - - - -
 72
65
 73
2
 40
0.2
 49
0.1
 74
0
 49
-0.1
 74
0
  0
ENDTAB
  0
TABLE
  2
LAYER
  5
2
100
AcDbSymbolTable
 70
36
  0
LAYER
  5
10
100
AcDbSymbolTableRecord
100
AcDbLayerTableRecord
  2
0
 70
0
 62
7
  6
CONTINUOUS
370
-3
390
F
  0
LAYER
  5
1FA
100
AcDbSymbolTableRecord
100
AcDbLayerTableRecord
  2
DEFAULT_1
 70
0
 62
7
  6
CENTER
370
-3
390
F
  0
LAYER
  5
1FB
100
AcDbSymbolTableRecord
100
AcDbLayerTableRecord
  2
DEFAULT_2
 70
0
 62
8
  6
HIDDEN
370
-3
390
F
  0
LAYER
  5
1FC
100
AcDbSymbolTableRecord
100
AcDbLayerTableRecord
  2
DEFAULT_3
 70
0
 62
7
  6
PHANTOM
370
-3
390
F
  0
LAYER
  5
1FD
100
AcDbSymbolTableRecord
100
AcDbLayerTableRecord
  2
00_COMPONENTS
 70
0
 62
7
  6
CONTINUOUS
370
-3
390
F
  0
LAYER
  5
1FE
100
AcDbSymbolTableRecord
100
AcDbLayerTableRecord
  2
01_1_DEFAULT_DATUMS
 70
0
 62
7
  6
CONTINUOUS
370
-3
390
F
  0
LAYER
  5
1FF
100
AcDbSymbolTableRecord
100
AcDbLayerTableRecord
  2
01_PLANES
 70
0
 62
7
  6
CONTINUOUS
370
-3
390
F
  0
LAYER
  5
200
100
AcDbSymbolTableRecord
100
AcDbLayerTableRecord
  2
02_COORD_SYS
 70
0
 62
7
  6
CONTINUOUS
370
-3
390
F
  0
LAYER
  5
201
100
AcDbSymbolTableRecord
100
AcDbLayerTableRecord
  2
03_AXES
 70
0
 62
7
  6
CONTINUOUS
370
-3
390
F
  0
LAYER
  5
202
100
AcDbSymbolTableRecord
100
AcDbLayerTableRecord
  2
04_POINTS
 70
0
 62
7
  6
CONTINUOUS
370
-3
390
F
  0
LAYER
  5
203
100
AcDbSymbolTableRecord
100
AcDbLayerTableRecord
  2
05_CURVES
 70
0
 62
7
  6
CONTINUOUS
370
-3
390
F
  0
LAYER
  5
204
100
AcDbSymbolTableRecord
100
AcDbLayerTableRecord
  2
06_SURFS
 70
0
 62
7
  6
CONTINUOUS
370
-3
390
F
  0
LAYER
  5
205
100
AcDbSymbolTableRecord
100
AcDbLayerTableRecord
  2
07_COSMETICS
 70
0
 62
7
  6
CONTINUOUS
370
-3
390
F
  0
LAYER
  5
206
100
AcDbSymbolTableRecord
100
AcDbLayerTableRecord
  2
10_NOTES
 70
0
 62
7
  6
CONTINUOUS
370
-3
390
F
  0
LAYER
  5
207
100
AcDbSymbolTableRecord
100
AcDbLayerTableRecord
  2
11_NOTES_PUB
 70
0
 62
7
  6
CONTINUOUS
370
-3
390
F
  0
LAYER
  5
208
100
AcDbSymbolTableRecord
100
AcDbLayerTableRecord
  2
13_REF_GTOL
 70
0
 62
7
  6
CONTINUOUS
370
-3
390
F
  0
LAYER
  5
209
100
AcDbSymbolTableRecord
100
AcDbLayerTableRecord
  2
16_MISC
 70
0
 62
7
  6
CONTINUOUS
370
-3
390
F
  0
LAYER
  5
20A
100
AcDbSymbolTableRecord
100
AcDbLayerTableRecord
  2
17_NO_PRINT
 70
0
 62
7
  6
CONTINUOUS
370
-3
390
F
  0
LAYER
  5
20B
100
AcDbSymbolTableRecord
100
AcDbLayerTableRecord
  2
18_DATUM_CAMS_JOINTS
 70
0
 62
7
  6
CONTINUOUS
370
-3
390
F
  0
LAYER
  5
20C
100
AcDbSymbolTableRecord
100
AcDbLayerTableRecord
  2
19_DATUM_FUNCTIONAL
 70
0
 62
7
  6
CONTINUOUS
370
-3
390
F
  0
LAYER
  5
20D
100
AcDbSymbolTableRecord
100
AcDbLayerTableRecord
  2
20_DATUM_KINEMATIC_SCHEME
 70
0
 62
7
  6
CONTINUOUS
370
-3
390
F
  0
LAYER
  5
20E
100
AcDbSymbolTableRecord
100
AcDbLayerTableRecord
  2
INTFCLR_74
 70
0
 62
7
  6
CONTINUOUS
370
-3
390
F
  0
LAYER
  5
20F
100
AcDbSymbolTableRecord
100
AcDbLayerTableRecord
  2
INTFCLR_76
 70
0
 62
7
  6
CONTINUOUS
370
-3
390
F
  0
ENDTAB
  0
TABLE
  2
STYLE
  5
3
100
AcDbSymbolTable
 70
1
  0
STYLE
  5
11
100
AcDbSymbolTableRecord
100
AcDbTextStyleTableRecord
  2
STANDARD
 70
0
 40
0.0
 41
0.8
 50
0.0
 71
0
 42
0.2
  3
txt
  4

  0
STYLE
  5
210
100
AcDbSymbolTableRecord
100
AcDbTextStyleTableRecord
  2
TEXTSTYLE_1
 70
0
 40
0.0
 41
0.8
 50
0.0
 71
0
 42
0.2
  3
gdt
  4

  0
ENDTAB
  0
TABLE
  2
VIEW
  5
6
100
AcDbSymbolTable
 70
0
  0
ENDTAB
  0
TABLE
  2
UCS
  5
7
100
AcDbSymbolTable
 70
0
  0
ENDTAB
  0
TABLE
  2
APPID
  5
9
100
AcDbSymbolTable
 70
1
  0
APPID
  5
211
100
AcDbSymbolTableRecord
100
AcDbRegAppTableRecord
  2
ACAD
 70
0
  0
ENDTAB
  0
TABLE
  2
BLOCK_RECORD
  5
1
100
AcDbSymbolTable
 70
0
  0
BLOCK_RECORD
  5
212
100
AcDbSymbolTableRecord
100
AcDbBlockTableRecord
  2
*Model_Space
  0
BLOCK_RECORD
  5
213
100
AcDbSymbolTableRecord
100
AcDbBlockTableRecord
  2
*Paper_Space
  0
BLOCK_RECORD
  5
214
100
AcDbSymbolTableRecord
100
AcDbBlockTableRecord
  2
_FILLED
  0
ENDTAB
  0
TABLE
  2
DIMSTYLE
  5
A
100
AcDbSymbolTable
 70
1
100
AcDbDimStyleTable
 71
0
  0
DIMSTYLE
105
215
100
AcDbSymbolTableRecord
100
AcDbDimStyleTableRecord
  2
STANDARD
 70
0
  3

  4

 40
1.0
 41
0.9354946313
 42
1.0
 43
0.38
 44
1.0
 45
0.0
 46
0.0
 47
0.01
 48
0.01
140
1.3096924838
141
0.09
142
0.0
143
25.4
144
1.0
145
0.0
146
1.0
147
0.625
 71
1
 72
0
 73
0
 74
0
 75
0
 76
0
 77
1
 78
8
 79
2
170
0
171
1
172
0
173
0
174
0
175
0
176
0
177
0
178
0
270
2
179
2
271
2
272
2
273
2
274
2
275
0
280
0
281
0
282
0
283
1
284
8
285
0
286
0
287
3
288
0
340
11
278
46
341
214
342
214
343
214
344
214
  0
ENDTAB
  0
ENDSEC
  0
SECTION
  2
BLOCKS
  0
BLOCK
  5
20
100
AcDbEntity
  8
0
100
AcDbBlockBegin
  2
*Model_Space
 70
0
 10
0.0
 20
0.0
 30
0.0
  3
*Model_Space
  1

  0
ENDBLK
  5
21
100
AcDbEntity
  8
0
100
AcDbBlockEnd
  0
BLOCK
  5
1C
100
AcDbEntity
  8
0
100
AcDbBlockBegin
  2
*Paper_Space
 70
0
 10
0.0
 20
0.0
 30
0.0
  3
*Paper_Space
  1

  0
ENDBLK
  5
1D
100
AcDbEntity
  8
0
100
AcDbBlockEnd
  0
BLOCK
  5
216
100
AcDbEntity
  8
0
100
AcDbBlockBegin
  2
_FILLED
 70
64
 10
0.0
 20
0.0
  3
_FILLED
  1

  0
SOLID
  5
217
100
AcDbEntity
  8
0
  6
BYBLOCK
 62
0
100
AcDbTrace
 10
0.0
 20
0.0
 11
-1.0
 21
0.25
 12
-1.0
 22
-0.25
 13
-1.0
 23
-0.25
  0
ENDBLK
  5
218
100
AcDbEntity
  8
0
  6
BYBLOCK
 62
0
100
AcDbBlockEnd
  0
ENDSEC
  0
SECTION
  2
ENTITIES
  0
LINE
  5
219
100
AcDbEntity
  8
0
100
AcDbLine
 62
7
  6
CONTINUOUS
 10
28.4813188794
 20
8.5776695656
 11
21.834487463
 21
12.4151326581
  0
LINE
  5
21A
100
AcDbEntity
  8
0
100
AcDbLine
 62
7
  6
CONTINUOUS
 10
23.1073803528
 20
15.6977748338
 11
10.3794053002
 21
23.0461084151
  0
LINE
  5
21B
100
AcDbEntity
  8
0
100
AcDbLine
 62
7
  6
CONTINUOUS
 10
22.3649160246
 20
19.4577601142
 11
16.7080382234
 21
22.7236861504
  0
LINE
  5
21C
100
AcDbEntity
  8
0
100
AcDbLine
 62
7
  6
CONTINUOUS
 10
16.778749196
 20
22.7645123166
 11
22.2942050521
 21
19.5802344314
  0
LINE
  5
21D
100
AcDbEntity
  8
0
100
AcDbLine
 62
7
  6
CONTINUOUS
 10
22.2942050521
 20
21.10596975
 11
16.9444390525
 21
24.1945887161
  0
LINE
  5
21E
100
AcDbEntity
  8
0
100
AcDbLine
 62
7
  6
CONTINUOUS
 10
25.5256537475
 20
19.6904349815
 11
26.3742000808
 21
19.2005376106
  0
LINE
  5
21F
100
AcDbEntity
  8
0
100
AcDbLine
 62
7
  6
CONTINUOUS
 10
28.4813188794
 20
18.3756985711
 11
34.5624625157
 21
14.8648280823
  0
LINE
  5
220
100
AcDbEntity
  8
0
100
AcDbLine
 62
7
  6
CONTINUOUS
 10
17.1054537538
 20
25.3414896435
 11
22.2942050521
 21
22.3458304555
  0
LINE
  5
221
100
AcDbEntity
  8
0
100
AcDbLine
 62
7
  6
CONTINUOUS
 10
22.2942050521
 20
23.1728450668
 11
16.778749196
 21
26.357122952
  0
LINE
  5
222
100
AcDbEntity
  8
0
100
AcDbLine
 62
7
  6
CONTINUOUS
 10
16.7080382234
 20
26.4795972692
 11
22.3649160246
 21
23.213671233
  0
LINE
  5
223
100
AcDbEntity
  8
0
100
AcDbLine
 62
7
  6
CONTINUOUS
 10
16.814103799
 20
26.5408338923
 11
22.4709816002
 21
23.2749078561
  0
LINE
  5
224
100
AcDbEntity
  8
0
100
AcDbLine
 62
7
  6
CONTINUOUS
 10
50.7808804514
 20
102.1517321447
 11
43.7995542299
 21
98.1206269355
  0
LINE
  5
225
100
AcDbEntity
  8
0
100
AcDbLine
 62
7
  6
CONTINUOUS
 10
21.2641549379
 20
85.1083263888
 11
25.340888883
 21
87.4622734137
  0
LINE
  5
226
100
AcDbEntity
  8
INTFCLR_74
100
AcDbLine
 62
7
420
48875
  6
CONTINUOUS
 10
21.8317574856
 20
83.4492668045
 11
55.5093644178
 21
102.8929261695
  0
LINE
  5
227
100
AcDbEntity
  8
0
100
AcDbLine
 62
7
  6
CONTINUOUS
 10
21.8731797433
 20
83.3746348749
 11
23.34451216
 21
84.2242057816
  0
LINE
  5
228
100
AcDbEntity
  8
0
100
AcDbLine
 62
7
  6
CONTINUOUS
 10
27.2413878616
 20
86.4743242359
 11
45.879911452
 21
97.2365063284
  0
LINE
  5
229
100
AcDbEntity
  8
0
100
AcDbLine
 62
7
  6
CONTINUOUS
 10
52.6813797776
 20
101.1637830926
 11
55.5566762319
 21
102.8240253248
  0
LINE
  5
22A
100
AcDbEntity
  8
0
100
AcDbLine
 62
7
  6
CONTINUOUS
 10
23.4401339039
 20
84.2135121325
 11
21.9741188413
 21
83.3670763909
  0
LINE
  5
22B
100
AcDbEntity
  8
0
100
AcDbLine
 62
7
  6
CONTINUOUS
 10
45.975074881
 20
97.2245471869
 11
27.3016139254
 21
86.4430165157
  0
LINE
  5
22C
100
AcDbEntity
  8
0
100
AcDbLine
 62
7
  6
CONTINUOUS
 10
55.6510193989
 20
102.8111827203
 11
52.7426192553
 21
101.1319485726
  0
LINE
  5
22D
100
AcDbEntity
  8
0
100
AcDbLine
 62
7
  6
CONTINUOUS
 10
40.2899529609
 20
15.3953469352
 11
46.3710965972
 21
11.8844764464
  0
LINE
  5
22E
100
AcDbEntity
  8
0
100
AcDbLine
 62
7
  6
CONTINUOUS
 10
10.3794053002
 20
59.6335817267
 11
10.3794053002
 21
23.0461084151
  0
LINE
  5
22F
100
AcDbEntity
  8
INTFCLR_74
100
AcDbLine
 62
7
420
48875
  6
CONTINUOUS
 10
10.3794053002
 20
23.0461084151
 11
10.3794053002
 21
59.6335817267
  0
LINE
  5
230
100
AcDbEntity
  8
0
100
AcDbLine
 62
7
  6
CONTINUOUS
 10
28.3752020788
 20
86.6555619358
 11
30.4965135905
 21
87.8802943974
  0
LINE
  5
231
100
AcDbEntity
  8
0
100
AcDbLine
 62
7
  6
CONTINUOUS
 10
21.9372990674
 20
82.7276194215
 11
22.0125371014
 21
82.7710597563
  0
LINE
  5
232
100
AcDbEntity
  8
0
100
AcDbLine
 62
7
  6
CONTINUOUS
 10
49.0085721814
 20
16.1833228136
 11
49.8571185146
 21
15.6934254426
  0
LINE
  5
233
100
AcDbEntity
  8
0
100
AcDbLine
 62
7
  6
CONTINUOUS
 10
21.9852230479
 20
82.8573391051
 11
21.9372990674
 21
82.7276194215
  0
LINE
  5
234
100
AcDbEntity
  8
0
100
AcDbLine
 62
7
  6
CONTINUOUS
 10
21.983844959
 20
81.7506439646
 11
22.0635052689
 21
81.9574060504
  0
LINE
  5
235
100
AcDbEntity
  8
0
100
AcDbLine
 62
7
  6
CONTINUOUS
 10
21.8318770935
 20
81.3290347305
 11
21.9924079823
 21
81.7457002127
  0
LINE
  5
236
100
AcDbEntity
  8
0
100
AcDbLine
 62
7
  6
CONTINUOUS
 10
36.0826804191
 20
84.6551924367
 11
33.9613689075
 21
83.4304599751
  0
LINE
  5
237
100
AcDbEntity
  8
0
100
AcDbLine
 62
7
  6
CONTINUOUS
 10
28.478588902
 20
79.611803712
 11
40.2899529609
 21
86.4310572255
  0
LINE
  5
238
100
AcDbEntity
  8
0
100
AcDbLine
 62
7
  6
CONTINUOUS
 10
45.4164557807
 20
89.3908273411
 11
47.5377672923
 21
90.6155598027
  0
LINE
  5
239
100
AcDbEntity
  8
0
100
AcDbLine
 62
7
  6
CONTINUOUS
 10
16.7080382234
 20
22.7236861504
 11
16.7080382234
 21
26.4795972692
  0
LINE
  5
23A
100
AcDbEntity
  8
0
100
AcDbLine
 62
7
  6
CONTINUOUS
 10
16.778749196
 20
26.357122952
 11
16.778749196
 21
22.7645123166
  0
LINE
  5
23B
100
AcDbEntity
  8
0
100
AcDbLine
 62
7
  6
CONTINUOUS
 10
47.5802224302
 20
25.189358725
 11
48.4287687635
 21
24.6994613541
  0
LINE
  5
23C
100
AcDbEntity
  8
0
100
AcDbLine
 62
7
  6
CONTINUOUS
 10
21.2641549379
 20
83.4834865758
 11
21.2641549379
 21
85.1083263888
  0
LINE
  5
23D
100
AcDbEntity
  8
0
100
AcDbLine
 62
7
  6
CONTINUOUS
 10
21.3682925787
 20
83.2755262047
 11
21.3682925787
 21
85.168448588
  0
LINE
  5
23E
100
AcDbEntity
  8
0
100
AcDbLine
 62
7
  6
CONTINUOUS
 10
21.8317668604
 20
83.2830831774
 11
21.8317739992
 21
83.1565380269
  0
LINE
  5
23F
100
AcDbEntity
  8
0
100
AcDbLine
 62
7
  6
CONTINUOUS
 10
21.8318770935
 20
81.3290347305
 11
21.8327247367
 21
66.3032679094
  0
LINE
  5
240
100
AcDbEntity
  8
INTFCLR_74
100
AcDbLine
 62
7
420
48875
  6
CONTINUOUS
 10
21.8327247367
 20
66.3032679094
 11
21.8317574856
 21
83.4492668045
  0
LINE
  5
241
100
AcDbEntity
  8
0
100
AcDbLine
 62
7
  6
CONTINUOUS
 10
21.834487463
 20
16.4326632609
 11
21.834487463
 21
12.4151326581
  0
LINE
  5
242
100
AcDbEntity
  8
INTFCLR_74
100
AcDbLine
 62
7
420
48875
  6
CONTINUOUS
 10
21.834487463
 20
12.4151326581
 11
21.834487463
 21
16.4326632609
  0
LINE
  5
243
100
AcDbEntity
  8
0
100
AcDbLine
 62
7
  6
CONTINUOUS
 10
21.8327247367
 20
66.3032679094
 11
10.3794053002
 21
59.6335817267
  0
LINE
  5
244
100
AcDbEntity
  8
INTFCLR_74
100
AcDbLine
 62
7
420
48875
  6
CONTINUOUS
 10
10.3794053002
 20
59.6335817267
 11
21.8327247367
 21
66.3032679094
  0
LINE
  5
245
100
AcDbEntity
  8
0
100
AcDbLine
 62
7
  6
CONTINUOUS
 10
53.123934121
 20
87.390457842
 11
51.0026226094
 21
86.1657253804
  0
LINE
  5
246
100
AcDbEntity
  8
0
100
AcDbLine
 62
7
  6
CONTINUOUS
 10
68.2373394704
 20
95.5445925881
 11
46.3710965972
 21
82.9201867366
  0
LINE
  5
247
100
AcDbEntity
  8
0
100
AcDbLine
 62
7
  6
CONTINUOUS
 10
46.8024299379
 20
81.3729103528
 11
49.8571185146
 21
83.1365250975
  0
LINE
  5
248
100
AcDbEntity
  8
0
100
AcDbLine
 62
7
  6
CONTINUOUS
 10
22.2942050521
 20
19.5802344314
 11
22.2942050521
 21
23.1728450668
  0
LINE
  5
249
100
AcDbEntity
  8
0
100
AcDbLine
 62
7
  6
CONTINUOUS
 10
22.3649160246
 20
23.213671233
 11
22.3649160246
 21
19.4577601142
  0
LINE
  5
24A
100
AcDbEntity
  8
0
100
AcDbLine
 62
7
  6
CONTINUOUS
 10
22.4709816002
 20
23.2749078561
 11
22.4709816002
 21
19.5189967373
  0
LINE
  5
24B
100
AcDbEntity
  8
0
100
AcDbLine
 62
7
  6
CONTINUOUS
 10
23.1073803528
 20
52.2852481453
 11
23.1073803528
 21
15.6977748338
  0
LINE
  5
24C
100
AcDbEntity
  8
0
100
AcDbLine
 62
7
  6
CONTINUOUS
 10
23.9700470342
 20
17.8125074874
 11
23.9700470342
 21
18.792310388
  0
LINE
  5
24D
100
AcDbEntity
  8
0
100
AcDbLine
 62
7
  6
CONTINUOUS
 10
49.8571185146
 20
82.156722197
 11
46.8024299379
 21
80.3931074523
  0
LINE
  5
24E
100
AcDbEntity
  8
0
100
AcDbLine
 62
7
  6
CONTINUOUS
 10
28.4791416167
 20
69.8140938146
 11
40.2899529609
 21
76.63302822
  0
LINE
  5
24F
100
AcDbEntity
  8
0
100
AcDbLine
 62
7
  6
CONTINUOUS
 10
64.3315340624
 20
87.5169161559
 11
65.1800586671
 21
88.0068091405
  0
LINE
  5
250
100
AcDbEntity
  8
0
100
AcDbLine
 62
7
  6
CONTINUOUS
 10
61.0788546448
 20
23.8869099879
 11
61.2909875624
 21
23.7644377616
  0
LINE
  5
251
100
AcDbEntity
  8
0
100
AcDbLine
 62
7
  6
CONTINUOUS
 10
25.9570088168
 20
50.4031816434
 11
25.9570088168
 21
51.382984544
  0
LINE
  5
252
100
AcDbEntity
  8
0
100
AcDbLine
 62
7
  6
CONTINUOUS
 10
26.3742000808
 20
20.1803405111
 11
26.3742000808
 21
19.2005376106
  0
LINE
  5
253
100
AcDbEntity
  8
0
100
AcDbLine
 62
7
  6
CONTINUOUS
 10
28.4791416167
 20
69.8140938146
 11
28.478588902
 21
79.611803712
  0
LINE
  5
254
100
AcDbEntity
  8
0
100
AcDbLine
 62
7
  6
CONTINUOUS
 10
28.4813188794
 20
18.3756985711
 11
28.4813188794
 21
8.5776695656
  0
LINE
  5
255
100
AcDbEntity
  8
0
100
AcDbLine
 62
7
  6
CONTINUOUS
 10
46.3710965972
 20
73.1221577311
 11
34.560285253
 21
66.3032233257
  0
LINE
  5
256
100
AcDbEntity
  8
0
100
AcDbLine
 62
7
  6
CONTINUOUS
 10
65.1800586671
 20
83.0914645894
 11
64.3315340624
 21
82.6015716047
  0
LINE
  5
257
100
AcDbEntity
  8
0
100
AcDbLine
 62
7
  6
CONTINUOUS
 10
37.4333040948
 20
66.8923334597
 11
38.2818286994
 21
67.3822264444
  0
LINE
  5
258
100
AcDbEntity
  8
0
100
AcDbLine
 62
7
  6
CONTINUOUS
 10
64.1194029112
 20
25.3974143771
 11
63.9072699937
 21
25.5198866034
  0
LINE
  5
259
100
AcDbEntity
  8
0
100
AcDbLine
 62
7
  6
CONTINUOUS
 10
33.9543532157
 20
42.9198321122
 11
34.8028778203
 21
42.429947286
  0
LINE
  5
25A
100
AcDbEntity
  8
0
100
AcDbLine
 62
7
  6
CONTINUOUS
 10
23.1073803528
 20
52.2852481453
 11
10.3794053002
 21
59.6335817267
  0
LINE
  5
25B
100
AcDbEntity
  8
0
100
AcDbLine
 62
7
  6
CONTINUOUS
 10
30.2208449552
 20
53.8446967919
 11
30.2208449552
 21
52.8648938913
  0
LINE
  5
25C
100
AcDbEntity
  8
0
100
AcDbLine
 62
7
  6
CONTINUOUS
 10
30.4965135905
 20
85.4308498702
 11
30.4965135905
 21
87.8802943974
  0
LINE
  5
25D
100
AcDbEntity
  8
0
100
AcDbLine
 62
7
  6
CONTINUOUS
 10
38.2818286994
 20
64.9245541688
 11
37.4333040948
 21
64.4346611841
  0
LINE
  5
25E
100
AcDbEntity
  8
0
100
AcDbLine
 62
7
  6
CONTINUOUS
 10
66.0285815053
 20
29.1941263164
 11
66.2407144229
 21
29.0716540901
  0
LINE
  5
25F
100
AcDbEntity
  8
0
100
AcDbLine
 62
7
  6
CONTINUOUS
 10
29.3722986219
 20
53.3547912623
 11
30.2208449552
 21
52.8648938913
  0
LINE
  5
260
100
AcDbEntity
  8
0
100
AcDbLine
 62
7
  6
CONTINUOUS
 10
33.9543532157
 20
41.9400543013
 11
33.9543532157
 21
44.4058916011
  0
LINE
  5
261
100
AcDbEntity
  8
0
100
AcDbLine
 62
7
  6
CONTINUOUS
 10
34.560285253
 20
66.3032233257
 11
34.5606997894
 21
58.954934328
  0
LINE
  5
262
100
AcDbEntity
  8
0
100
AcDbLine
 62
7
  6
CONTINUOUS
 10
34.5624625157
 20
22.213525239
 11
34.5624625157
 21
14.8648280823
  0
LINE
  5
263
100
AcDbEntity
  8
0
100
AcDbLine
 62
7
  6
CONTINUOUS
 10
34.8028778203
 20
44.8957845857
 11
34.8028778203
 21
42.429947286
  0
LINE
  5
264
100
AcDbEntity
  8
0
100
AcDbLine
 62
7
  6
CONTINUOUS
 10
23.1073803528
 20
52.2852481453
 11
34.5606997894
 21
58.954934328
  0
LINE
  5
265
100
AcDbEntity
  8
0
100
AcDbLine
 62
7
  6
CONTINUOUS
 10
65.3480860265
 20
74.4437337641
 11
69.4210041362
 21
76.7952200946
  0
LINE
  5
266
100
AcDbEntity
  8
0
100
AcDbLine
 62
7
  6
CONTINUOUS
 10
25.9570088168
 20
51.382984544
 11
30.2208449552
 21
53.8446967919
  0
LINE
  5
267
100
AcDbEntity
  8
0
100
AcDbLine
 62
7
  6
CONTINUOUS
 10
66.2407144229
 20
32.7459149671
 11
66.0285815053
 21
32.8683871935
  0
LINE
  5
268
100
AcDbEntity
  8
0
100
AcDbLine
 62
7
  6
CONTINUOUS
 10
21.3682925787
 20
83.2755262047
 11
21.2641549379
 21
83.4834865758
  0
LINE
  5
269
100
AcDbEntity
  8
0
100
AcDbLine
 62
7
  6
CONTINUOUS
 10
37.4333040948
 20
64.4346611841
 11
37.4333040948
 21
66.8923334597
  0
LINE
  5
26A
100
AcDbEntity
  8
0
100
AcDbLine
 62
7
  6
CONTINUOUS
 10
38.2818286994
 20
67.3822264444
 11
38.2818286994
 21
64.9245541688
  0
LINE
  5
26B
100
AcDbEntity
  8
0
100
AcDbLine
 62
7
  6
CONTINUOUS
 10
40.2899529609
 20
18.171576494
 11
40.2899529609
 21
15.3953469352
  0
LINE
  5
26C
100
AcDbEntity
  8
0
100
AcDbLine
 62
7
  6
CONTINUOUS
 10
40.2899529609
 20
76.63302822
 11
40.2899529609
 21
86.4310572255
  0
LINE
  5
26D
100
AcDbEntity
  8
0
100
AcDbLine
 62
7
  6
CONTINUOUS
 10
30.2208449552
 20
52.8648938913
 11
25.9570088168
 21
50.4031816434
  0
LINE
  5
26E
100
AcDbEntity
  8
0
100
AcDbLine
 62
7
  6
CONTINUOUS
 10
34.5606997894
 20
58.954934328
 11
21.8327247367
 21
66.3032679094
  0
LINE
  5
26F
100
AcDbEntity
  8
0
100
AcDbLine
 62
7
  6
CONTINUOUS
 10
43.7995542299
 20
96.4957871225
 11
43.7995542299
 21
98.1206269355
  0
LINE
  5
270
100
AcDbEntity
  8
0
100
AcDbLine
 62
7
  6
CONTINUOUS
 10
43.9036918707
 20
96.2878267515
 11
43.9036918707
 21
98.1807491347
  0
LINE
  5
271
100
AcDbEntity
  8
0
100
AcDbLine
 62
7
  6
CONTINUOUS
 10
17.5939759691
 20
25.8864622028
 11
17.1054537538
 21
25.3414896435
  0
LINE
  5
272
100
AcDbEntity
  8
0
100
AcDbLine
 62
7
  6
CONTINUOUS
 10
46.2933151751
 20
23.4665640094
 11
46.2933151751
 21
24.4463669099
  0
LINE
  5
273
100
AcDbEntity
  8
0
100
AcDbLine
 62
7
  6
CONTINUOUS
 10
46.3710965972
 20
21.6825054519
 11
46.3710965972
 21
11.8844764464
  0
LINE
  5
274
100
AcDbEntity
  8
0
100
AcDbLine
 62
7
  6
CONTINUOUS
 10
46.3710965972
 20
73.1221577311
 11
46.3710965972
 21
82.9201867366
  0
LINE
  5
275
100
AcDbEntity
  8
0
100
AcDbLine
 62
7
  6
CONTINUOUS
 10
46.8024299379
 20
13.9298106979
 11
46.8024299379
 21
14.9096135985
  0
LINE
  5
276
100
AcDbEntity
  8
0
100
AcDbLine
 62
7
  6
CONTINUOUS
 10
46.8024299379
 20
80.3931074523
 11
46.8024299379
 21
81.3729103528
  0
LINE
  5
277
100
AcDbEntity
  8
0
100
AcDbLine
 62
7
  6
CONTINUOUS
 10
47.5377672923
 20
88.1661152755
 11
47.5377672923
 21
90.6155598027
  0
LINE
  5
278
100
AcDbEntity
  8
0
100
AcDbLine
 62
7
  6
CONTINUOUS
 10
33.9543532157
 20
44.4058916011
 11
34.8028778203
 21
44.8957845857
  0
LINE
  5
279
100
AcDbEntity
  8
0
100
AcDbLine
 62
7
  6
CONTINUOUS
 10
69.4226816903
 20
44.464227658
 11
65.3495198572
 21
46.8156041171
  0
LINE
  5
27A
100
AcDbEntity
  8
0
100
AcDbLine
 62
7
  6
CONTINUOUS
 10
28.4791416167
 20
69.8140938146
 11
34.560285253
 21
66.3032233257
  0
LINE
  5
27B
100
AcDbEntity
  8
0
100
AcDbLine
 62
7
  6
CONTINUOUS
 10
37.4333040948
 20
65.414438995
 11
38.2818286994
 21
64.9245541688
  0
LINE
  5
27C
100
AcDbEntity
  8
0
100
AcDbLine
 62
7
  6
CONTINUOUS
 10
21.8124830965
 20
82.8076511599
 11
21.3682925787
 21
83.2755262047
  0
LINE
  5
27D
100
AcDbEntity
  8
0
100
AcDbLine
 62
7
  6
CONTINUOUS
 10
48.4287687635
 20
25.6792642546
 11
48.4287687635
 21
24.6994613541
  0
LINE
  5
27E
100
AcDbEntity
  8
0
100
AcDbLine
 62
7
  6
CONTINUOUS
 10
49.8571185146
 20
83.1365250975
 11
49.8571185146
 21
82.156722197
  0
LINE
  5
27F
100
AcDbEntity
  8
0
100
AcDbLine
 62
7
  6
CONTINUOUS
 10
49.8571185146
 20
16.6732283432
 11
49.8571185146
 21
15.6934254426
  0
LINE
  5
280
100
AcDbEntity
  8
0
100
AcDbLine
 62
7
  6
CONTINUOUS
 10
34.8028778203
 20
42.429947286
 11
33.9543532157
 21
41.9400543013
  0
LINE
  5
281
100
AcDbEntity
  8
0
100
AcDbLine
 62
7
  6
CONTINUOUS
 10
16.7080382234
 20
26.4795972692
 11
16.814103799
 21
26.5408338923
  0
LINE
  5
282
100
AcDbEntity
  8
0
100
AcDbLine
 62
7
  6
CONTINUOUS
 10
21.9924079823
 20
81.7457002127
 11
21.983844959
 21
81.7506439646
  0
LINE
  5
283
100
AcDbEntity
  8
0
100
AcDbLine
 62
7
  6
CONTINUOUS
 10
28.478588902
 20
79.611803712
 11
21.9741188413
 21
83.3670763909
  0
LINE
  5
284
100
AcDbEntity
  8
0
100
AcDbLine
 62
7
  6
CONTINUOUS
 10
21.8124830965
 20
82.8076511599
 11
21.9372990674
 21
82.7276194215
  0
LINE
  5
285
100
AcDbEntity
  8
0
100
AcDbLine
 62
7
  6
CONTINUOUS
 10
23.4401339039
 20
84.2135121325
 11
21.674820982
 21
85.3454270699
  0
LINE
  5
286
100
AcDbEntity
  8
0
100
AcDbLine
 62
7
  6
CONTINUOUS
 10
18.1000936311
 20
23.5273863282
 11
16.778749196
 21
22.7645123166
  0
LINE
  5
287
100
AcDbEntity
  8
0
100
AcDbLine
 62
7
  6
CONTINUOUS
 10
40.2899529609
 20
76.63302822
 11
46.3710965972
 21
73.1221577311
  0
LINE
  5
288
100
AcDbEntity
  8
0
100
AcDbLine
 62
7
  6
CONTINUOUS
 10
59.1696760507
 20
24.9892125513
 11
59.1696760507
 21
28.6634734284
  0
LINE
  5
289
100
AcDbEntity
  8
0
100
AcDbLine
 62
7
  6
CONTINUOUS
 10
22.3649160246
 20
23.213671233
 11
22.4709816002
 21
23.2749078561
  0
LINE
  5
28A
100
AcDbEntity
  8
0
100
AcDbLine
 62
7
  6
CONTINUOUS
 10
22.3649160246
 20
19.4577601142
 11
22.4709816002
 21
19.5189967373
  0
LINE
  5
28B
100
AcDbEntity
  8
0
100
AcDbLine
 62
7
  6
CONTINUOUS
 10
25.340888883
 20
87.4622734137
 11
27.3016139254
 21
86.4430165157
  0
LINE
  5
28C
100
AcDbEntity
  8
0
100
AcDbLine
 62
7
  6
CONTINUOUS
 10
33.9613689075
 20
83.4304599751
 11
28.3752020788
 21
86.6555619358
  0
LINE
  5
28D
100
AcDbEntity
  8
0
100
AcDbLine
 62
7
  6
CONTINUOUS
 10
43.9036918707
 20
96.2878267515
 11
43.7995542299
 21
96.4957871225
  0
LINE
  5
28E
100
AcDbEntity
  8
INTFCLR_74
100
AcDbLine
 62
7
420
48875
  6
CONTINUOUS
 10
55.5093644178
 20
102.8929261695
 11
55.5190347674
 21
102.8190942351
  0
LINE
  5
28F
100
AcDbEntity
  8
0
100
AcDbLine
 62
7
  6
CONTINUOUS
 10
64.3315340624
 20
82.6015716047
 11
64.3315340624
 21
87.5169161559
  0
LINE
  5
290
100
AcDbEntity
  8
0
100
AcDbLine
 62
7
  6
CONTINUOUS
 10
65.1800586671
 20
88.0068091405
 11
65.1800586671
 21
83.0914645894
  0
LINE
  5
291
100
AcDbEntity
  8
0
100
AcDbLine
 62
7
  6
CONTINUOUS
 10
65.3496792573
 20
43.7441627268
 11
65.3480860265
 21
74.4437337641
  0
LINE
  5
292
100
AcDbEntity
  8
0
100
AcDbLine
 62
7
  6
CONTINUOUS
 10
66.0285815053
 20
32.8683871935
 11
66.0285815053
 21
29.1941263164
  0
LINE
  5
293
100
AcDbEntity
  8
0
100
AcDbLine
 62
7
  6
CONTINUOUS
 10
66.2407144229
 20
32.7459149671
 11
66.2407144229
 21
29.0716540901
  0
LINE
  5
294
100
AcDbEntity
  8
0
100
AcDbLine
 62
7
  6
CONTINUOUS
 10
68.0095838549
 20
45.2798501954
 11
65.3496792573
 21
43.7441627268
  0
LINE
  5
295
100
AcDbEntity
  8
0
100
AcDbLine
 62
7
  6
CONTINUOUS
 10
23.9700470342
 20
18.792310388
 11
26.3742000808
 21
20.1803405111
  0
LINE
  5
296
100
AcDbEntity
  8
0
100
AcDbLine
 62
7
  6
CONTINUOUS
 10
26.3742000808
 20
19.2005376106
 11
23.9700470342
 21
17.8125074874
  0
LINE
  5
297
100
AcDbEntity
  8
0
100
AcDbLine
 62
7
  6
CONTINUOUS
 10
23.3445141114
 20
84.2242021611
 11
23.4401339039
 21
84.2123505479
  0
LINE
  5
298
100
AcDbEntity
  8
0
100
AcDbLine
 62
7
  6
CONTINUOUS
 10
30.4965135905
 20
87.8802943974
 11
36.0826804191
 21
84.6551924367
  0
LINE
  5
299
100
AcDbEntity
  8
0
100
AcDbLine
 62
7
  6
CONTINUOUS
 10
69.4210041362
 20
76.7952200946
 11
69.4204998956
 21
86.5113077368
  0
LINE
  5
29A
100
AcDbEntity
  8
0
100
AcDbLine
 62
7
  6
CONTINUOUS
 10
69.4226816903
 20
25.1932358626
 11
69.4226816903
 21
44.464227658
  0
LINE
  5
29B
100
AcDbEntity
  8
0
100
AcDbLine
 62
7
  6
CONTINUOUS
 10
34.5624625157
 20
22.213525239
 11
23.1073803528
 21
15.6977748338
  0
LINE
  5
29C
100
AcDbEntity
  8
0
100
AcDbLine
 62
7
  6
CONTINUOUS
 10
40.2899529609
 20
86.4310572255
 11
46.3710965972
 21
82.9201867366
  0
LINE
  5
29D
100
AcDbEntity
  8
0
100
AcDbLine
 62
7
  6
CONTINUOUS
 10
49.0085721814
 20
82.646619568
 11
49.8571185146
 21
82.156722197
  0
LINE
  5
29E
100
AcDbEntity
  8
0
100
AcDbLine
 62
7
  6
CONTINUOUS
 10
46.2933151751
 20
24.4463669099
 11
48.4287687635
 21
25.6792642546
  0
LINE
  5
29F
100
AcDbEntity
  8
0
100
AcDbLine
 62
7
  6
CONTINUOUS
 10
48.4287687635
 20
24.6994613541
 11
46.2933151751
 21
23.4665640094
  0
LINE
  5
2A0
100
AcDbEntity
  8
0
100
AcDbLine
 62
7
  6
CONTINUOUS
 10
46.3710965972
 20
21.6825054519
 11
34.5624625157
 21
14.8648280823
  0
LINE
  5
2A1
100
AcDbEntity
  8
0
100
AcDbLine
 62
7
  6
CONTINUOUS
 10
51.0026226094
 20
86.1657253804
 11
45.4164557807
 21
89.3908273411
  0
LINE
  5
2A2
100
AcDbEntity
  8
0
100
AcDbLine
 62
7
  6
CONTINUOUS
 10
44.0216883996
 20
96.163538571
 11
43.9036918707
 21
96.2878267515
  0
LINE
  5
2A3
100
AcDbEntity
  8
0
100
AcDbLine
 62
7
  6
CONTINUOUS
 10
68.2373394704
 20
95.5445925881
 11
69.4204998956
 21
86.5113077368
  0
LINE
  5
2A4
100
AcDbEntity
  8
0
100
AcDbLine
 62
7
  6
CONTINUOUS
 10
40.2899529609
 20
15.3953469352
 11
28.4813188794
 21
8.5776695656
  0
LINE
  5
2A5
100
AcDbEntity
  8
0
100
AcDbLine
 62
7
  6
CONTINUOUS
 10
47.5377672923
 20
90.6155598027
 11
53.123934121
 21
87.390457842
  0
LINE
  5
2A6
100
AcDbEntity
  8
0
100
AcDbLine
 62
7
  6
CONTINUOUS
 10
64.3315340624
 20
83.5813494156
 11
65.1800586671
 21
83.0914645894
  0
LINE
  5
2A7
100
AcDbEntity
  8
0
100
AcDbLine
 62
7
  6
CONTINUOUS
 10
63.9072699937
 20
25.5198866034
 11
61.0788546448
 21
23.8869099879
  0
LINE
  5
2A8
100
AcDbEntity
  8
0
100
AcDbLine
 62
7
  6
CONTINUOUS
 10
64.1194029112
 20
25.3974143771
 11
61.2909875624
 21
23.7644377616
  0
LINE
  5
2A9
100
AcDbEntity
  8
0
100
AcDbLine
 62
7
  6
CONTINUOUS
 10
46.8024299379
 20
14.9096135985
 11
49.8571185146
 21
16.6732283432
  0
LINE
  5
2AA
100
AcDbEntity
  8
0
100
AcDbLine
 62
7
  6
CONTINUOUS
 10
49.8571185146
 20
15.6934254426
 11
46.8024299379
 21
13.9298106979
  0
LINE
  5
2AB
100
AcDbEntity
  8
0
100
AcDbLine
 62
7
  6
CONTINUOUS
 10
46.3710965972
 20
11.8844764464
 11
69.4226816903
 21
25.1932358626
  0
LINE
  5
2AC
100
AcDbEntity
  8
0
100
AcDbLine
 62
7
  6
CONTINUOUS
 10
45.975074881
 20
97.2245471869
 11
44.2089405993
 21
98.3569887785
  0
LINE
  5
2AD
100
AcDbEntity
  8
0
100
AcDbLine
 62
7
  6
CONTINUOUS
 10
45.8799117964
 20
97.2365056878
 11
45.975074881
 21
97.2240355667
  0
LINE
  5
2AE
100
AcDbEntity
  8
0
100
AcDbLine
 62
7
  6
CONTINUOUS
 10
50.7808804514
 20
102.1517321447
 11
52.7426192553
 21
101.1319485726
  0
LINE
  5
2AF
100
AcDbEntity
  8
0
100
AcDbLine
 62
7
  6
CONTINUOUS
 10
68.2373394704
 20
95.5445925881
 11
55.6510138445
 21
102.810946034
  0
LINE
  5
2B0
100
AcDbEntity
  8
0
100
AcDbLine
 62
7
  6
CONTINUOUS
 10
55.5566768024
 20
102.8240245088
 11
55.6510138445
 21
102.810946034
  0
ARC
  5
2B1
100
AcDbEntity
  8
0
100
AcDbCircle
 62
7
  6
CONTINUOUS
 10
43.9683608245
 20
79.3884703548
 40
3.0773648031
100
AcDbArc
 50
180.0209575306
 51
184.0812434342
  0
ARC
  5
2B2
100
AcDbEntity
  8
0
100
AcDbCircle
 62
7
  6
CONTINUOUS
 10
64.1457806929
 20
33.6930649821
 40
1.6917259971
100
AcDbArc
 50
48.9727253394
 51
55.788152231
  0
ARC
  5
2B3
100
AcDbEntity
  8
0
100
AcDbCircle
 62
7
  6
CONTINUOUS
 10
60.0939679365
 20
24.6406335137
 40
1.0392690719
100
AcDbArc
 50
247.0963862154
 51
253.3497660521
  0
SPLINE
  5
2B4
100
AcDbEntity
  8
0
100
AcDbSpline
 62
7
  6
CONTINUOUS
 70
0
 71
3
 72
13
 73
9
 74
0
 42
0.0000001
 43
0.0000001
 44
0.0000000001
 40
0.0
 40
0.0
 40
0.0
 40
0.0
 40
0.1080945663
 40
0.2182336992
 40
0.3322575376
 40
0.4516857461
 40
0.7106228288
 40
1.0
 40
1.0
 40
1.0
 40
1.0
 10
65.2051344426
 20
35.0348138762
 30
0.0
 10
65.1231611123
 20
35.0821401342
 30
0.0
 10
64.9491304927
 20
35.1636910959
 30
0.0
 10
64.6674894785
 20
35.2414721804
 30
0.0
 10
64.367298617
 20
35.2750043937
 30
0.0
 10
63.9350738787
 20
35.2599913652
 30
0.0
 10
63.3607998862
 20
35.1216078978
 30
0.0
 10
62.9246430132
 20
34.9139037599
 30
0.0
 10
62.7051952368
 20
34.7872062834
 30
0.0
  0
SPLINE
  5
2B5
100
AcDbEntity
  8
0
100
AcDbSpline
 62
7
  6
CONTINUOUS
 70
0
 71
3
 72
12
 73
8
 74
0
 42
0.0000001
 43
0.0000001
 44
0.0000000001
 40
0.0
 40
0.0
 40
0.0
 40
0.0
 40
0.1081612829
 40
0.2183679652
 40
0.4513459464
 40
0.710442713
 40
1.0
 40
1.0
 40
1.0
 40
1.0
 10
26.6724788611
 20
14.529653226
 30
0.0
 10
26.7233075355
 20
14.5589951847
 30
0.0
 10
26.8210543154
 20
14.6271731806
 30
0.0
 10
26.9963140817
 20
14.7996353637
 30
0.0
 10
27.1699964322
 20
15.0826438687
 30
0.0
 10
27.2907501644
 20
15.4929154691
 30
0.0
 10
27.3145878329
 20
15.7916810135
 30
0.0
 10
27.3145878329
 20
15.9487990557
 30
0.0
  0
SPLINE
  5
2B6
100
AcDbEntity
  8
0
100
AcDbSpline
 62
7
  6
CONTINUOUS
 70
0
 71
3
 72
12
 73
8
 74
0
 42
0.0000001
 43
0.0000001
 44
0.0000000001
 40
0.0
 40
0.0
 40
0.0
 40
0.0
 40
0.1081670684
 40
0.2183738064
 40
0.4513304481
 40
0.7104833493
 40
1.0
 40
1.0
 40
1.0
 40
1.0
 10
26.6703285895
 20
72.1690575709
 30
0.0
 10
26.7211569
 20
72.1983906239
 30
0.0
 10
26.8188534575
 20
72.2666206853
 30
0.0
 10
26.994091158
 20
72.439036882
 30
0.0
 10
27.1677338161
 20
72.7220511035
 30
0.0
 10
27.2883974636
 20
73.1322810043
 30
0.0
 10
27.3122445297
 20
73.4310118339
 30
0.0
 10
27.3122356687
 20
73.5880866639
 30
0.0
  0
SPLINE
  5
2B7
100
AcDbEntity
  8
0
100
AcDbSpline
 62
7
  6
CONTINUOUS
 70
0
 71
3
 72
12
 73
8
 74
0
 42
0.0000001
 43
0.0000001
 44
0.0000000001
 40
0.0
 40
0.0
 40
0.0
 40
0.0
 40
0.1081670941
 40
0.218373759
 40
0.4513300822
 40
0.7105018742
 40
1.0
 40
1.0
 40
1.0
 40
1.0
 10
44.6330745056
 20
75.4371541507
 30
0.0
 10
44.6839016451
 20
75.4664957848
 30
0.0
 10
44.7815864353
 20
75.534751065
 30
0.0
 10
44.9568650987
 20
75.7071417633
 30
0.0
 10
45.1305270348
 20
75.9901855258
 30
0.0
 10
45.2512003158
 20
76.4004333789
 30
0.0
 10
45.275076524
 20
76.6991785281
 30
0.0
 10
45.275076524
 20
76.856252037
 30
0.0
  0
SPLINE
  5
2B8
100
AcDbEntity
  8
0
100
AcDbSpline
 62
7
  6
CONTINUOUS
 70
0
 71
3
 72
12
 73
8
 74
0
 42
0.0000001
 43
0.0000001
 44
0.0000000001
 40
0.0
 40
0.0
 40
0.0
 40
0.0
 40
0.1081833788
 40
0.2183976232
 40
0.4513653688
 40
0.7105423528
 40
1.0
 40
1.0
 40
1.0
 40
1.0
 10
44.632975871
 20
17.7947972432
 30
0.0
 10
44.6838100594
 20
17.8241522092
 30
0.0
 10
44.7815087168
 20
17.8924201834
 30
0.0
 10
44.9568490186
 20
18.0648003535
 30
0.0
 10
45.1305108385
 20
18.3478929475
 30
0.0
 10
45.2511975841
 20
18.7581481027
 30
0.0
 10
45.275076524
 20
19.0568954088
 30
0.0
 10
45.275076524
 20
19.2139574841
 30
0.0
  0
SPLINE
  5
2B9
100
AcDbEntity
  8
0
100
AcDbSpline
 62
7
  6
CONTINUOUS
 70
0
 71
3
 72
15
 73
11
 74
0
 42
0.0000001
 43
0.0000001
 44
0.0000000001
 40
0.0
 40
0.0
 40
0.0
 40
0.0
 40
0.1141462769
 40
0.2373347432
 40
0.3669750849
 40
0.4999983967
 40
0.6330219315
 40
0.7626629244
 40
0.8858524171
 40
1.0
 40
1.0
 40
1.0
 40
1.0
 10
62.7051952368
 20
34.7872062834
 30
0.0
 10
62.4631780295
 20
34.6474784177
 30
0.0
 10
61.9851181476
 20
34.312323275
 30
0.0
 10
61.3272943734
 20
33.6969485027
 30
0.0
 10
60.7211499514
 20
32.9694252486
 30
0.0
 10
60.1893722228
 20
32.1572458755
 30
0.0
 10
59.7518966528
 20
31.2906196059
 30
0.0
 10
59.4249173353
 20
30.4019158213
 30
0.0
 10
59.2208996095
 20
29.5245287563
 30
0.0
 10
59.1696760507
 20
28.9429336083
 30
0.0
 10
59.1696760507
 20
28.6634734284
 30
0.0
  0
SPLINE
  5
2BA
100
AcDbEntity
  8
0
100
AcDbSpline
 62
7
  6
CONTINUOUS
 70
0
 71
3
 72
11
 73
7
 74
0
 42
0.0000001
 43
0.0000001
 44
0.0000000001
 40
0.0
 40
0.0
 40
0.0
 40
0.0
 40
0.2897042895
 40
0.5490907647
 40
0.7822174449
 40
1.0
 40
1.0
 40
1.0
 40
1.0
 10
59.1696760507
 20
24.9892125513
 30
0.0
 10
59.1696760507
 20
24.837207432
 30
0.0
 10
59.1927221354
 20
24.5481262156
 30
0.0
 10
59.3097962681
 20
24.1509441808
 30
0.0
 10
59.5069103384
 20
23.8286543645
 30
0.0
 10
59.6920605263
 20
23.6730002956
 30
0.0
 10
59.7910204976
 20
23.615867072
 30
0.0
  0
SPLINE
  5
2BB
100
AcDbEntity
  8
0
100
AcDbSpline
 62
7
  6
CONTINUOUS
 70
0
 71
3
 72
10
 73
6
 74
0
 42
0.0000001
 43
0.0000001
 44
0.0000000001
 40
0.0
 40
0.0
 40
0.0
 40
0.0
 40
0.2308365839
 40
0.47657648
 40
1.0
 40
1.0
 40
1.0
 40
1.0
 10
45.275076524
 20
19.2139574841
 30
0.0
 10
45.275076524
 20
19.3419309405
 30
0.0
 10
45.2577188102
 20
19.6063398843
 30
0.0
 10
45.1610464389
 20
20.1529510342
 30
0.0
 10
45.0237459872
 20
20.560123409
 30
0.0
 10
44.9086428329
 20
20.8264992546
 30
0.0
  0
SPLINE
  5
2BC
100
AcDbEntity
  8
0
100
AcDbSpline
 62
7
  6
CONTINUOUS
 70
0
 71
3
 72
10
 73
6
 74
0
 42
0.0000001
 43
0.0000001
 44
0.0000000001
 40
0.0
 40
0.0
 40
0.0
 40
0.0
 40
0.2295529774
 40
0.4755229802
 40
1.0
 40
1.0
 40
1.0
 40
1.0
 10
27.3145878329
 20
15.9487990557
 30
0.0
 10
27.3145878329
 20
16.0967191101
 30
0.0
 10
27.291410535
 20
16.4034213656
 30
0.0
 10
27.1637571919
 20
17.0360716761
 30
0.0
 10
26.984238227
 20
17.5040609121
 30
0.0
 10
26.8343850831
 20
17.806986282
 30
0.0
  0
SPLINE
  5
2BD
100
AcDbEntity
  8
0
100
AcDbSpline
 62
7
  6
CONTINUOUS
 70
0
 71
3
 72
9
 73
5
 74
0
 42
0.0000001
 43
0.0000001
 44
0.0000000001
 40
0.0
 40
0.0
 40
0.0
 40
0.0
 40
0.2322150643
 40
1.0
 40
1.0
 40
1.0
 40
1.0
 10
22.0635052689
 20
81.9574060504
 30
0.0
 10
22.0721551361
 20
81.9798571881
 30
0.0
 10
22.1038760855
 20
82.0786722045
 30
0.0
 10
22.1146635738
 20
82.1834133736
 30
0.0
 10
22.1146590862
 20
82.2629635481
 30
0.0
  0
SPLINE
  5
2BE
100
AcDbEntity
  8
0
100
AcDbSpline
 62
7
  6
CONTINUOUS
 70
0
 71
3
 72
10
 73
6
 74
0
 42
0.0000001
 43
0.0000001
 44
0.0000000001
 40
0.0
 40
0.0
 40
0.0
 40
0.0
 40
0.2281169574
 40
0.475258469
 40
1.0
 40
1.0
 40
1.0
 40
1.0
 10
22.1146590862
 20
82.2629635481
 30
0.0
 10
22.1146550237
 20
82.33497651
 30
0.0
 10
22.1004228017
 20
82.48518728
 30
0.0
 10
22.0243623876
 20
82.7922603811
 30
0.0
 10
21.9191762658
 20
83.0158196425
 30
0.0
 10
21.8317739992
 20
83.1565380269
 30
0.0
  0
SPLINE
  5
2BF
100
AcDbEntity
  8
0
100
AcDbSpline
 62
7
  6
CONTINUOUS
 70
0
 71
3
 72
11
 73
7
 74
0
 42
0.0000001
 43
0.0000001
 44
0.0000000001
 40
0.0
 40
0.0
 40
0.0
 40
0.0
 40
0.2890574384
 40
0.5496812807
 40
0.7828116269
 40
1.0
 40
1.0
 40
1.0
 40
1.0
 10
21.8317668604
 20
83.2830831774
 30
0.0
 10
21.8317662907
 20
83.2931819116
 30
0.0
 10
21.8333547969
 20
83.3124456605
 30
0.0
 10
21.8410816677
 20
83.3389211024
 30
0.0
 10
21.854257547
 20
83.3604287777
 30
0.0
 10
21.8667891588
 20
83.3705290631
 30
0.0
 10
21.8734072349
 20
83.3742407612
 30
0.0
  0
SPLINE
  5
2C0
100
AcDbEntity
  8
0
100
AcDbSpline
 62
7
  6
CONTINUOUS
 70
0
 71
3
 72
12
 73
8
 74
0
 42
0.0000001
 43
0.0000001
 44
0.0000000001
 40
0.0
 40
0.0
 40
0.0
 40
0.0
 40
0.2895627158
 40
0.5486616437
 40
0.781637805
 40
0.891842049
 40
1.0
 40
1.0
 40
1.0
 40
1.0
 10
25.1200527361
 20
77.3847080544
 30
0.0
 10
24.9839883824
 20
77.4632630684
 30
0.0
 10
24.7133412821
 20
77.5919956533
 30
0.0
 10
24.2976788739
 20
77.6925544561
 30
0.0
 10
23.9657637587
 20
77.6836514559
 30
0.0
 10
23.7287927612
 20
77.6181110364
 30
0.0
 10
23.6208835338
 20
77.5675538172
 30
0.0
 10
23.570062413
 20
77.538208587
 30
0.0
  0
SPLINE
  5
2C1
100
AcDbEntity
  8
0
100
AcDbSpline
 62
7
  6
CONTINUOUS
 70
0
 71
3
 72
15
 73
11
 74
0
 42
0.0000001
 43
0.0000001
 44
0.0000000001
 40
0.0
 40
0.0
 40
0.0
 40
0.0
 40
0.1141449866
 40
0.2373329012
 40
0.36697327
 40
0.4999970035
 40
0.6330211538
 40
0.7626627398
 40
0.8858525726
 40
1.0
 40
1.0
 40
1.0
 40
1.0
 10
27.3122356687
 20
73.5880866639
 30
0.0
 10
27.3122258946
 20
73.7613473269
 30
0.0
 10
27.280447267
 20
74.1219266723
 30
0.0
 10
27.1539284317
 20
74.6658902497
 30
0.0
 10
26.951174999
 20
75.2168710167
 30
0.0
 10
26.6799164359
 20
75.7541651349
 30
0.0
 10
26.3501939686
 20
76.2577040945
 30
0.0
 10
25.974368379
 20
76.7087586024
 30
0.0
 10
25.5665064783
 20
77.0902837603
 30
0.0
 10
25.2701049291
 20
77.2980773402
 30
0.0
 10
25.1200527361
 20
77.3847080544
 30
0.0
  0
SPLINE
  5
2C2
100
AcDbEntity
  8
0
100
AcDbSpline
 62
7
  6
CONTINUOUS
 70
0
 71
3
 72
19
 73
15
 74
0
 42
0.0000001
 43
0.0000001
 44
0.0000000001
 40
0.0
 40
0.0
 40
0.0
 40
0.0
 40
0.0623911716
 40
0.1288298236
 40
0.2703467121
 40
0.4174410481
 40
0.5617128765
 40
0.6953061726
 40
0.7562981281
 40
0.8127798843
 40
0.8647189895
 40
0.9125349652
 40
0.9571492647
 40
1.0
 40
1.0
 40
1.0
 40
1.0
 10
45.275076524
 20
76.856252037
 30
0.0
 10
45.275076524
 20
76.9847775412
 30
0.0
 10
45.2575663303
 20
77.2503495693
 30
0.0
 10
45.1600332249
 20
77.7995060371
 30
0.0
 10
44.9241558726
 20
78.4966877929
 30
0.0
 10
44.497859921
 20
79.2844591621
 30
0.0
 10
43.9564953875
 20
79.9776096298
 30
0.0
 10
43.4297635604
 20
80.4440948077
 30
0.0
 10
42.9876047422
 20
80.7147472851
 30
0.0
 10
42.6672861185
 20
80.8563249712
 30
0.0
 10
42.3547429202
 20
80.9393369458
 30
0.0
 10
42.0560884201
 20
80.9614189493
 30
0.0
 10
41.7779683314
 20
80.9205517296
 30
0.0
 10
41.6094331685
 20
80.8505980514
 30
0.0
 10
41.5329959199
 20
80.8064466486
 30
0.0
  0
SPLINE
  5
2C3
100
AcDbEntity
  8
0
100
AcDbSpline
 62
7
  6
CONTINUOUS
 70
0
 71
3
 72
15
 73
11
 74
0
 42
0.0000001
 43
0.0000001
 44
0.0000000001
 40
0.0
 40
0.0
 40
0.0
 40
0.0
 40
0.1151881702
 40
0.2398216908
 40
0.3709663026
 40
0.5051608744
 40
0.6386286627
 40
0.7676567483
 40
0.8889760554
 40
1.0
 40
1.0
 40
1.0
 40
1.0
 10
22.9281553728
 20
76.1191793419
 30
0.0
 10
22.9281656595
 20
75.9368320991
 30
0.0
 10
22.9633799383
 20
75.5568198074
 30
0.0
 10
23.1026588165
 20
74.9846220721
 30
0.0
 10
23.3251274783
 20
74.4070267754
 30
0.0
 10
23.6214604745
 20
73.8479151412
 30
0.0
 10
23.9795875115
 20
73.3302663293
 30
0.0
 10
24.3847762336
 20
72.8752274192
 30
0.0
 10
24.8203862926
 20
72.5016850059
 30
0.0
 10
25.1353069309
 20
72.3073606288
 30
0.0
 10
25.293388607
 20
72.2305488821
 30
0.0
  0
SPLINE
  5
2C4
100
AcDbEntity
  8
0
100
AcDbSpline
 62
7
  6
CONTINUOUS
 70
0
 71
3
 72
11
 73
7
 74
0
 42
0.0000001
 43
0.0000001
 44
0.0000000001
 40
0.0
 40
0.0
 40
0.0
 40
0.0
 40
0.2849680656
 40
0.542734932
 40
0.7778040212
 40
1.0
 40
1.0
 40
1.0
 40
1.0
 10
25.293388607
 20
72.2305488821
 30
0.0
 10
25.4156996255
 20
72.1711180664
 30
0.0
 10
25.6582808488
 20
72.0758676255
 30
0.0
 10
26.0268196589
 20
72.0111143355
 30
0.0
 10
26.3711205061
 20
72.0363225767
 30
0.0
 10
26.5784933024
 20
72.1160593636
 30
0.0
 10
26.6703285895
 20
72.1690575709
 30
0.0
  0
SPLINE
  5
2C5
100
AcDbEntity
  8
0
100
AcDbSpline
 62
7
  6
CONTINUOUS
 70
0
 71
3
 72
11
 73
7
 74
0
 42
0.0000001
 43
0.0000001
 44
0.0000000001
 40
0.0
 40
0.0
 40
0.0
 40
0.0
 40
0.2177839237
 40
0.4509111717
 40
0.7102971901
 40
1.0
 40
1.0
 40
1.0
 40
1.0
 10
59.7910204976
 20
23.615867072
 30
0.0
 10
59.8899771704
 20
23.5587357528
 30
0.0
 10
60.1173453351
 20
23.4762239856
 30
0.0
 10
60.494999204
 20
23.4666650902
 30
0.0
 10
60.8974892662
 20
23.5638628325
 30
0.0
 10
61.1593529584
 20
23.6884389412
 30
0.0
 10
61.2909875624
 20
23.7644377616
 30
0.0
  0
SPLINE
  5
2C6
100
AcDbEntity
  8
0
100
AcDbSpline
 62
7
  6
CONTINUOUS
 70
0
 71
3
 72
12
 73
8
 74
0
 42
0.0000001
 43
0.0000001
 44
0.0000000001
 40
0.0
 40
0.0
 40
0.0
 40
0.0
 40
0.1081827455
 40
0.2183972943
 40
0.4513668321
 40
0.7105444791
 40
1.0
 40
1.0
 40
1.0
 40
1.0
 10
41.5329959199
 20
80.8064466486
 30
0.0
 10
41.4821689695
 20
80.7770881722
 30
0.0
 10
41.3844847368
 20
80.7088148828
 30
0.0
 10
41.2091716385
 20
80.5364311366
 30
0.0
 10
41.0355387222
 20
80.2533481816
 30
0.0
 10
40.914871595
 20
79.8431195844
 30
0.0
 10
40.8909962273
 20
79.5443944907
 30
0.0
 10
40.8909962273
 20
79.3873447228
 30
0.0
  0
SPLINE
  5
2C7
100
AcDbEntity
  8
0
100
AcDbSpline
 62
7
  6
CONTINUOUS
 70
0
 71
3
 72
10
 73
6
 74
0
 42
0.0000001
 43
0.0000001
 44
0.0000000001
 40
0.0
 40
0.0
 40
0.0
 40
0.0
 40
0.5245727031
 40
0.7705384685
 40
1.0
 40
1.0
 40
1.0
 40
1.0
 10
23.7357657416
 20
16.0547590164
 30
0.0
 10
23.9245538189
 20
15.7676796859
 30
0.0
 10
24.2435908593
 20
15.3702079311
 30
0.0
 10
24.7343894156
 20
14.9348705088
 30
0.0
 10
24.9923868411
 20
14.7583346055
 30
0.0
 10
25.1225476874
 20
14.6831879059
 30
0.0
  0
SPLINE
  5
2C8
100
AcDbEntity
  8
0
100
AcDbSpline
 62
7
  6
CONTINUOUS
 70
0
 71
3
 72
18
 73
14
 74
0
 42
0.0000001
 43
0.0000001
 44
0.0000000001
 40
0.0
 40
0.0
 40
0.0
 40
0.0
 40
0.1326656853
 40
0.2761615797
 40
0.4233283474
 40
0.5663437336
 40
0.6981091343
 40
0.7582066108
 40
0.8139197454
 40
0.8652853826
 40
0.912743121
 40
0.9571944803
 40
1.0
 40
1.0
 40
1.0
 40
1.0
 10
40.8987998026
 20
79.1694514876
 30
0.0
 10
40.9172870599
 20
78.9064627618
 30
0.0
 10
41.0202850925
 20
78.3628578469
 30
0.0
 10
41.3231305928
 20
77.5742039932
 30
0.0
 10
41.7597300523
 20
76.8266257034
 30
0.0
 10
42.2966824296
 20
76.1778025744
 30
0.0
 10
42.8102072017
 20
75.7463687636
 30
0.0
 10
43.2370868744
 20
75.4994633789
 30
0.0
 10
43.5451479139
 20
75.3720836548
 30
0.0
 10
43.8450089659
 20
75.2994760143
 30
0.0
 10
44.1311942994
 20
75.2838250518
 30
0.0
 10
44.3977021815
 20
75.3265269571
 30
0.0
 10
44.5594042737
 20
75.3946255921
 30
0.0
 10
44.6330745056
 20
75.4371541507
 30
0.0
  0
SPLINE
  5
2C9
100
AcDbEntity
  8
0
100
AcDbSpline
 62
7
  6
CONTINUOUS
 70
0
 71
3
 72
12
 73
8
 74
0
 42
0.0000001
 43
0.0000001
 44
0.0000000001
 40
0.0
 40
0.0
 40
0.0
 40
0.0
 40
0.2895541846
 40
0.5486512529
 40
0.7816314177
 40
0.8918388503
 40
1.0
 40
1.0
 40
1.0
 40
1.0
 10
25.1225476874
 20
14.6831879059
 30
0.0
 10
25.2586019099
 20
14.6046387409
 30
0.0
 10
25.5292315685
 20
14.4759143558
 30
0.0
 10
25.9448704051
 20
14.3753568566
 30
0.0
 10
26.2767724913
 20
14.3842472947
 30
0.0
 10
26.5137428097
 20
14.4497686489
 30
0.0
 10
26.6216552194
 20
14.5003141726
 30
0.0
 10
26.6724788611
 20
14.529653226
 30
0.0
  0
SPLINE
  5
2CA
100
AcDbEntity
  8
0
100
AcDbSpline
 62
7
  6
CONTINUOUS
 70
0
 71
3
 72
12
 73
8
 74
0
 42
0.0000001
 43
0.0000001
 44
0.0000000001
 40
0.0
 40
0.0
 40
0.0
 40
0.0
 40
0.1081593508
 40
0.2183647809
 40
0.4513420609
 40
0.7104400157
 40
1.0
 40
1.0
 40
1.0
 40
1.0
 10
23.570062413
 20
77.538208587
 30
0.0
 10
23.5192444011
 20
77.5088651519
 30
0.0
 10
23.4215190825
 20
77.4406859144
 30
0.0
 10
23.2463014969
 20
77.2682284714
 30
0.0
 10
23.0726688272
 20
76.9852400654
 30
0.0
 10
22.9519624259
 20
76.5750098468
 30
0.0
 10
22.9281465104
 20
76.2762789096
 30
0.0
 10
22.9281553728
 20
76.1191793419
 30
0.0
  0
SPLINE
  5
2CB
100
AcDbEntity
  8
0
100
AcDbSpline
 62
7
  6
CONTINUOUS
 70
0
 71
3
 72
15
 73
11
 74
0
 42
0.0000001
 43
0.0000001
 44
0.0000000001
 40
0.0
 40
0.0
 40
0.0
 40
0.0
 40
0.1141229605
 40
0.2373462928
 40
0.366971064
 40
0.4999983279
 40
0.633025824
 40
0.762651271
 40
0.8858756957
 40
1.0
 40
1.0
 40
1.0
 40
1.0
 10
64.1194029112
 20
25.3974143771
 30
0.0
 10
64.2645832352
 20
25.4812337759
 30
0.0
 10
64.55140467
 20
25.6823726671
 30
0.0
 10
64.9461374949
 20
26.0515442503
 30
0.0
 10
65.3098237531
 20
26.488103169
 30
0.0
 10
65.6289094249
 20
26.975382949
 30
0.0
 10
65.8913612133
 20
27.4953612737
 30
0.0
 10
66.0875880569
 20
28.0286058031
 30
0.0
 10
66.209933306
 20
28.5550449805
 30
0.0
 10
66.2407144229
 20
28.9040125679
 30
0.0
 10
66.2407144229
 20
29.0716540901
 30
0.0
  0
SPLINE
  5
2CC
100
AcDbEntity
  8
0
100
AcDbSpline
 62
7
  6
CONTINUOUS
 70
0
 71
3
 72
13
 73
9
 74
0
 42
0.0000001
 43
0.0000001
 44
0.0000000001
 40
0.0
 40
0.0
 40
0.0
 40
0.0
 40
0.2893786241
 40
0.5483162202
 40
0.6677442727
 40
0.7817676894
 40
0.8919061851
 40
1.0
 40
1.0
 40
1.0
 40
1.0
 10
66.2407144229
 20
32.7459149671
 30
0.0
 10
66.2407144229
 20
32.9993223829
 30
0.0
 10
66.2025124404
 20
33.4809183342
 30
0.0
 10
66.0352120431
 20
34.047470171
 30
0.0
 10
65.8320919105
 20
34.4293087135
 30
0.0
 10
65.6529485622
 20
34.6725231393
 30
0.0
 10
65.444758123
 20
34.8775455524
 30
0.0
 10
65.2871104562
 20
34.9874860691
 30
0.0
 10
65.2051344426
 20
35.0348138762
 30
0.0
  0
SPLINE
  5
2CD
100
AcDbEntity
  8
0
100
AcDbSpline
 62
7
  6
CONTINUOUS
 70
0
 71
3
 72
15
 73
11
 74
0
 42
0.0000001
 43
0.0000001
 44
0.0000000001
 40
0.0
 40
0.0
 40
0.0
 40
0.0
 40
0.1570094999
 40
0.3075239633
 40
0.4490926606
 40
0.5799088297
 40
0.6991253208
 40
0.8071724664
 40
0.9061641807
 40
1.0
 40
1.0
 40
1.0
 40
1.0
 10
41.8689017031
 20
19.073063521
 30
0.0
 10
41.9716863298
 20
18.9347395949
 30
0.0
 10
42.1867450973
 20
18.6736601207
 30
0.0
 10
42.5398019789
 20
18.3282574379
 30
0.0
 10
42.9088146099
 20
18.0446157361
 30
0.0
 10
43.2835303359
 20
17.83087356
 30
0.0
 10
43.6538797497
 20
17.6932264947
 30
0.0
 10
44.0104503403
 20
17.6367394169
 30
0.0
 10
44.3431450251
 20
17.665211881
 30
0.0
 10
44.5437857514
 20
17.7432930683
 30
0.0
 10
44.632975871
 20
17.7947972432
 30
0.0
  0
SPLINE
  5
2CE
100
AcDbEntity
  8
0
100
AcDbSpline
 62
7
  6
CONTINUOUS
 70
0
 71
3
 72
11
 73
7
 74
0
 42
0.0000001
 43
0.0000001
 44
0.0000000001
 40
0.0
 40
0.0
 40
0.0
 40
0.0
 40
0.2841942877
 40
0.5440202384
 40
0.7807732104
 40
1.0
 40
1.0
 40
1.0
 40
1.0
 10
61.0788546448
 20
23.8869099879
 30
0.0
 10
60.9689915387
 20
23.8234808727
 30
0.0
 10
60.7500753577
 20
23.7159434181
 30
0.0
 10
60.4144585991
 20
23.6151768442
 30
0.0
 10
60.0938311052
 20
23.5858796211
 30
0.0
 10
59.8899375897
 20
23.6168808565
 30
0.0
 10
59.7961877649
 20
23.6449391965
 30
0.0
  0
SPLINE
  5
2CF
100
AcDbEntity
  8
0
100
AcDbSpline
 62
7
  6
CONTINUOUS
 70
0
 71
3
 72
15
 73
11
 74
0
 42
0.0000001
 43
0.0000001
 44
0.0000000001
 40
0.0
 40
0.0
 40
0.0
 40
0.0
 40
0.1141242661
 40
0.2373486253
 40
0.3669740476
 40
0.5000015346
 40
0.6330288076
 40
0.7626536034
 40
0.8858770013
 40
1.0
 40
1.0
 40
1.0
 40
1.0
 10
66.0285815053
 20
29.1941263164
 30
0.0
 10
66.0285815053
 20
29.0264848504
 30
0.0
 10
65.9978004545
 20
28.6775174112
 30
0.0
 10
65.8754552406
 20
28.1510784182
 30
0.0
 10
65.6792285109
 20
27.6178340057
 30
0.0
 10
65.4167767997
 20
27.0978556816
 30
0.0
 10
65.0976911658
 20
26.6105758345
 30
0.0
 10
64.7340048634
 20
26.1740167588
 30
0.0
 10
64.3392718963
 20
25.8048450528
 30
0.0
 10
64.0524503663
 20
25.6037060303
 30
0.0
 10
63.9072699937
 20
25.5198866034
 30
0.0
  0
SPLINE
  5
2D0
100
AcDbEntity
  8
0
100
AcDbSpline
 62
7
  6
CONTINUOUS
 70
0
 71
3
 72
9
 73
5
 74
0
 42
0.0000001
 43
0.0000001
 44
0.0000000001
 40
0.0
 40
0.0
 40
0.0
 40
0.0
 40
0.4532446521
 40
1.0
 40
1.0
 40
1.0
 40
1.0
 10
21.8734072349
 20
83.3742407612
 30
0.0
 10
21.8871756397
 20
83.3819626673
 30
0.0
 10
21.9238233862
 20
83.3880300745
 30
0.0
 10
21.9576805413
 20
83.3754860521
 30
0.0
 10
21.9741188278
 20
83.3658729221
 30
0.0
  0
SPLINE
  5
2D1
100
AcDbEntity
  8
0
100
AcDbSpline
 62
7
  6
CONTINUOUS
 70
0
 71
3
 72
11
 73
7
 74
0
 42
0.0000001
 43
0.0000001
 44
0.0000000001
 40
0.0
 40
0.0
 40
0.0
 40
0.0
 40
0.2585092196
 40
0.5202309269
 40
0.7713858171
 40
1.0
 40
1.0
 40
1.0
 40
1.0
 10
17.1054537538
 20
25.3414896435
 30
0.0
 10
17.0558475749
 20
25.2861513079
 30
0.0
 10
16.9658774809
 20
25.1656445577
 30
0.0
 10
16.8629334791
 20
24.9681711702
 30
0.0
 10
16.7964355571
 20
24.7646225136
 30
0.0
 10
16.778749196
 20
24.6265408431
 30
0.0
 10
16.778749196
 20
24.5608176343
 30
0.0
  0
SPLINE
  5
2D2
100
AcDbEntity
  8
0
100
AcDbSpline
 62
7
  6
CONTINUOUS
 70
0
 71
3
 72
11
 73
7
 74
0
 42
0.0000001
 43
0.0000001
 44
0.0000000001
 40
0.0
 40
0.0
 40
0.0
 40
0.0
 40
0.2896604438
 40
0.5491323749
 40
0.7822500383
 40
1.0
 40
1.0
 40
1.0
 40
1.0
 10
16.778749196
 20
24.5608176343
 30
0.0
 10
16.778749196
 20
24.5202891093
 30
0.0
 10
16.784905527
 20
24.4431955821
 30
0.0
 10
16.8161214617
 20
24.3372774426
 30
0.0
 10
16.868676704
 20
24.2513163468
 30
0.0
 10
16.9180581367
 20
24.209829609
 30
0.0
 10
16.944440395
 20
24.1945910218
 30
0.0
  0
SPLINE
  5
2D3
100
AcDbEntity
  8
0
100
AcDbSpline
 62
7
  6
CONTINUOUS
 70
0
 71
3
 72
11
 73
7
 74
0
 42
0.0000001
 43
0.0000001
 44
0.0000000001
 40
0.0
 40
0.0
 40
0.0
 40
0.0
 40
0.2187392511
 40
0.4548497335
 40
0.7146039498
 40
1.0
 40
1.0
 40
1.0
 40
1.0
 10
65.2562604624
 20
34.9692983193
 30
0.0
 10
65.3829617392
 20
34.8591440331
 30
0.0
 10
65.6133108665
 20
34.5900038994
 30
0.0
 10
65.8551591824
 20
34.0925401172
 30
0.0
 10
65.9995801457
 20
33.5068457812
 30
0.0
 10
66.0285815053
 20
33.0874391085
 30
0.0
 10
66.0285815053
 20
32.8683871935
 30
0.0
  0
ENDSEC
  0
SECTION
  2
OBJECTS
  0
DICTIONARY
  5
C
100
AcDbDictionary
280
0
281
1
  3
ACAD_GROUP
350
D
  3
ACAD_MLINESTYLE
350
17
  3
ACAD_LAYOUT
350
1A
  3
ACAD_PLOTSETTINGS
350
19
  3
ACAD_PLOTSTYLENAME
350
E
  0
DICTIONARY
  5
D
102
{ACAD_REACTORS
330
C
102
}
100
AcDbDictionary
280
0
281
1
  0
ACDBDICTIONARYWDFLT
  5
E
102
{ACAD_REACTORS
330
C
102
}
100
AcDbDictionary
281
1
  3
Normal
350
F
100
AcDbDictionaryWithDefault
340
F
  0
DICTIONARY
  5
17
102
{ACAD_REACTORS
330
C
102
}
100
AcDbDictionary
280
0
281
1
  3
Standard
350
18
  0
DICTIONARY
  5
19
102
{ACAD_REACTORS
330
C
102
}
100
AcDbDictionary
281
1
  0
DICTIONARY
  5
1A
102
{ACAD_REACTORS
330
C
102
}
100
AcDbDictionary
281
1
  3
Model
350
2D4
  3
Layout1
350
2D5
  0
ACDBPLACEHOLDER
  5
F
102
{ACAD_REACTORS
330
E
102
}
  0
MLINESTYLE
  5
18
102
{ACAD_REACTORS
330
17
102
}
100
AcDbMlineStyle
  2
STANDARD
 70
0
  3

 62
256
 51
90.0
 52
90.0
 71
2
 49
0.5
 62
256
  6
BYLAYER
 49
-0.5
 62
256
  6
BYLAYER
  0
LAYOUT
  5
2D4
102
{ACAD_REACTORS
330
1A
102
}
100
AcDbPlotSettings
  1

  2
none_device
  4

  6

 40
0.0
 41
0.0
 42
0.0
 43
0.0
 44
210.0
 45
297.0
 46
0.0
 47
0.0
 48
0.0
 49
0.0
140
0.0
141
0.0
142
1.0
143
1.0
 70
1024
 72
1
 73
0
 74
0
  7

 75
0
147
1.0
148
0.0
149
0.0
100
AcDbLayout
  1
Model
 70
0
 71
0
 10
0.0
 20
0.0
 11
210.0
 21
297.0
 12
0.0
 22
0.0
 32
0.0
 14
0.0
 24
0.0
 34
0.0
 15
0.0
 25
0.0
 35
0.0
146
0.0
 13
0.0
 23
0.0
 33
0.0
 16
1.0
 26
0.0
 36
0.0
 17
0.0
 27
1.0
 37
0.0
 76
0
330
212
345
0
346
0
  0
LAYOUT
  5
2D5
102
{ACAD_REACTORS
330
1A
102
}
100
AcDbPlotSettings
  1

  2
none_device
  4

  6

 40
0.0
 41
0.0
 42
0.0
 43
0.0
 44
210.0
 45
297.0
 46
0.0
 47
0.0
 48
0.0
 49
0.0
140
0.0
141
0.0
142
1.0
143
1.0
 70
0
 72
1
 73
0
 74
0
  7

 75
0
147
1.0
148
0.0
149
0.0
100
AcDbLayout
  1
Layout1
 70
0
 71
1
 10
0.0
 20
0.0
 11
210.0
 21
297.0
 12
0.0
 22
0.0
 32
0.0
 14
0.0
 24
0.0
 34
0.0
 15
0.0
 25
0.0
 35
0.0
146
0.0
 13
0.0
 23
0.0
 33
0.0
 16
1.0
 26
0.0
 36
0.0
 17
0.0
 27
1.0
 37
0.0
 76
0
330
213
345
0
346
0
  0
ENDSEC
  0
EOF
