999
DXF file: C:\Users\sesa63760\Dev\_Creo\CAD\MCADPD0005307_3D-CAD\drw0001_6.dxf
999
Pro/ENGINEER 2019471 by Parametric Technology Corporation
  0
SECTION
  2
HEADER
  9
$ACADVER
  1
AC1024
  9
$DWGCODEPAGE
  3
ANSI_1252
  9
$EXTMAX
 10
104.9172247641
 20
148.3829321663
 30
0.0
  9
$EXTMIN
 10
0.0
 20
0.0
 30
0.0
  9
$LIMMIN
 10
0.0
 20
0.0
  9
$LIMMAX
 10
104.9172247641
 20
148.3829321663
  9
$VIEWCTR
 10
52.458612382
 20
74.1914660832
  9
$VIEWSIZE
 40
148.3829321663
  9
$CLAYER
  8
0
  9
$LTSCALE
 40
9.6723689116
  9
$CELTYPE
  6
BYLAYER
  9
$DIMSCALE
 40
1.0
  9
$DIMASZ
 40
1.2490145805
  9
$DIMEXO
 40
1.0
  9
$DIMDLI
 40
6.6827276116
  9
$DIMEXE
 40
1.0
  9
$DIMCEN
 40
1.5827512764
  9
$DIMLFAC
 40
1.0
  9
$DIMBLK
  1
_FILLED
  9
$DIMALT
 70
0
  9
$DIMALTF
 40
0.0393700787
  9
$DIMTXT
 40
1.7486204127
  9
$DIMTOL
 70
1
  9
$DIMLIM
 70
0
  9
$DIMTFAC
 40
1.0
  9
$DIMTP
 40
0.01
  9
$DIMTM
 40
0.01
  9
$DIMGAP
 40
0.625
  9
$DIMDSEP
 70
46
  9
$AUNITS
 70
0
  9
$PDMODE
 70
3
  9
$PDSIZE
 40
0.3125
  9
$HANDSEED
  5
26F
  9
$TILEMODE
 70
1
  9
$MEASUREMENT
 70
1
  9
$INSUNITS
 70
4
  0
ENDSEC
  0
SECTION
  2
CLASSES
  0
CLASS
  1
ACDBDICTIONARYWDFLT
  2
AcDbDictionaryWithDefault
  3
AutoCAD 2000
 90
0
 91
1
280
0
281
0
  0
CLASS
  1
ACDBPLACEHOLDER
  2
AcDbPlaceHolder
  3
AutoCAD 2000
 90
0
 91
1
280
0
281
0
  0
CLASS
  1
LAYOUT
  2
AcDbLayout
  3
AutoCAD 2000
 90
0
 91
0
280
0
281
0
  0
ENDSEC
  0
SECTION
  2
TABLES
  0
TABLE
  2
VPORT
  5
8
100
AcDbSymbolTable
 70
2
  0
VPORT
  5
1F4
100
AcDbSymbolTableRecord
100
AcDbViewportTableRecord
  2
*ACTIVE
 70
0
 10
0.0
 20
0.0
 11
1.0
 21
1.0
 12
52.458612382
 22
74.1914660832
 13
0.0
 23
0.0
 14
1.0
 24
1.0
 15
0.0
 25
0.0
 16
0.0
 26
0.0
 36
1.0
 17
0.0
 27
0.0
 37
0.0
 40
148.3829321663
 41
0.7070707071
 42
50.0
 43
0.0
 44
0.0
 50
0.0
 51
0.0
 71
0
 72
100
 73
1
 74
1
 75
0
 76
0
 77
0
 78
0
  0
ENDTAB
  0
TABLE
  2
LTYPE
  5
5
100
AcDbSymbolTable
 70
6
  0
LTYPE
  5
14
100
AcDbSymbolTableRecord
100
AcDbLinetypeTableRecord
  2
BYBLOCK
 70
0
  3

 72
65
 73
0
 40
0.0
  0
LTYPE
  5
15
100
AcDbSymbolTableRecord
100
AcDbLinetypeTableRecord
  2
BYLAYER
 70
0
  3

 72
65
 73
0
 40
0.0
  0
LTYPE
  5
16
100
AcDbSymbolTableRecord
100
AcDbLinetypeTableRecord
  2
CONTINUOUS
 70
64
  3
Solid line
 72
65
 73
0
 40
0.0
  0
LTYPE
  5
1F5
100
AcDbSymbolTableRecord
100
AcDbLinetypeTableRecord
  2
CENTER
 70
64
  3
____ _ ____ _ ____ _ ____ _ ____ _ ____ _ ____
 72
65
 73
4
 40
0.6
 49
0.375
 74
0
 49
-0.075
 74
0
 49
0.075
 74
0
 49
-0.075
 74
0
  0
LTYPE
  5
1F6
100
AcDbSymbolTableRecord
100
AcDbLinetypeTableRecord
  2
HIDDEN
 70
64
  3
- - - - - - - - - - - - - - - - - - - -
 72
65
 73
2
 40
0.2
 49
0.1
 74
0
 49
-0.1
 74
0
  0
LTYPE
  5
1F7
100
AcDbSymbolTableRecord
100
AcDbLinetypeTableRecord
  2
PHANTOM
 70
64
  3
_____ _ _ _____ _ _ _____ _ _ _____
 72
65
 73
6
 40
0.8
 49
0.45
 74
0
 49
-0.05
 74
0
 49
0.1
 74
0
 49
-0.05
 74
0
 49
0.1
 74
0
 49
-0.05
 74
0
  0
LTYPE
  5
1F8
100
AcDbSymbolTableRecord
100
AcDbLinetypeTableRecord
  2
DOT
 70
64
  3
. . . . . . . . . . . . . . . . . . . .
 72
65
 73
2
 40
0.2
 49
0.1
 74
0
 49
-0.1
 74
0
  0
LTYPE
  5
1F9
100
AcDbSymbolTableRecord
100
AcDbLinetypeTableRecord
  2
DASHED
 70
64
  3
- - - - - - - - - - - - - - - - - - - -
 72
65
 73
2
 40
0.2
 49
0.1
 74
0
 49
-0.1
 74
0
  0
ENDTAB
  0
TABLE
  2
LAYER
  5
2
100
AcDbSymbolTable
 70
36
  0
LAYER
  5
10
100
AcDbSymbolTableRecord
100
AcDbLayerTableRecord
  2
0
 70
0
 62
7
  6
CONTINUOUS
370
-3
390
F
  0
LAYER
  5
1FA
100
AcDbSymbolTableRecord
100
AcDbLayerTableRecord
  2
DEFAULT_1
 70
0
 62
7
  6
CENTER
370
-3
390
F
  0
LAYER
  5
1FB
100
AcDbSymbolTableRecord
100
AcDbLayerTableRecord
  2
DEFAULT_2
 70
0
 62
7
  6
HIDDEN
370
-3
390
F
  0
LAYER
  5
1FC
100
AcDbSymbolTableRecord
100
AcDbLayerTableRecord
  2
DEFAULT_3
 70
0
 62
7
  6
PHANTOM
370
-3
390
F
  0
LAYER
  5
1FD
100
AcDbSymbolTableRecord
100
AcDbLayerTableRecord
  2
00_COMPONENTS
 70
0
 62
7
  6
CONTINUOUS
370
-3
390
F
  0
LAYER
  5
1FE
100
AcDbSymbolTableRecord
100
AcDbLayerTableRecord
  2
01_1_DEFAULT_DATUMS
 70
0
 62
7
  6
CONTINUOUS
370
-3
390
F
  0
LAYER
  5
1FF
100
AcDbSymbolTableRecord
100
AcDbLayerTableRecord
  2
01_PLANES
 70
0
 62
7
  6
CONTINUOUS
370
-3
390
F
  0
LAYER
  5
200
100
AcDbSymbolTableRecord
100
AcDbLayerTableRecord
  2
02_COORD_SYS
 70
0
 62
7
  6
CONTINUOUS
370
-3
390
F
  0
LAYER
  5
201
100
AcDbSymbolTableRecord
100
AcDbLayerTableRecord
  2
03_AXES
 70
0
 62
7
  6
CONTINUOUS
370
-3
390
F
  0
LAYER
  5
202
100
AcDbSymbolTableRecord
100
AcDbLayerTableRecord
  2
04_POINTS
 70
0
 62
7
  6
CONTINUOUS
370
-3
390
F
  0
LAYER
  5
203
100
AcDbSymbolTableRecord
100
AcDbLayerTableRecord
  2
05_CURVES
 70
0
 62
7
  6
CONTINUOUS
370
-3
390
F
  0
LAYER
  5
204
100
AcDbSymbolTableRecord
100
AcDbLayerTableRecord
  2
06_SURFS
 70
0
 62
7
  6
CONTINUOUS
370
-3
390
F
  0
LAYER
  5
205
100
AcDbSymbolTableRecord
100
AcDbLayerTableRecord
  2
07_COSMETICS
 70
0
 62
7
  6
CONTINUOUS
370
-3
390
F
  0
LAYER
  5
206
100
AcDbSymbolTableRecord
100
AcDbLayerTableRecord
  2
10_NOTES
 70
0
 62
7
  6
CONTINUOUS
370
-3
390
F
  0
LAYER
  5
207
100
AcDbSymbolTableRecord
100
AcDbLayerTableRecord
  2
11_NOTES_PUB
 70
0
 62
7
  6
CONTINUOUS
370
-3
390
F
  0
LAYER
  5
208
100
AcDbSymbolTableRecord
100
AcDbLayerTableRecord
  2
13_REF_GTOL
 70
0
 62
7
  6
CONTINUOUS
370
-3
390
F
  0
LAYER
  5
209
100
AcDbSymbolTableRecord
100
AcDbLayerTableRecord
  2
16_MISC
 70
0
 62
7
  6
CONTINUOUS
370
-3
390
F
  0
LAYER
  5
20A
100
AcDbSymbolTableRecord
100
AcDbLayerTableRecord
  2
17_NO_PRINT
 70
0
 62
7
  6
CONTINUOUS
370
-3
390
F
  0
LAYER
  5
20B
100
AcDbSymbolTableRecord
100
AcDbLayerTableRecord
  2
18_DATUM_CAMS_JOINTS
 70
0
 62
7
  6
CONTINUOUS
370
-3
390
F
  0
LAYER
  5
20C
100
AcDbSymbolTableRecord
100
AcDbLayerTableRecord
  2
19_DATUM_FUNCTIONAL
 70
0
 62
7
  6
CONTINUOUS
370
-3
390
F
  0
LAYER
  5
20D
100
AcDbSymbolTableRecord
100
AcDbLayerTableRecord
  2
20_DATUM_KINEMATIC_SCHEME
 70
0
 62
7
  6
CONTINUOUS
370
-3
390
F
  0
ENDTAB
  0
TABLE
  2
STYLE
  5
3
100
AcDbSymbolTable
 70
1
  0
STYLE
  5
11
100
AcDbSymbolTableRecord
100
AcDbTextStyleTableRecord
  2
STANDARD
 70
0
 40
0.0
 41
1.0
 50
0.0
 71
0
 42
0.2
  3
ARIAL.TTF
  4

  0
STYLE
  5
20E
100
AcDbSymbolTableRecord
100
AcDbTextStyleTableRecord
  2
TEXTSTYLE_1
 70
0
 40
0.0
 41
0.8
 50
0.0
 71
0
 42
0.2
  3
gdt
  4

  0
ENDTAB
  0
TABLE
  2
VIEW
  5
6
100
AcDbSymbolTable
 70
0
  0
ENDTAB
  0
TABLE
  2
UCS
  5
7
100
AcDbSymbolTable
 70
0
  0
ENDTAB
  0
TABLE
  2
APPID
  5
9
100
AcDbSymbolTable
 70
1
  0
APPID
  5
20F
100
AcDbSymbolTableRecord
100
AcDbRegAppTableRecord
  2
ACAD
 70
0
  0
ENDTAB
  0
TABLE
  2
BLOCK_RECORD
  5
1
100
AcDbSymbolTable
 70
0
  0
BLOCK_RECORD
  5
210
100
AcDbSymbolTableRecord
100
AcDbBlockTableRecord
  2
*Model_Space
  0
BLOCK_RECORD
  5
211
100
AcDbSymbolTableRecord
100
AcDbBlockTableRecord
  2
*Paper_Space
  0
BLOCK_RECORD
  5
212
100
AcDbSymbolTableRecord
100
AcDbBlockTableRecord
  2
_FILLED
  0
ENDTAB
  0
TABLE
  2
DIMSTYLE
  5
A
100
AcDbSymbolTable
 70
1
100
AcDbDimStyleTable
 71
0
  0
DIMSTYLE
105
213
100
AcDbSymbolTableRecord
100
AcDbDimStyleTableRecord
  2
STANDARD
 70
0
  3

  4

 40
1.0
 41
1.2490145805
 42
1.0
 43
0.38
 44
1.0
 45
0.0
 46
0.0
 47
0.01
 48
0.01
140
1.7486204127
141
0.09
142
0.0
143
25.4
144
1.0
145
0.0
146
1.0
147
0.625
 71
1
 72
0
 73
0
 74
0
 75
0
 76
0
 77
1
 78
8
 79
2
170
0
171
1
172
0
173
0
174
0
175
0
176
0
177
0
178
0
270
2
179
2
271
2
272
2
273
2
274
2
275
0
280
0
281
0
282
0
283
1
284
8
285
0
286
0
287
3
288
0
340
11
278
46
341
212
342
212
343
212
344
212
  0
ENDTAB
  0
ENDSEC
  0
SECTION
  2
BLOCKS
  0
BLOCK
  5
20
100
AcDbEntity
  8
0
100
AcDbBlockBegin
  2
*Model_Space
 70
0
 10
0.0
 20
0.0
 30
0.0
  3
*Model_Space
  1

  0
ENDBLK
  5
21
100
AcDbEntity
  8
0
100
AcDbBlockEnd
  0
BLOCK
  5
1C
100
AcDbEntity
  8
0
100
AcDbBlockBegin
  2
*Paper_Space
 70
0
 10
0.0
 20
0.0
 30
0.0
  3
*Paper_Space
  1

  0
ENDBLK
  5
1D
100
AcDbEntity
  8
0
100
AcDbBlockEnd
  0
BLOCK
  5
214
100
AcDbEntity
  8
0
100
AcDbBlockBegin
  2
_FILLED
 70
64
 10
0.0
 20
0.0
  3
_FILLED
  1

  0
SOLID
  5
215
100
AcDbEntity
  8
0
  6
BYBLOCK
 62
0
100
AcDbTrace
 10
0.0
 20
0.0
 11
-1.0
 21
0.25
 12
-1.0
 22
-0.25
 13
-1.0
 23
-0.25
  0
ENDBLK
  5
216
100
AcDbEntity
  8
0
  6
BYBLOCK
 62
0
100
AcDbBlockEnd
  0
ENDSEC
  0
SECTION
  2
ENTITIES
  0
LINE
  5
217
100
AcDbEntity
  8
0
100
AcDbLine
 62
7
  6
BYLAYER
 10
15.9167086621
 20
18.3414660711
 11
35.7167086621
 21
18.3414660711
  0
LINE
  5
218
100
AcDbEntity
  8
0
100
AcDbLine
 62
7
  6
BYLAYER
 10
69.5167086621
 20
18.3414660711
 11
89.3667086621
 21
18.3414660711
  0
LINE
  5
219
100
AcDbEntity
  8
0
100
AcDbLine
 62
7
  6
BYLAYER
 10
59.3667086621
 20
22.4414660711
 11
47.3667086621
 21
22.4414660711
  0
LINE
  5
21A
100
AcDbEntity
  8
0
100
AcDbLine
 62
7
  6
BYLAYER
 10
89.3667086621
 20
22.8414660711
 11
77.8167086621
 21
22.8414660711
  0
LINE
  5
21B
100
AcDbEntity
  8
0
100
AcDbLine
 62
7
  6
BYLAYER
 10
30.9167086621
 20
22.8414660711
 11
15.9167086621
 21
22.8414660711
  0
LINE
  5
21C
100
AcDbEntity
  8
0
100
AcDbLine
 62
7
  6
BYLAYER
 10
47.3667086621
 20
23.5914660711
 11
35.7167086621
 21
23.5914660711
  0
LINE
  5
21D
100
AcDbEntity
  8
0
100
AcDbLine
 62
7
  6
BYLAYER
 10
71.0167086621
 20
23.8414660711
 11
59.3667086621
 21
23.8414660711
  0
LINE
  5
21E
100
AcDbEntity
  8
0
100
AcDbLine
 62
7
  6
BYLAYER
 10
11.8667086621
 20
67.5414660711
 11
11.8667086621
 21
31.5414660711
  0
LINE
  5
21F
100
AcDbEntity
  8
0
100
AcDbLine
 62
7
  6
BYLAYER
 10
93.3667086621
 20
30.0414660711
 11
75.8167086621
 21
30.0414660711
  0
LINE
  5
220
100
AcDbEntity
  8
0
100
AcDbLine
 62
7
  6
BYLAYER
 10
13.3667086621
 20
30.0414660711
 11
30.9167086621
 21
30.0414660711
  0
LINE
  5
221
100
AcDbEntity
  8
0
100
AcDbLine
 62
7
  6
BYLAYER
 10
15.9167086621
 20
22.8414660711
 11
15.9167086621
 21
18.3414660711
  0
LINE
  5
222
100
AcDbEntity
  8
0
100
AcDbLine
 62
7
  6
BYLAYER
 10
21.2167086621
 20
22.8414660711
 11
21.2167086621
 21
18.3414660711
  0
LINE
  5
223
100
AcDbEntity
  8
0
100
AcDbLine
 62
7
  6
BYLAYER
 10
21.8667086621
 20
83.4414660711
 11
21.8667086621
 21
84.7414660711
  0
LINE
  5
224
100
AcDbEntity
  8
0
100
AcDbLine
 62
7
  6
BYLAYER
 10
22.7167086621
 20
22.8414660711
 11
22.7167086621
 21
18.3414660711
  0
LINE
  5
225
100
AcDbEntity
  8
0
100
AcDbLine
 62
7
  6
BYLAYER
 10
23.3667086621
 20
84.7414660711
 11
23.3667086621
 21
89.0414660711
  0
LINE
  5
226
100
AcDbEntity
  8
0
100
AcDbLine
 62
7
  6
BYLAYER
 10
23.4667086621
 20
74.6414660711
 11
23.4667086621
 21
83.4414660711
  0
LINE
  5
227
100
AcDbEntity
  8
0
100
AcDbLine
 62
7
  6
BYLAYER
 10
26.3667086621
 20
84.7414660711
 11
26.3667086621
 21
90.0414660711
  0
LINE
  5
228
100
AcDbEntity
  8
0
100
AcDbLine
 62
7
  6
BYLAYER
 10
27.4167086621
 20
74.6414660711
 11
27.4167086621
 21
70.0414660711
  0
LINE
  5
229
100
AcDbEntity
  8
0
100
AcDbLine
 62
7
  6
BYLAYER
 10
29.3667086621
 20
83.4414660711
 11
29.3667086621
 21
74.6414660711
  0
LINE
  5
22A
100
AcDbEntity
  8
0
100
AcDbLine
 62
7
  6
BYLAYER
 10
29.4667086621
 20
84.7414660711
 11
29.4667086621
 21
83.4414660711
  0
LINE
  5
22B
100
AcDbEntity
  8
0
100
AcDbLine
 62
7
  6
BYLAYER
 10
30.8667086621
 20
90.0414660711
 11
30.8667086621
 21
97.7414660711
  0
LINE
  5
22C
100
AcDbEntity
  8
0
100
AcDbLine
 62
7
  6
BYLAYER
 10
30.9167086621
 20
74.6414660711
 11
30.9167086621
 21
69.0414660711
  0
LINE
  5
22D
100
AcDbEntity
  8
0
100
AcDbLine
 62
7
  6
BYLAYER
 10
30.9167086621
 20
30.0414660711
 11
30.9167086621
 21
18.3414660711
  0
LINE
  5
22E
100
AcDbEntity
  8
0
100
AcDbLine
 62
7
  6
BYLAYER
 10
35.7167086621
 20
23.5914660711
 11
35.7167086621
 21
18.3414660711
  0
LINE
  5
22F
100
AcDbEntity
  8
0
100
AcDbLine
 62
7
  6
BYLAYER
 10
47.3667086621
 20
22.4414660711
 11
47.3667086621
 21
23.5914660711
  0
LINE
  5
230
100
AcDbEntity
  8
0
100
AcDbLine
 62
7
  6
BYLAYER
 10
47.9355188634
 20
128.1112651046
 11
47.3667086621
 21
111.8226721107
  0
LINE
  5
231
100
AcDbEntity
  8
0
100
AcDbLine
 62
7
  6
BYLAYER
 10
93.3667086621
 20
69.0414660711
 11
75.8167086621
 21
69.0414660711
  0
LINE
  5
232
100
AcDbEntity
  8
0
100
AcDbLine
 62
7
  6
BYLAYER
 10
13.3667086621
 20
69.0414660711
 11
30.9167086621
 21
69.0414660711
  0
LINE
  5
233
100
AcDbEntity
  8
0
100
AcDbLine
 62
7
  6
BYLAYER
 10
27.4167460241
 20
70.0414660711
 11
30.9167086621
 21
70.0414660711
  0
LINE
  5
234
100
AcDbEntity
  8
0
100
AcDbLine
 62
7
  6
BYLAYER
 10
75.8167086621
 20
70.0414660711
 11
79.3166713001
 21
70.0414660711
  0
LINE
  5
235
100
AcDbEntity
  8
0
100
AcDbLine
 62
7
  6
BYLAYER
 10
23.4667086621
 20
74.6414660711
 11
83.2667086621
 21
74.6414660711
  0
LINE
  5
236
100
AcDbEntity
  8
0
100
AcDbLine
 62
7
  6
BYLAYER
 10
59.3667086621
 20
111.8226721107
 11
58.7978984601
 21
128.1112651245
  0
LINE
  5
237
100
AcDbEntity
  8
0
100
AcDbLine
 62
7
  6
BYLAYER
 10
59.3667086621
 20
23.8414660711
 11
59.3667086621
 21
22.4414660711
  0
LINE
  5
238
100
AcDbEntity
  8
0
100
AcDbLine
 62
7
  6
BYLAYER
 10
21.8667086621
 20
83.4414660711
 11
84.8667086621
 21
83.4414660711
  0
LINE
  5
239
100
AcDbEntity
  8
0
100
AcDbLine
 62
7
  6
BYLAYER
 10
84.8667086621
 20
84.7414660711
 11
21.8667086621
 21
84.7414660711
  0
LINE
  5
23A
100
AcDbEntity
  8
0
100
AcDbLine
 62
7
  6
BYLAYER
 10
69.5167086621
 20
21.8754406673
 11
69.5167086621
 21
18.3414660711
  0
LINE
  5
23B
100
AcDbEntity
  8
0
100
AcDbLine
 62
7
  6
BYLAYER
 10
71.0167086621
 20
22.7414660711
 11
71.0167086621
 21
23.8414660711
  0
LINE
  5
23C
100
AcDbEntity
  8
0
100
AcDbLine
 62
7
  6
BYLAYER
 10
83.3667086621
 20
89.0414660711
 11
23.3667086621
 21
89.0414660711
  0
LINE
  5
23D
100
AcDbEntity
  8
0
100
AcDbLine
 62
7
  6
BYLAYER
 10
24.3667086621
 20
90.0414660711
 11
82.3667086621
 21
90.0414660711
  0
LINE
  5
23E
100
AcDbEntity
  8
0
100
AcDbLine
 62
7
  6
BYLAYER
 10
75.8167086621
 20
74.6414660711
 11
75.8167086621
 21
69.0414660711
  0
LINE
  5
23F
100
AcDbEntity
  8
0
100
AcDbLine
 62
7
  6
BYLAYER
 10
75.8167086621
 20
30.0414660711
 11
75.8167086621
 21
18.3414660711
  0
LINE
  5
240
100
AcDbEntity
  8
0
100
AcDbLine
 62
7
  6
BYLAYER
 10
75.8667086621
 20
90.0414660711
 11
75.8667086621
 21
97.7414660711
  0
LINE
  5
241
100
AcDbEntity
  8
0
100
AcDbLine
 62
7
  6
BYLAYER
 10
75.8667086621
 20
97.7414660711
 11
73.6084848269
 21
97.7414660711
  0
LINE
  5
242
100
AcDbEntity
  8
0
100
AcDbLine
 62
7
  6
BYLAYER
 10
33.1249324974
 20
97.7414660711
 11
30.8667086621
 21
97.7414660711
  0
LINE
  5
243
100
AcDbEntity
  8
0
100
AcDbLine
 62
7
  6
BYLAYER
 10
77.2667086621
 20
83.4414660711
 11
77.2667086621
 21
84.7414660711
  0
LINE
  5
244
100
AcDbEntity
  8
0
100
AcDbLine
 62
7
  6
BYLAYER
 10
77.3667086621
 20
74.6414660711
 11
77.3667086621
 21
83.4414660711
  0
LINE
  5
245
100
AcDbEntity
  8
0
100
AcDbLine
 62
7
  6
BYLAYER
 10
79.3167086621
 20
74.6414660711
 11
79.3167086621
 21
70.0414660711
  0
LINE
  5
246
100
AcDbEntity
  8
0
100
AcDbLine
 62
7
  6
BYLAYER
 10
80.3667086621
 20
84.7414660711
 11
80.3667086621
 21
90.0414660711
  0
LINE
  5
247
100
AcDbEntity
  8
0
100
AcDbLine
 62
7
  6
BYLAYER
 10
80.8167086621
 20
22.8414660711
 11
80.8167086621
 21
18.3414660711
  0
LINE
  5
248
100
AcDbEntity
  8
0
100
AcDbLine
 62
7
  6
BYLAYER
 10
73.3666977189
 20
100.2414660711
 11
71.3593985863
 21
100.2414660711
  0
LINE
  5
249
100
AcDbEntity
  8
0
100
AcDbLine
 62
7
  6
BYLAYER
 10
35.3740187379
 20
100.2414660711
 11
33.3667196054
 21
100.2414660711
  0
LINE
  5
24A
100
AcDbEntity
  8
0
100
AcDbLine
 62
7
  6
BYLAYER
 10
83.2667086621
 20
83.4414660711
 11
83.2667086621
 21
74.6414660711
  0
LINE
  5
24B
100
AcDbEntity
  8
0
100
AcDbLine
 62
7
  6
BYLAYER
 10
83.3667086621
 20
18.3414660711
 11
83.3667086621
 21
22.8414660711
  0
LINE
  5
24C
100
AcDbEntity
  8
0
100
AcDbLine
 62
7
  6
BYLAYER
 10
83.3667086621
 20
84.7414660711
 11
83.3667086621
 21
89.0414660711
  0
LINE
  5
24D
100
AcDbEntity
  8
0
100
AcDbLine
 62
7
  6
BYLAYER
 10
84.8667086621
 20
84.7414660711
 11
84.8667086621
 21
83.4414660711
  0
LINE
  5
24E
100
AcDbEntity
  8
0
100
AcDbLine
 62
7
  6
BYLAYER
 10
89.3667086621
 20
18.3414660711
 11
89.3667086621
 21
22.8414660711
  0
LINE
  5
24F
100
AcDbEntity
  8
0
100
AcDbLine
 62
7
  6
BYLAYER
 10
94.8667086621
 20
31.5414660711
 11
94.8667086621
 21
67.5414660711
  0
LINE
  5
250
100
AcDbEntity
  8
0
100
AcDbLine
 62
7
  6
BYLAYER
 10
69.5167086621
 20
21.8754406673
 11
71.0167086621
 21
22.7414660711
  0
LINE
  5
251
100
AcDbEntity
  8
0
100
AcDbLine
 62
7
  6
BYLAYER
 10
56.6653249455
 20
128.0414660711
 11
50.0680923795
 21
128.0414660711
  0
LINE
  5
252
100
AcDbEntity
  8
0
100
AcDbLine
 62
7
  6
BYLAYER
 10
56.7991168082
 20
130.0414660711
 11
49.934300516
 21
130.0414660711
  0
ARC
  5
253
100
AcDbEntity
  8
0
100
AcDbCircle
 62
7
  6
BYLAYER
 10
71.3593985863
 20
112.2414660711
 40
12.0
100
AcDbArc
 50
182.0
 51
270.0
  0
ARC
  5
254
100
AcDbEntity
  8
0
100
AcDbCircle
 62
7
  6
BYLAYER
 10
35.3740187379
 20
112.2414660711
 40
12.0
100
AcDbArc
 50
270.0
 51
358.0
  0
ARC
  5
255
100
AcDbEntity
  8
0
100
AcDbCircle
 62
7
  6
BYLAYER
 10
33.3667086621
 20
97.7414660711
 40
2.5
100
AcDbArc
 50
90.0
 51
180.0
  0
ARC
  5
256
100
AcDbEntity
  8
0
100
AcDbCircle
 62
7
  6
BYLAYER
 10
73.3667086621
 20
97.7414660711
 40
2.5
100
AcDbArc
 50
0.0
 51
90.0
  0
ARC
  5
257
100
AcDbEntity
  8
0
100
AcDbCircle
 62
7
  6
BYLAYER
 10
77.8167086621
 20
24.8414660711
 40
2.0
100
AcDbArc
 50
180.0
 51
270.0
  0
ARC
  5
258
100
AcDbEntity
  8
0
100
AcDbCircle
 62
7
  6
BYLAYER
 10
28.9167086621
 20
24.8414660711
 40
2.0
100
AcDbArc
 50
270.0
 51
360.0
  0
ARC
  5
259
100
AcDbEntity
  8
0
100
AcDbCircle
 62
7
  6
BYLAYER
 10
49.934300516
 20
128.0414660711
 40
2.0
100
AcDbArc
 50
90.0
 51
177.999999426
  0
ARC
  5
25A
100
AcDbEntity
  8
0
100
AcDbCircle
 62
7
  6
BYLAYER
 10
56.7991261444
 20
128.0414664557
 40
1.9999995907
100
AcDbArc
 50
1.9999991827
 51
90.0002674637
  0
ARC
  5
25B
100
AcDbEntity
  8
0
100
AcDbCircle
 62
7
  6
BYLAYER
 10
93.3667086621
 20
67.5414660711
 40
1.5
100
AcDbArc
 50
0.0
 51
90.0
  0
ARC
  5
25C
100
AcDbEntity
  8
0
100
AcDbCircle
 62
7
  6
BYLAYER
 10
93.3667086621
 20
31.5414660711
 40
1.5
100
AcDbArc
 50
270.0
 51
360.0
  0
ARC
  5
25D
100
AcDbEntity
  8
0
100
AcDbCircle
 62
7
  6
BYLAYER
 10
13.3667086621
 20
31.5414660711
 40
1.5
100
AcDbArc
 50
180.0
 51
270.0
  0
ARC
  5
25E
100
AcDbEntity
  8
0
100
AcDbCircle
 62
7
  6
BYLAYER
 10
13.3667086621
 20
67.5414660711
 40
1.5
100
AcDbArc
 50
90.0
 51
180.0
  0
ARC
  5
25F
100
AcDbEntity
  8
0
100
AcDbCircle
 62
7
  6
BYLAYER
 10
82.3667086621
 20
89.0414660711
 40
1.0
100
AcDbArc
 50
0.0
 51
90.0
  0
ARC
  5
260
100
AcDbEntity
  8
0
100
AcDbCircle
 62
7
  6
BYLAYER
 10
24.3667086621
 20
89.0414660711
 40
1.0
100
AcDbArc
 50
90.0
 51
180.0
  0
SPLINE
  5
261
100
AcDbEntity
  8
0
100
AcDbSpline
 62
7
  6
BYLAYER
 70
0
 71
3
 72
14
 73
10
 74
0
 42
0.0000001
 43
0.0000001
 44
0.0000000001
 40
0.0
 40
0.0
 40
0.0
 40
0.0
 40
0.2508039071
 40
0.3835556781
 40
0.5164689065
 40
0.6465059217
 40
0.7714528253
 40
0.8893876073
 40
1.0
 40
1.0
 40
1.0
 40
1.0
 10
33.1249324975
 20
97.7414660711
 30
0.0
 10
33.1249324975
 20
98.0526951607
 30
0.0
 10
33.2058190711
 20
98.5343328182
 30
0.0
 10
33.4789044927
 20
99.1171470938
 30
0.0
 10
33.7682787113
 20
99.5182462021
 30
0.0
 10
34.1286921759
 20
99.8425616104
 30
0.0
 10
34.5314389116
 20
100.0775792974
 30
0.0
 10
34.9524193789
 20
100.2120240129
 30
0.0
 10
35.2367569438
 20
100.2414660711
 30
0.0
 10
35.374018738
 20
100.2414660711
 30
0.0
  0
SPLINE
  5
262
100
AcDbEntity
  8
0
100
AcDbSpline
 62
7
  6
BYLAYER
 70
0
 71
3
 72
17
 73
13
 74
0
 42
0.0000001
 43
0.0000001
 44
0.0000000001
 40
0.0
 40
0.0
 40
0.0
 40
0.0
 40
0.0749004158
 40
0.1497303087
 40
0.2243966001
 40
0.2987304995
 40
0.3724605631
 40
0.4451914769
 40
0.5853202164
 40
0.7145688928
 40
0.8285677501
 40
1.0
 40
1.0
 40
1.0
 40
1.0
 10
49.4274953631
 20
111.7354233689
 30
0.0
 10
49.4042806495
 20
111.1445060837
 30
0.0
 10
49.2762086903
 20
109.9648430144
 30
0.0
 10
48.845758741
 20
108.2409145291
 30
0.0
 10
48.1913397942
 20
106.5937255889
 30
0.0
 10
47.3345866331
 20
105.0526492573
 30
0.0
 10
46.303093789
 20
103.6418346859
 30
0.0
 10
44.7593814464
 20
101.9815820759
 30
0.0
 10
42.6038406147
 20
100.3180585055
 30
0.0
 10
39.8813873852
 20
98.9579006249
 30
0.0
 10
36.7420255102
 20
97.9925258924
 30
0.0
 10
34.4784686884
 20
97.7414664464
 30
0.0
 10
33.1249324974
 20
97.7414660711
 30
0.0
  0
SPLINE
  5
263
100
AcDbEntity
  8
0
100
AcDbSpline
 62
7
  6
BYLAYER
 70
0
 71
3
 72
26
 73
22
 74
0
 42
0.0000001
 43
0.0000001
 44
0.0000000001
 40
0.0
 40
0.0
 40
0.0
 40
0.0
 40
0.2023658784
 40
0.3932318499
 40
0.5660379771
 40
0.6439997115
 40
0.7155197495
 40
0.7800450962
 40
0.8370260654
 40
0.8860003304
 40
0.9266203751
 40
0.9436914396
 40
0.9585468867
 40
0.971155837
 40
0.9815026237
 40
0.9895727518
 40
0.995351992
 40
0.997378342
 40
0.9988272749
 40
0.9996984181
 40
1.0
 40
1.0
 40
1.0
 40
1.0
 10
50.0680244031
 20
128.0414590079
 30
0.0
 10
49.924174645
 20
128.0455367563
 30
0.0
 10
49.6446543202
 20
128.053623213
 30
0.0
 10
49.242308914
 20
128.0656154923
 30
0.0
 10
48.928398893
 20
128.075227897
 30
0.0
 10
48.6993258455
 20
128.0824595378
 30
0.0
 10
48.5472192012
 20
128.0873720331
 30
0.0
 10
48.4100285888
 20
128.0919194515
 30
0.0
 10
48.2888661808
 20
128.0960623682
 30
0.0
 10
48.1846988712
 20
128.0997675464
 30
0.0
 10
48.1088987737
 20
128.1026061464
 30
0.0
 10
48.0573509537
 20
128.1046576635
 30
0.0
 10
48.0257055766
 20
128.1059784494
 30
0.0
 10
47.9988512627
 20
128.1071740398
 30
0.0
 10
47.9767918291
 20
128.1082259159
 30
0.0
 10
47.9596652129
 20
128.1091650019
 30
0.0
 10
47.9482822394
 20
128.1098311935
 30
0.0
 10
47.9418756344
 20
128.1103950479
 30
0.0
 10
47.9385446971
 20
128.1106166023
 30
0.0
 10
47.9371477063
 20
128.1109993441
 30
0.0
 10
47.9358548784
 20
128.1110394769
 30
0.0
 10
47.9358796391
 20
128.1112525054
 30
0.0
  0
SPLINE
  5
264
100
AcDbEntity
  8
0
100
AcDbSpline
 62
7
  6
BYLAYER
 70
0
 71
3
 72
18
 73
14
 74
0
 42
0.0000001
 43
0.0000001
 44
0.0000000001
 40
0.0
 40
0.0
 40
0.0
 40
0.0
 40
0.0334784635
 40
0.0603198178
 40
0.0950414281
 40
0.1377205129
 40
0.1881642297
 40
0.2460722802
 40
0.3109545062
 40
0.4592219283
 40
0.627741694
 40
0.810507628
 40
1.0
 40
1.0
 40
1.0
 40
1.0
 10
50.3613042123
 20
130.0414660791
 30
0.0
 10
50.3383391374
 20
130.041466091
 30
0.0
 10
50.303025007
 20
130.007041802
 30
0.0
 10
50.2730526494
 20
129.9514226082
 30
0.0
 10
50.2460717649
 20
129.884288102
 30
0.0
 10
50.2208471507
 20
129.8004919507
 30
0.0
 10
50.1965211995
 20
129.6996568714
 30
0.0
 10
50.1737898777
 20
129.5830164095
 30
0.0
 10
50.1443959538
 20
129.3993800854
 30
0.0
 10
50.1140396308
 20
129.1392266648
 30
0.0
 10
50.087849141
 20
128.7974861414
 30
0.0
 10
50.0717492739
 20
128.4268222832
 30
0.0
 10
50.0680936527
 20
128.1714512779
 30
0.0
 10
50.068093856
 20
128.0414660259
 30
0.0
  0
SPLINE
  5
265
100
AcDbEntity
  8
0
100
AcDbSpline
 62
7
  6
BYLAYER
 70
0
 71
3
 72
18
 73
14
 74
0
 42
0.0000001
 43
0.0000001
 44
0.0000000001
 40
0.0
 40
0.0
 40
0.0
 40
0.0
 40
0.1894637903
 40
0.3721351573
 40
0.5405912774
 40
0.6888752986
 40
0.7537852439
 40
0.8117102404
 40
0.8621875725
 40
0.9049062536
 40
0.9396531426
 40
0.9665104632
 40
1.0
 40
1.0
 40
1.0
 40
1.0
 10
56.6653229228
 20
128.0414665123
 30
0.0
 10
56.6653230615
 20
128.1714316015
 30
0.0
 10
56.6616741576
 20
128.4267171652
 30
0.0
 10
56.645578283
 20
128.7972511733
 30
0.0
 10
56.6194102938
 20
129.1388946729
 30
0.0
 10
56.5890603552
 20
129.3990338076
 30
0.0
 10
56.5596895977
 20
129.5827156813
 30
0.0
 10
56.5369494778
 20
129.6994087044
 30
0.0
 10
56.512617134
 20
129.8003053732
 30
0.0
 10
56.4873889167
 20
129.8841699564
 30
0.0
 10
56.4603877839
 20
129.9513585788
 30
0.0
 10
56.4303995883
 20
130.0070029795
 30
0.0
 10
56.3950853299
 20
130.0414659507
 30
0.0
 10
56.3721127575
 20
130.0414660097
 30
0.0
  0
SPLINE
  5
266
100
AcDbEntity
  8
0
100
AcDbSpline
 62
7
  6
BYLAYER
 70
0
 71
3
 72
26
 73
22
 74
0
 42
0.0000001
 43
0.0000001
 44
0.0000000001
 40
0.0
 40
0.0
 40
0.0
 40
0.0
 40
0.000300584
 40
0.001170699
 40
0.0026186315
 40
0.0046440138
 40
0.0104214234
 40
0.0184898682
 40
0.0288351266
 40
0.0414427115
 40
0.0562969671
 40
0.073367026
 40
0.1139855728
 40
0.1629589401
 40
0.2199395876
 40
0.2844653548
 40
0.3559863868
 40
0.4339495119
 40
0.60675935
 40
0.7976288863
 40
1.0
 40
1.0
 40
1.0
 40
1.0
 10
58.7974930864
 20
128.1112552501
 30
0.0
 10
58.7975199261
 20
128.1110431942
 30
0.0
 10
58.7962250842
 20
128.1110007126
 30
0.0
 10
58.7948341786
 20
128.1106202217
 30
0.0
 10
58.7915030888
 20
128.1103976059
 30
0.0
 10
58.7851008414
 20
128.1098345256
 30
0.0
 10
58.7737202044
 20
128.1091679841
 30
0.0
 10
58.7565981467
 20
128.1082293117
 30
0.0
 10
58.7345422959
 20
128.1071775194
 30
0.0
 10
58.7076916287
 20
128.1059821241
 30
0.0
 10
58.6760495413
 20
128.104661469
 30
0.0
 10
58.6245056375
 20
128.1026101143
 30
0.0
 10
58.5487098312
 20
128.0997716789
 30
0.0
 10
58.4445470397
 20
128.0960666959
 30
0.0
 10
58.3233882026
 20
128.0919239968
 30
0.0
 10
58.1862002142
 20
128.0873768089
 30
0.0
 10
58.0340953463
 20
128.0824645273
 30
0.0
 10
57.8050236464
 20
128.0752331102
 30
0.0
 10
57.4911152499
 20
128.0656209875
 30
0.0
 10
57.0887709248
 20
128.0536291607
 30
0.0
 10
56.8092512733
 20
128.0455430429
 30
0.0
 10
56.6654013577
 20
128.0414655204
 30
0.0
  0
SPLINE
  5
267
100
AcDbEntity
  8
0
100
AcDbSpline
 62
7
  6
BYLAYER
 70
0
 71
3
 72
24
 73
20
 74
0
 42
0.0000001
 43
0.0000001
 44
0.0000000001
 40
0.0
 40
0.0
 40
0.0
 40
0.0
 40
0.0009883172
 40
0.0038766366
 40
0.0087525207
 40
0.0156836535
 40
0.0247354198
 40
0.0359725737
 40
0.0494596263
 40
0.0652609751
 40
0.103929965
 40
0.1518244383
 40
0.208655073
 40
0.2741324259
 40
0.3478238546
 40
0.4287241071
 40
0.6075573287
 40
0.8012947606
 40
1.0
 40
1.0
 40
1.0
 40
1.0
 10
59.3667086621
 20
111.8226721102
 30
0.0
 10
59.3667323753
 20
111.8219929547
 30
0.0
 10
59.3626513424
 20
111.8220875606
 30
0.0
 10
59.3580797868
 20
111.8207473938
 30
0.0
 10
59.3472087867
 20
111.8201578852
 30
0.0
 10
59.3332738007
 20
111.8188946111
 30
0.0
 10
59.3144548263
 20
111.8176851148
 30
0.0
 10
59.2913284801
 20
111.8162263583
 30
0.0
 10
59.2634901809
 20
111.814633301
 30
0.0
 10
59.2168393091
 20
111.8120991388
 30
0.0
 10
59.1465363356
 20
111.8085678422
 30
0.0
 10
59.0480499028
 20
111.8039186329
 30
0.0
 10
58.9311353643
 20
111.7986660018
 30
0.0
 10
58.7964913515
 20
111.792851291
 30
0.0
 10
58.6453029547
 20
111.7865379878
 30
0.0
 10
58.4162281753
 20
111.7772295059
 30
0.0
 10
58.1046595619
 20
111.765014967
 30
0.0
 10
57.7121280822
 20
111.7502023219
 30
0.0
 10
57.4424636244
 20
111.7403422817
 30
0.0
 10
57.3059219631
 20
111.735423369
 30
0.0
  0
SPLINE
  5
268
100
AcDbEntity
  8
0
100
AcDbSpline
 62
7
  6
BYLAYER
 70
0
 71
3
 72
14
 73
10
 74
0
 42
0.0000001
 43
0.0000001
 44
0.0000000001
 40
0.0
 40
0.0
 40
0.0
 40
0.0
 40
0.1106123917
 40
0.228547173
 40
0.353494076
 40
0.4835310909
 40
0.6164443196
 40
0.749196091
 40
1.0
 40
1.0
 40
1.0
 40
1.0
 10
71.3593985571
 20
100.2414660711
 30
0.0
 10
71.4966603499
 20
100.2414660711
 30
0.0
 10
71.7809979124
 20
100.2120240134
 30
0.0
 10
72.2019783767
 20
100.0775792996
 30
0.0
 10
72.6047251109
 20
99.8425616148
 30
0.0
 10
72.9651385754
 20
99.5182462081
 30
0.0
 10
73.254512795
 20
99.1171471004
 30
0.0
 10
73.5275982187
 20
98.534332823
 30
0.0
 10
73.608484793
 20
98.0526951628
 30
0.0
 10
73.6084847929
 20
97.7414660711
 30
0.0
  0
SPLINE
  5
269
100
AcDbEntity
  8
0
100
AcDbSpline
 62
7
  6
BYLAYER
 70
0
 71
3
 72
8
 73
4
 74
0
 42
0.0000001
 43
0.0000001
 44
0.0000000001
 40
0.0
 40
0.0
 40
0.0
 40
0.0
 40
1.0
 40
1.0
 40
1.0
 40
1.0
 10
49.4274953631
 20
111.7354233689
 30
0.0
 10
49.6407325971
 20
117.1707825217
 30
0.0
 10
49.8543009422
 20
122.6061286888
 30
0.0
 10
50.0680923795
 20
128.0414660711
 30
0.0
  0
SPLINE
  5
26A
100
AcDbEntity
  8
0
100
AcDbSpline
 62
7
  6
BYLAYER
 70
0
 71
3
 72
17
 73
13
 74
0
 42
0.0000001
 43
0.0000001
 44
0.0000000001
 40
0.0
 40
0.0
 40
0.0
 40
0.0
 40
0.0749003296
 40
0.1497301897
 40
0.2243965455
 40
0.2987305512
 40
0.372460642
 40
0.445191546
 40
0.5853203072
 40
0.7145689821
 40
0.8285678291
 40
1.0
 40
1.0
 40
1.0
 40
1.0
 10
57.3059219611
 20
111.7354233689
 30
0.0
 10
57.3291365095
 20
111.1445067575
 30
0.0
 10
57.4572112109
 20
109.964844898
 30
0.0
 10
57.8876600078
 20
108.2409168154
 30
0.0
 10
58.542077674
 20
106.5937261025
 30
0.0
 10
59.3988328445
 20
105.0526488319
 30
0.0
 10
60.4303276676
 20
103.6418350751
 30
0.0
 10
61.9740294746
 20
101.9815719798
 30
0.0
 10
64.1295798599
 20
100.3180585499
 30
0.0
 10
66.8520320566
 20
98.9579010582
 30
0.0
 10
69.9913929989
 20
97.9925248906
 30
0.0
 10
72.2549492569
 20
97.741465494
 30
0.0
 10
73.6084848269
 20
97.7414660711
 30
0.0
  0
SPLINE
  5
26B
100
AcDbEntity
  8
0
100
AcDbSpline
 62
7
  6
BYLAYER
 70
0
 71
3
 72
8
 73
4
 74
0
 42
0.0000001
 43
0.0000001
 44
0.0000000001
 40
0.0
 40
0.0
 40
0.0
 40
0.0
 40
1.0
 40
1.0
 40
1.0
 40
1.0
 10
56.6653249455
 20
128.0414660711
 30
0.0
 10
56.879116391
 20
122.6061286891
 30
0.0
 10
57.0926846373
 20
117.1707825182
 30
0.0
 10
57.3059219611
 20
111.7354233689
 30
0.0
  0
SPLINE
  5
26C
100
AcDbEntity
  8
0
100
AcDbSpline
 62
7
  6
BYLAYER
 70
0
 71
3
 72
24
 73
20
 74
0
 42
0.0000001
 43
0.0000001
 44
0.0000000001
 40
0.0
 40
0.0
 40
0.0
 40
0.0
 40
0.0009883168
 40
0.0038766359
 40
0.0087525196
 40
0.0156836522
 40
0.0247354183
 40
0.035972572
 40
0.0494596244
 40
0.0652609731
 40
0.1039299628
 40
0.1518244361
 40
0.208655071
 40
0.2741324241
 40
0.3478238531
 40
0.4287241059
 40
0.6075573282
 40
0.8012947606
 40
1.0
 40
1.0
 40
1.0
 40
1.0
 10
47.3667086617
 20
111.822672098
 30
0.0
 10
47.3666849475
 20
111.8219929427
 30
0.0
 10
47.3707659817
 20
111.822087548
 30
0.0
 10
47.3753375347
 20
111.8207473818
 30
0.0
 10
47.3862085354
 20
111.8201578729
 30
0.0
 10
47.4001435203
 20
111.8188945989
 30
0.0
 10
47.4189624944
 20
111.8176851025
 30
0.0
 10
47.4420888402
 20
111.816226346
 30
0.0
 10
47.469927139
 20
111.8146332887
 30
0.0
 10
47.5165780105
 20
111.8120991264
 30
0.0
 10
47.586880984
 20
111.8085678297
 30
0.0
 10
47.6853674168
 20
111.8039186202
 30
0.0
 10
47.8022819557
 20
111.7986659889
 30
0.0
 10
47.936925969
 20
111.792851278
 30
0.0
 10
48.0881143665
 20
111.7865379745
 30
0.0
 10
48.3171891469
 20
111.7772294923
 30
0.0
 10
48.6287577615
 20
111.765014953
 30
0.0
 10
49.0212892423
 20
111.7502023074
 30
0.0
 10
49.2909537006
 20
111.7403422669
 30
0.0
 10
49.4274953621
 20
111.7354233541
 30
0.0
  0
ENDSEC
  0
SECTION
  2
OBJECTS
  0
DICTIONARY
  5
C
100
AcDbDictionary
280
0
281
1
  3
ACAD_GROUP
350
D
  3
ACAD_MLINESTYLE
350
17
  3
ACAD_LAYOUT
350
1A
  3
ACAD_PLOTSETTINGS
350
19
  3
ACAD_PLOTSTYLENAME
350
E
  0
DICTIONARY
  5
D
102
{ACAD_REACTORS
330
C
102
}
100
AcDbDictionary
280
0
281
1
  0
ACDBDICTIONARYWDFLT
  5
E
102
{ACAD_REACTORS
330
C
102
}
100
AcDbDictionary
281
1
  3
Normal
350
F
100
AcDbDictionaryWithDefault
340
F
  0
DICTIONARY
  5
17
102
{ACAD_REACTORS
330
C
102
}
100
AcDbDictionary
280
0
281
1
  3
Standard
350
18
  0
DICTIONARY
  5
19
102
{ACAD_REACTORS
330
C
102
}
100
AcDbDictionary
281
1
  0
DICTIONARY
  5
1A
102
{ACAD_REACTORS
330
C
102
}
100
AcDbDictionary
281
1
  3
Model
350
26D
  3
Layout1
350
26E
  0
ACDBPLACEHOLDER
  5
F
102
{ACAD_REACTORS
330
E
102
}
  0
MLINESTYLE
  5
18
102
{ACAD_REACTORS
330
17
102
}
100
AcDbMlineStyle
  2
STANDARD
 70
0
  3

 62
256
 51
90.0
 52
90.0
 71
2
 49
0.5
 62
256
  6
BYLAYER
 49
-0.5
 62
256
  6
BYLAYER
  0
LAYOUT
  5
26D
102
{ACAD_REACTORS
330
1A
102
}
100
AcDbPlotSettings
  1

  2
none_device
  4

  6

 40
0.0
 41
0.0
 42
0.0
 43
0.0
 44
210.0
 45
297.0
 46
0.0
 47
0.0
 48
0.0
 49
0.0
140
0.0
141
0.0
142
1.0
143
1.0
 70
1024
 72
1
 73
0
 74
0
  7

 75
0
147
1.0
148
0.0
149
0.0
100
AcDbLayout
  1
Model
 70
0
 71
0
 10
0.0
 20
0.0
 11
210.0
 21
297.0
 12
0.0
 22
0.0
 32
0.0
 14
0.0
 24
0.0
 34
0.0
 15
0.0
 25
0.0
 35
0.0
146
0.0
 13
0.0
 23
0.0
 33
0.0
 16
1.0
 26
0.0
 36
0.0
 17
0.0
 27
1.0
 37
0.0
 76
0
330
210
345
0
346
0
  0
LAYOUT
  5
26E
102
{ACAD_REACTORS
330
1A
102
}
100
AcDbPlotSettings
  1

  2
none_device
  4

  6

 40
0.0
 41
0.0
 42
0.0
 43
0.0
 44
210.0
 45
297.0
 46
0.0
 47
0.0
 48
0.0
 49
0.0
140
0.0
141
0.0
142
1.0
143
1.0
 70
0
 72
1
 73
0
 74
0
  7

 75
0
147
1.0
148
0.0
149
0.0
100
AcDbLayout
  1
Layout1
 70
0
 71
1
 10
0.0
 20
0.0
 11
210.0
 21
297.0
 12
0.0
 22
0.0
 32
0.0
 14
0.0
 24
0.0
 34
0.0
 15
0.0
 25
0.0
 35
0.0
146
0.0
 13
0.0
 23
0.0
 33
0.0
 16
1.0
 26
0.0
 36
0.0
 17
0.0
 27
1.0
 37
0.0
 76
0
330
211
345
0
346
0
  0
ENDSEC
  0
EOF
