999
DXF file: C:\Users\sesa63760\Dev\_Creo\CAD\MCADPD0004654_3D-CAD\drw0001_6.dxf
999
Pro/ENGINEER 2019471 by Parametric Technology Corporation
  0
SECTION
  2
HEADER
  9
$ACADVER
  1
AC1024
  9
$DWGCODEPAGE
  3
ANSI_1252
  9
$EXTMAX
 10
89.1783694755
 20
126.1236939726
 30
0.0
  9
$EXTMIN
 10
0.0
 20
0.0
 30
0.0
  9
$LIMMIN
 10
0.0
 20
0.0
  9
$LIMMAX
 10
89.1783694755
 20
126.1236939726
  9
$VIEWCTR
 10
44.5891847378
 20
63.0618469863
  9
$VIEWSIZE
 40
126.1236939726
  9
$CLAYER
  8
0
  9
$LTSCALE
 40
8.2213963478
  9
$CELTYPE
  6
BYLAYER
  9
$DIMSCALE
 40
1.0
  9
$DIMASZ
 40
1.0616472557
  9
$DIMEXO
 40
1.0
  9
$DIMDLI
 40
5.6802374767
  9
$DIMEXE
 40
1.0
  9
$DIMCEN
 40
1.3453194024
  9
$DIMLFAC
 40
1.0
  9
$DIMBLK
  1
_FILLED
  9
$DIMALT
 70
0
  9
$DIMALTF
 40
0.0393700787
  9
$DIMTXT
 40
1.4863061579
  9
$DIMTOL
 70
1
  9
$DIMLIM
 70
0
  9
$DIMTFAC
 40
1.0
  9
$DIMTP
 40
0.01
  9
$DIMTM
 40
0.01
  9
$DIMGAP
 40
0.625
  9
$DIMDSEP
 70
46
  9
$AUNITS
 70
0
  9
$PDMODE
 70
3
  9
$PDSIZE
 40
0.3125
  9
$HANDSEED
  5
27B
  9
$TILEMODE
 70
1
  9
$MEASUREMENT
 70
1
  9
$INSUNITS
 70
4
  0
ENDSEC
  0
SECTION
  2
CLASSES
  0
CLASS
  1
ACDBDICTIONARYWDFLT
  2
AcDbDictionaryWithDefault
  3
AutoCAD 2000
 90
0
 91
1
280
0
281
0
  0
CLASS
  1
ACDBPLACEHOLDER
  2
AcDbPlaceHolder
  3
AutoCAD 2000
 90
0
 91
1
280
0
281
0
  0
CLASS
  1
LAYOUT
  2
AcDbLayout
  3
AutoCAD 2000
 90
0
 91
0
280
0
281
0
  0
ENDSEC
  0
SECTION
  2
TABLES
  0
TABLE
  2
VPORT
  5
8
100
AcDbSymbolTable
 70
2
  0
VPORT
  5
1F4
100
AcDbSymbolTableRecord
100
AcDbViewportTableRecord
  2
*ACTIVE
 70
0
 10
0.0
 20
0.0
 11
1.0
 21
1.0
 12
44.5891847378
 22
63.0618469863
 13
0.0
 23
0.0
 14
1.0
 24
1.0
 15
0.0
 25
0.0
 16
0.0
 26
0.0
 36
1.0
 17
0.0
 27
0.0
 37
0.0
 40
126.1236939726
 41
0.7070707071
 42
50.0
 43
0.0
 44
0.0
 50
0.0
 51
0.0
 71
0
 72
100
 73
1
 74
1
 75
0
 76
0
 77
0
 78
0
  0
ENDTAB
  0
TABLE
  2
LTYPE
  5
5
100
AcDbSymbolTable
 70
6
  0
LTYPE
  5
14
100
AcDbSymbolTableRecord
100
AcDbLinetypeTableRecord
  2
BYBLOCK
 70
0
  3

 72
65
 73
0
 40
0.0
  0
LTYPE
  5
15
100
AcDbSymbolTableRecord
100
AcDbLinetypeTableRecord
  2
BYLAYER
 70
0
  3

 72
65
 73
0
 40
0.0
  0
LTYPE
  5
16
100
AcDbSymbolTableRecord
100
AcDbLinetypeTableRecord
  2
CONTINUOUS
 70
64
  3
Solid line
 72
65
 73
0
 40
0.0
  0
LTYPE
  5
1F5
100
AcDbSymbolTableRecord
100
AcDbLinetypeTableRecord
  2
CENTER
 70
64
  3
____ _ ____ _ ____ _ ____ _ ____ _ ____ _ ____
 72
65
 73
4
 40
0.6
 49
0.375
 74
0
 49
-0.075
 74
0
 49
0.075
 74
0
 49
-0.075
 74
0
  0
LTYPE
  5
1F6
100
AcDbSymbolTableRecord
100
AcDbLinetypeTableRecord
  2
HIDDEN
 70
64
  3
- - - - - - - - - - - - - - - - - - - -
 72
65
 73
2
 40
0.2
 49
0.1
 74
0
 49
-0.1
 74
0
  0
LTYPE
  5
1F7
100
AcDbSymbolTableRecord
100
AcDbLinetypeTableRecord
  2
PHANTOM
 70
64
  3
_____ _ _ _____ _ _ _____ _ _ _____
 72
65
 73
6
 40
0.8
 49
0.45
 74
0
 49
-0.05
 74
0
 49
0.1
 74
0
 49
-0.05
 74
0
 49
0.1
 74
0
 49
-0.05
 74
0
  0
LTYPE
  5
1F8
100
AcDbSymbolTableRecord
100
AcDbLinetypeTableRecord
  2
DOT
 70
64
  3
. . . . . . . . . . . . . . . . . . . .
 72
65
 73
2
 40
0.2
 49
0.1
 74
0
 49
-0.1
 74
0
  0
LTYPE
  5
1F9
100
AcDbSymbolTableRecord
100
AcDbLinetypeTableRecord
  2
DASHED
 70
64
  3
- - - - - - - - - - - - - - - - - - - -
 72
65
 73
2
 40
0.2
 49
0.1
 74
0
 49
-0.1
 74
0
  0
ENDTAB
  0
TABLE
  2
LAYER
  5
2
100
AcDbSymbolTable
 70
36
  0
LAYER
  5
10
100
AcDbSymbolTableRecord
100
AcDbLayerTableRecord
  2
0
 70
0
 62
7
  6
CONTINUOUS
370
-3
390
F
  0
LAYER
  5
1FA
100
AcDbSymbolTableRecord
100
AcDbLayerTableRecord
  2
DEFAULT_1
 70
0
 62
7
  6
CENTER
370
-3
390
F
  0
LAYER
  5
1FB
100
AcDbSymbolTableRecord
100
AcDbLayerTableRecord
  2
DEFAULT_2
 70
0
 62
7
  6
HIDDEN
370
-3
390
F
  0
LAYER
  5
1FC
100
AcDbSymbolTableRecord
100
AcDbLayerTableRecord
  2
DEFAULT_3
 70
0
 62
7
  6
PHANTOM
370
-3
390
F
  0
LAYER
  5
1FD
100
AcDbSymbolTableRecord
100
AcDbLayerTableRecord
  2
00_COMPONENTS
 70
0
 62
7
  6
CONTINUOUS
370
-3
390
F
  0
LAYER
  5
1FE
100
AcDbSymbolTableRecord
100
AcDbLayerTableRecord
  2
01_1_DEFAULT_DATUMS
 70
0
 62
7
  6
CONTINUOUS
370
-3
390
F
  0
LAYER
  5
1FF
100
AcDbSymbolTableRecord
100
AcDbLayerTableRecord
  2
01_PLANES
 70
0
 62
7
  6
CONTINUOUS
370
-3
390
F
  0
LAYER
  5
200
100
AcDbSymbolTableRecord
100
AcDbLayerTableRecord
  2
02_COORD_SYS
 70
0
 62
7
  6
CONTINUOUS
370
-3
390
F
  0
LAYER
  5
201
100
AcDbSymbolTableRecord
100
AcDbLayerTableRecord
  2
03_AXES
 70
0
 62
7
  6
CONTINUOUS
370
-3
390
F
  0
LAYER
  5
202
100
AcDbSymbolTableRecord
100
AcDbLayerTableRecord
  2
04_POINTS
 70
0
 62
7
  6
CONTINUOUS
370
-3
390
F
  0
LAYER
  5
203
100
AcDbSymbolTableRecord
100
AcDbLayerTableRecord
  2
05_CURVES
 70
0
 62
7
  6
CONTINUOUS
370
-3
390
F
  0
LAYER
  5
204
100
AcDbSymbolTableRecord
100
AcDbLayerTableRecord
  2
06_SURFS
 70
0
 62
7
  6
CONTINUOUS
370
-3
390
F
  0
LAYER
  5
205
100
AcDbSymbolTableRecord
100
AcDbLayerTableRecord
  2
07_COSMETICS
 70
0
 62
7
  6
CONTINUOUS
370
-3
390
F
  0
LAYER
  5
206
100
AcDbSymbolTableRecord
100
AcDbLayerTableRecord
  2
10_NOTES
 70
0
 62
7
  6
CONTINUOUS
370
-3
390
F
  0
LAYER
  5
207
100
AcDbSymbolTableRecord
100
AcDbLayerTableRecord
  2
11_NOTES_PUB
 70
0
 62
7
  6
CONTINUOUS
370
-3
390
F
  0
LAYER
  5
208
100
AcDbSymbolTableRecord
100
AcDbLayerTableRecord
  2
13_REF_GTOL
 70
0
 62
7
  6
CONTINUOUS
370
-3
390
F
  0
LAYER
  5
209
100
AcDbSymbolTableRecord
100
AcDbLayerTableRecord
  2
16_MISC
 70
0
 62
7
  6
CONTINUOUS
370
-3
390
F
  0
LAYER
  5
20A
100
AcDbSymbolTableRecord
100
AcDbLayerTableRecord
  2
17_NO_PRINT
 70
0
 62
7
  6
CONTINUOUS
370
-3
390
F
  0
LAYER
  5
20B
100
AcDbSymbolTableRecord
100
AcDbLayerTableRecord
  2
18_DATUM_CAMS_JOINTS
 70
0
 62
7
  6
CONTINUOUS
370
-3
390
F
  0
LAYER
  5
20C
100
AcDbSymbolTableRecord
100
AcDbLayerTableRecord
  2
19_DATUM_FUNCTIONAL
 70
0
 62
7
  6
CONTINUOUS
370
-3
390
F
  0
LAYER
  5
20D
100
AcDbSymbolTableRecord
100
AcDbLayerTableRecord
  2
20_DATUM_KINEMATIC_SCHEME
 70
0
 62
7
  6
CONTINUOUS
370
-3
390
F
  0
ENDTAB
  0
TABLE
  2
STYLE
  5
3
100
AcDbSymbolTable
 70
1
  0
STYLE
  5
11
100
AcDbSymbolTableRecord
100
AcDbTextStyleTableRecord
  2
STANDARD
 70
0
 40
0.0
 41
1.0
 50
0.0
 71
0
 42
0.2
  3
ARIAL.TTF
  4

  0
STYLE
  5
20E
100
AcDbSymbolTableRecord
100
AcDbTextStyleTableRecord
  2
TEXTSTYLE_1
 70
0
 40
0.0
 41
0.8
 50
0.0
 71
0
 42
0.2
  3
gdt
  4

  0
ENDTAB
  0
TABLE
  2
VIEW
  5
6
100
AcDbSymbolTable
 70
0
  0
ENDTAB
  0
TABLE
  2
UCS
  5
7
100
AcDbSymbolTable
 70
0
  0
ENDTAB
  0
TABLE
  2
APPID
  5
9
100
AcDbSymbolTable
 70
1
  0
APPID
  5
20F
100
AcDbSymbolTableRecord
100
AcDbRegAppTableRecord
  2
ACAD
 70
0
  0
ENDTAB
  0
TABLE
  2
BLOCK_RECORD
  5
1
100
AcDbSymbolTable
 70
0
  0
BLOCK_RECORD
  5
210
100
AcDbSymbolTableRecord
100
AcDbBlockTableRecord
  2
*Model_Space
  0
BLOCK_RECORD
  5
211
100
AcDbSymbolTableRecord
100
AcDbBlockTableRecord
  2
*Paper_Space
  0
BLOCK_RECORD
  5
212
100
AcDbSymbolTableRecord
100
AcDbBlockTableRecord
  2
_FILLED
  0
ENDTAB
  0
TABLE
  2
DIMSTYLE
  5
A
100
AcDbSymbolTable
 70
1
100
AcDbDimStyleTable
 71
0
  0
DIMSTYLE
105
213
100
AcDbSymbolTableRecord
100
AcDbDimStyleTableRecord
  2
STANDARD
 70
0
  3

  4

 40
1.0
 41
1.0616472557
 42
1.0
 43
0.38
 44
1.0
 45
0.0
 46
0.0
 47
0.01
 48
0.01
140
1.4863061579
141
0.09
142
0.0
143
25.4
144
1.0
145
0.0
146
1.0
147
0.625
 71
1
 72
0
 73
0
 74
0
 75
0
 76
0
 77
1
 78
8
 79
2
170
0
171
1
172
0
173
0
174
0
175
0
176
0
177
0
178
0
270
2
179
2
271
2
272
2
273
2
274
2
275
0
280
0
281
0
282
0
283
1
284
8
285
0
286
0
287
3
288
0
340
11
278
46
341
212
342
212
343
212
344
212
  0
ENDTAB
  0
ENDSEC
  0
SECTION
  2
BLOCKS
  0
BLOCK
  5
20
100
AcDbEntity
  8
0
100
AcDbBlockBegin
  2
*Model_Space
 70
0
 10
0.0
 20
0.0
 30
0.0
  3
*Model_Space
  1

  0
ENDBLK
  5
21
100
AcDbEntity
  8
0
100
AcDbBlockEnd
  0
BLOCK
  5
1C
100
AcDbEntity
  8
0
100
AcDbBlockBegin
  2
*Paper_Space
 70
0
 10
0.0
 20
0.0
 30
0.0
  3
*Paper_Space
  1

  0
ENDBLK
  5
1D
100
AcDbEntity
  8
0
100
AcDbBlockEnd
  0
BLOCK
  5
214
100
AcDbEntity
  8
0
100
AcDbBlockBegin
  2
_FILLED
 70
64
 10
0.0
 20
0.0
  3
_FILLED
  1

  0
SOLID
  5
215
100
AcDbEntity
  8
0
  6
BYBLOCK
 62
0
100
AcDbTrace
 10
0.0
 20
0.0
 11
-1.0
 21
0.25
 12
-1.0
 22
-0.25
 13
-1.0
 23
-0.25
  0
ENDBLK
  5
216
100
AcDbEntity
  8
0
  6
BYBLOCK
 62
0
100
AcDbBlockEnd
  0
ENDSEC
  0
SECTION
  2
ENTITIES
  0
LINE
  5
217
100
AcDbEntity
  8
0
100
AcDbLine
 62
7
  6
BYLAYER
 10
10.0656821674
 20
64.9168492875
 11
10.0656821674
 21
60.1168492875
  0
LINE
  5
218
100
AcDbEntity
  8
0
100
AcDbLine
 62
7
  6
BYLAYER
 10
10.2523258966
 20
64.9168492875
 11
10.2523258966
 21
60.1168492875
  0
LINE
  5
219
100
AcDbEntity
  8
0
100
AcDbLine
 62
7
  6
BYLAYER
 10
10.3655783609
 20
76.8818492875
 11
10.3655783609
 21
73.8818492875
  0
LINE
  5
21A
100
AcDbEntity
  8
0
100
AcDbLine
 62
7
  6
BYLAYER
 10
10.5510895719
 20
76.8818492875
 11
10.5510895719
 21
73.8818492875
  0
LINE
  5
21B
100
AcDbEntity
  8
0
100
AcDbLine
 62
7
  6
BYLAYER
 10
77.535552599
 20
32.2418492875
 11
77.835552599
 21
32.2918492875
  0
LINE
  5
21C
100
AcDbEntity
  8
0
100
AcDbLine
 62
7
  6
BYLAYER
 10
10.6869854626
 20
60.1168492875
 11
10.6869854626
 21
64.9168492875
  0
LINE
  5
21D
100
AcDbEntity
  8
0
100
AcDbLine
 62
7
  6
BYLAYER
 10
10.9851818361
 20
73.8818492875
 11
10.9851818361
 21
76.8818492875
  0
LINE
  5
21E
100
AcDbEntity
  8
0
100
AcDbLine
 62
7
  6
BYLAYER
 10
11.6286808745
 20
73.0918492875
 11
11.6286808745
 21
71.7918492875
  0
LINE
  5
21F
100
AcDbEntity
  8
0
100
AcDbLine
 62
7
  6
BYLAYER
 10
13.4160083286
 20
71.7918492875
 11
13.4160083286
 21
73.0918492875
  0
LINE
  5
220
100
AcDbEntity
  8
0
100
AcDbLine
 62
7
  6
BYLAYER
 10
76.0355443794
 20
30.5418446851
 11
73.4369331582
 21
30.5418492875
  0
LINE
  5
221
100
AcDbEntity
  8
0
100
AcDbLine
 62
7
  6
BYLAYER
 10
37.065552599
 20
30.7418492875
 11
77.035552599
 21
30.7418492875
  0
LINE
  5
222
100
AcDbEntity
  8
0
100
AcDbLine
 62
7
  6
BYLAYER
 10
33.8805191381
 20
31.0443566787
 11
37.0655529171
 21
31.0418492875
  0
LINE
  5
223
100
AcDbEntity
  8
0
100
AcDbLine
 62
7
  6
BYLAYER
 10
14.065552599
 20
64.9168492875
 11
14.065552599
 21
60.1168492875
  0
LINE
  5
224
100
AcDbEntity
  8
0
100
AcDbLine
 62
7
  6
BYLAYER
 10
14.665531697
 20
76.8818492875
 11
14.665531697
 21
73.8818492875
  0
LINE
  5
225
100
AcDbEntity
  8
0
100
AcDbLine
 62
7
  6
BYLAYER
 10
15.1080067909
 20
76.8818492875
 11
15.1080067909
 21
73.8818492875
  0
LINE
  5
226
100
AcDbEntity
  8
0
100
AcDbLine
 62
7
  6
BYLAYER
 10
15.1080070749
 20
64.9168492875
 11
15.1080070749
 21
60.1168492875
  0
LINE
  5
227
100
AcDbEntity
  8
0
100
AcDbLine
 62
7
  6
BYLAYER
 10
15.8394829522
 20
57.7668492875
 11
15.8394829522
 21
82.2418492875
  0
LINE
  5
228
100
AcDbEntity
  8
0
100
AcDbLine
 62
7
  6
BYLAYER
 10
13.8171517453
 20
57.7668492875
 11
13.8182803679
 21
60.1168492875
  0
LINE
  5
229
100
AcDbEntity
  8
0
100
AcDbLine
 62
7
  6
BYLAYER
 10
13.8205856398
 20
64.9168492875
 11
13.8248912152
 21
73.8818492875
  0
LINE
  5
22A
100
AcDbEntity
  8
0
100
AcDbLine
 62
7
  6
BYLAYER
 10
13.8263320101
 20
76.8818492875
 11
13.8289062303
 21
82.2418492875
  0
LINE
  5
22B
100
AcDbEntity
  8
0
100
AcDbLine
 62
7
  6
BYLAYER
 10
17.6306453053
 20
57.7668492875
 11
17.6306453053
 21
82.2418492875
  0
LINE
  5
22C
100
AcDbEntity
  8
0
100
AcDbLine
 62
7
  6
BYLAYER
 10
18.8359099987
 20
46.6168492875
 11
18.8359099987
 21
57.7668492875
  0
LINE
  5
22D
100
AcDbEntity
  8
0
100
AcDbLine
 62
7
  6
BYLAYER
 10
18.8612799041
 20
46.6168492875
 11
18.8612799041
 21
50.4537990044
  0
LINE
  5
22E
100
AcDbEntity
  8
0
100
AcDbLine
 62
7
  6
BYLAYER
 10
18.8612799041
 20
55.2298995704
 11
18.8612799041
 21
57.7668492875
  0
LINE
  5
22F
100
AcDbEntity
  8
0
100
AcDbLine
 62
7
  6
BYLAYER
 10
19.6123470052
 20
46.6168492875
 11
19.6123470052
 21
49.7747815509
  0
LINE
  5
230
100
AcDbEntity
  8
0
100
AcDbLine
 62
7
  6
BYLAYER
 10
19.6123470052
 20
55.908917024
 11
19.6123470052
 21
57.7668492875
  0
LINE
  5
231
100
AcDbEntity
  8
0
100
AcDbLine
 62
7
  6
BYLAYER
 10
20.5830776443
 20
46.6168492875
 11
20.5830776443
 21
57.7668492875
  0
LINE
  5
232
100
AcDbEntity
  8
0
100
AcDbLine
 62
7
  6
BYLAYER
 10
20.5874400853
 20
46.6168492875
 11
20.5874400853
 21
57.7668492875
  0
LINE
  5
233
100
AcDbEntity
  8
0
100
AcDbLine
 62
7
  6
BYLAYER
 10
20.6981235286
 20
57.7668492875
 11
20.6981235286
 21
46.6168492875
  0
LINE
  5
234
100
AcDbEntity
  8
0
100
AcDbLine
 62
7
  6
BYLAYER
 10
21.4857735924
 20
46.6168492875
 11
21.4857735924
 21
57.7668492875
  0
LINE
  5
235
100
AcDbEntity
  8
0
100
AcDbLine
 62
7
  6
BYLAYER
 10
22.7155525978
 20
46.6168492875
 11
22.7155525978
 21
45.8168492875
  0
LINE
  5
236
100
AcDbEntity
  8
0
100
AcDbLine
 62
7
  6
BYLAYER
 10
26.615552599
 20
45.8168492875
 11
26.615552599
 21
45.0168492875
  0
LINE
  5
237
100
AcDbEntity
  8
0
100
AcDbLine
 62
7
  6
BYLAYER
 10
26.615552599
 20
45.0168492875
 11
33.215552599
 21
45.0168492875
  0
LINE
  5
238
100
AcDbEntity
  8
0
100
AcDbLine
 62
7
  6
BYLAYER
 10
33.215552599
 20
45.6168492875
 11
33.715552599
 21
45.6168492875
  0
LINE
  5
239
100
AcDbEntity
  8
0
100
AcDbLine
 62
7
  6
BYLAYER
 10
22.7155525978
 20
45.8168492875
 11
26.615552599
 21
45.8168492875
  0
LINE
  5
23A
100
AcDbEntity
  8
0
100
AcDbLine
 62
7
  6
BYLAYER
 10
33.215552599
 20
45.8168492875
 11
34.915552599
 21
45.8168492875
  0
LINE
  5
23B
100
AcDbEntity
  8
0
100
AcDbLine
 62
7
  6
BYLAYER
 10
36.7044458078
 20
46.6168492875
 11
18.8359702974
 21
46.6168492875
  0
LINE
  5
23C
100
AcDbEntity
  8
0
100
AcDbLine
 62
7
  6
BYLAYER
 10
19.6123375338
 20
49.7747734879
 11
20.5551590957
 21
49.6618492875
  0
LINE
  5
23D
100
AcDbEntity
  8
0
100
AcDbLine
 62
7
  6
BYLAYER
 10
33.215552599
 20
45.0168492875
 11
33.215552599
 21
45.8168492875
  0
LINE
  5
23E
100
AcDbEntity
  8
0
100
AcDbLine
 62
7
  6
BYLAYER
 10
33.8805191381
 20
38.080867149
 11
33.8805191381
 21
31.0443566787
  0
LINE
  5
23F
100
AcDbEntity
  8
0
100
AcDbLine
 62
7
  6
BYLAYER
 10
33.8805191381
 20
38.2110097528
 11
33.8805191381
 21
39.1304760933
  0
LINE
  5
240
100
AcDbEntity
  8
0
100
AcDbLine
 62
7
  6
BYLAYER
 10
33.8805191381
 20
44.7532224817
 11
33.8805191381
 21
45.6727143403
  0
LINE
  5
241
100
AcDbEntity
  8
0
100
AcDbLine
 62
7
  6
BYLAYER
 10
34.915552599
 20
45.8168492875
 11
34.915552599
 21
46.6168492875
  0
LINE
  5
242
100
AcDbEntity
  8
0
100
AcDbLine
 62
7
  6
BYLAYER
 10
35.7191053519
 20
31.0429092671
 11
35.7191053519
 21
46.6168492875
  0
LINE
  5
243
100
AcDbEntity
  8
0
100
AcDbLine
 62
7
  6
BYLAYER
 10
36.7044458078
 20
31.042133566
 11
36.7044458078
 21
46.6168492875
  0
LINE
  5
244
100
AcDbEntity
  8
0
100
AcDbLine
 62
7
  6
BYLAYER
 10
37.0655529171
 20
31.0418492875
 11
37.065552599
 21
30.7418492875
  0
LINE
  5
245
100
AcDbEntity
  8
0
100
AcDbLine
 62
7
  6
BYLAYER
 10
39.155552599
 20
82.2418492875
 11
39.155552599
 21
78.0658492875
  0
LINE
  5
246
100
AcDbEntity
  8
0
100
AcDbLine
 62
7
  6
BYLAYER
 10
33.715552599
 20
45.6168492875
 11
33.755552599
 21
45.8168492875
  0
LINE
  5
247
100
AcDbEntity
  8
0
100
AcDbLine
 62
7
  6
BYLAYER
 10
39.655552599
 20
78.0658492875
 11
39.655552599
 21
82.2418492875
  0
LINE
  5
248
100
AcDbEntity
  8
0
100
AcDbLine
 62
7
  6
BYLAYER
 10
40.528182884
 20
78.0658492875
 11
40.528182884
 21
82.2418492875
  0
LINE
  5
249
100
AcDbEntity
  8
0
100
AcDbLine
 62
7
  6
BYLAYER
 10
42.535552599
 20
95.5818492875
 11
42.535552599
 21
82.2418492875
  0
LINE
  5
24A
100
AcDbEntity
  8
0
100
AcDbLine
 62
7
  6
BYLAYER
 10
50.8893740046
 20
88.2418492875
 11
48.705552599
 21
82.2418492875
  0
LINE
  5
24B
100
AcDbEntity
  8
0
100
AcDbLine
 62
7
  6
BYLAYER
 10
20.5551753576
 20
56.0218492874
 11
19.6123375338
 21
55.9089250871
  0
LINE
  5
24C
100
AcDbEntity
  8
0
100
AcDbLine
 62
7
  6
BYLAYER
 10
21.4862118724
 20
57.7668492875
 11
13.8171517453
 21
57.7668492875
  0
LINE
  5
24D
100
AcDbEntity
  8
0
100
AcDbLine
 62
7
  6
BYLAYER
 10
15.1080070749
 20
60.1168492875
 11
10.0658422173
 21
60.1168492875
  0
LINE
  5
24E
100
AcDbEntity
  8
0
100
AcDbLine
 62
7
  6
BYLAYER
 10
44.835552599
 20
95.5818492875
 11
44.835552599
 21
82.2418492875
  0
LINE
  5
24F
100
AcDbEntity
  8
0
100
AcDbLine
 62
7
  6
BYLAYER
 10
10.0658422173
 20
64.9168492875
 11
15.1080070749
 21
64.9168492875
  0
LINE
  5
250
100
AcDbEntity
  8
0
100
AcDbLine
 62
7
  6
BYLAYER
 10
52.205552599
 20
82.2418492875
 11
52.205552599
 21
83.7418492875
  0
LINE
  5
251
100
AcDbEntity
  8
0
100
AcDbLine
 62
7
  6
BYLAYER
 10
53.705552599
 20
83.7418492875
 11
53.705552599
 21
88.2418492875
  0
LINE
  5
252
100
AcDbEntity
  8
0
100
AcDbLine
 62
7
  6
BYLAYER
 10
13.8238874614
 20
71.7918492875
 11
11.6289573185
 21
71.7918492875
  0
LINE
  5
253
100
AcDbEntity
  8
0
100
AcDbLine
 62
7
  6
BYLAYER
 10
78.635552599
 20
78.9668492875
 11
77.635552599
 21
78.0668492875
  0
LINE
  5
254
100
AcDbEntity
  8
0
100
AcDbLine
 62
7
  6
BYLAYER
 10
11.6289573185
 20
73.0918492875
 11
13.8245118058
 21
73.0918492875
  0
LINE
  5
255
100
AcDbEntity
  8
0
100
AcDbLine
 62
7
  6
BYLAYER
 10
15.1080067909
 20
73.8818492875
 11
10.3657418167
 21
73.8818492875
  0
LINE
  5
256
100
AcDbEntity
  8
0
100
AcDbLine
 62
7
  6
BYLAYER
 10
61.6129223147
 20
82.2418492875
 11
61.6129223147
 21
78.0658492875
  0
LINE
  5
257
100
AcDbEntity
  8
0
100
AcDbLine
 62
7
  6
BYLAYER
 10
10.3657418167
 20
76.8818492875
 11
15.1080067909
 21
76.8818492875
  0
LINE
  5
258
100
AcDbEntity
  8
0
100
AcDbLine
 62
7
  6
BYLAYER
 10
39.155552599
 20
78.0668492875
 11
80.635552599
 21
78.0668492875
  0
LINE
  5
259
100
AcDbEntity
  8
0
100
AcDbLine
 62
7
  6
BYLAYER
 10
62.485552599
 20
78.0658492875
 11
62.485552599
 21
81.7418492875
  0
LINE
  5
25A
100
AcDbEntity
  8
0
100
AcDbLine
 62
7
  6
BYLAYER
 10
13.8289062303
 20
82.2418492875
 11
61.985552599
 21
82.2418492875
  0
LINE
  5
25B
100
AcDbEntity
  8
0
100
AcDbLine
 62
7
  6
BYLAYER
 10
52.205552599
 20
83.7418492875
 11
53.705552599
 21
83.7418492875
  0
LINE
  5
25C
100
AcDbEntity
  8
0
100
AcDbLine
 62
7
  6
BYLAYER
 10
79.635552599
 20
84.2046946104
 11
80.635552599
 21
84.2046946104
  0
LINE
  5
25D
100
AcDbEntity
  8
0
100
AcDbLine
 62
7
  6
BYLAYER
 10
78.6351787029
 20
84.5178318396
 11
79.635552599
 21
84.5178318396
  0
LINE
  5
25E
100
AcDbEntity
  8
0
100
AcDbLine
 62
7
  6
BYLAYER
 10
79.635552599
 20
85.6848562797
 11
80.635552599
 21
85.6848562797
  0
LINE
  5
25F
100
AcDbEntity
  8
0
100
AcDbLine
 62
7
  6
BYLAYER
 10
78.6350807894
 20
86.0005356344
 11
79.635552599
 21
86.0005356344
  0
LINE
  5
260
100
AcDbEntity
  8
0
100
AcDbLine
 62
7
  6
BYLAYER
 10
53.705552599
 20
88.2418492875
 11
50.8893740046
 21
88.2418492875
  0
LINE
  5
261
100
AcDbEntity
  8
0
100
AcDbLine
 62
7
  6
BYLAYER
 10
77.535552599
 20
31.2418492875
 11
77.535552599
 21
32.2418492875
  0
LINE
  5
262
100
AcDbEntity
  8
0
100
AcDbLine
 62
7
  6
BYLAYER
 10
78.635552599
 20
78.9668492875
 11
78.6350788415
 21
86.0004059388
  0
LINE
  5
263
100
AcDbEntity
  8
0
100
AcDbLine
 62
7
  6
BYLAYER
 10
79.635552599
 20
86.0004064344
 11
79.635552599
 21
78.0668492875
  0
LINE
  5
264
100
AcDbEntity
  8
0
100
AcDbLine
 62
7
  6
BYLAYER
 10
80.635552599
 20
85.6843650207
 11
80.635552599
 21
35.0918492875
  0
LINE
  5
265
100
AcDbEntity
  8
0
100
AcDbLine
 62
7
  6
BYLAYER
 10
42.5355663426
 20
95.5818492875
 11
44.8355388553
 21
95.5818492875
  0
LINE
  5
266
100
AcDbEntity
  8
0
100
AcDbLine
 62
7
  6
BYLAYER
 10
77.835552599
 20
32.2918492875
 11
80.635552599
 21
35.0918492875
  0
ARC
  5
267
100
AcDbEntity
  8
0
100
AcDbCircle
 62
7
  6
BYLAYER
 10
-146.0828263041
 20
41.872499068
 40
179.9864002516
100
AcDbArc
 50
0.022076529
 51
0.9170714822
  0
ARC
  5
268
100
AcDbEntity
  8
0
100
AcDbCircle
 62
7
  6
BYLAYER
 10
-146.082826187
 20
42.011199506
 40
179.9864001344
100
AcDbArc
 50
359.0829285175
 51
359.9779234713
  0
ARC
  5
269
100
AcDbEntity
  8
0
100
AcDbCircle
 62
7
  6
BYLAYER
 10
28.3358573754
 20
56.7562908964
 40
11.1425083517
100
AcDbArc
 50
259.4676528847
 51
261.0853971526
  0
ARC
  5
26A
100
AcDbEntity
  8
0
100
AcDbCircle
 62
7
  6
BYLAYER
 10
20.5554873579
 20
54.4613332037
 40
1.5605327349
100
AcDbArc
 50
88.7827278536
 51
90.0084653725
  0
ARC
  5
26B
100
AcDbEntity
  8
0
100
AcDbCircle
 62
7
  6
BYLAYER
 10
61.9793156259
 20
81.7356123144
 40
0.5062753922
100
AcDbArc
 50
0.705863403
 51
89.2941365968
  0
ARC
  5
26C
100
AcDbEntity
  8
0
100
AcDbCircle
 62
7
  6
BYLAYER
 10
77.035552599
 20
31.2418492875
 40
0.5
100
AcDbArc
 50
270.0
 51
360.0
  0
ARC
  5
26D
100
AcDbEntity
  8
0
100
AcDbCircle
 62
7
  6
BYLAYER
 10
73.4355608186
 20
30.7418529047
 40
0.2000082196
100
AcDbArc
 50
180.0010362248
 51
270.3886918564
  0
ARC
  5
26E
100
AcDbEntity
  8
0
100
AcDbCircle
 62
7
  6
BYLAYER
 10
76.0355443794
 20
30.7418529047
 40
0.2000082196
100
AcDbArc
 50
269.6113081436
 51
359.9989637752
  0
SPLINE
  5
26F
100
AcDbEntity
  8
0
100
AcDbSpline
 62
7
  6
BYLAYER
 70
0
 71
3
 72
15
 73
11
 74
0
 42
0.0000001
 43
0.0000001
 44
0.0000000001
 40
0.0
 40
0.0
 40
0.0
 40
0.0
 40
0.0260619072
 40
0.0582198337
 40
0.1404912846
 40
0.2452927803
 40
0.3701654485
 40
0.5119889108
 40
0.6670400333
 40
1.0
 40
1.0
 40
1.0
 40
1.0
 10
34.866534898
 20
45.8203084472
 30
0.0
 10
34.881793328
 20
45.789886675
 30
0.0
 10
34.9111441958
 20
45.7195732822
 30
0.0
 10
34.9683949492
 20
45.5451766764
 30
0.0
 10
35.0342755465
 20
45.2661297808
 30
0.0
 10
35.1041293558
 20
44.864708316
 30
0.0
 10
35.1662026047
 20
44.3834147339
 30
0.0
 10
35.2178823204
 20
43.835004951
 30
0.0
 10
35.2707920219
 20
43.0141333225
 30
0.0
 10
35.2860997273
 20
42.3766568486
 30
0.0
 10
35.2860997273
 20
41.9418492875
 30
0.0
  0
SPLINE
  5
270
100
AcDbEntity
  8
0
100
AcDbSpline
 62
7
  6
BYLAYER
 70
0
 71
3
 72
22
 73
18
 74
0
 42
0.0000001
 43
0.0000001
 44
0.0000000001
 40
0.0
 40
0.0
 40
0.0
 40
0.0
 40
0.191337459
 40
0.3753330272
 40
0.5448549255
 40
0.6222184595
 40
0.6936726018
 40
0.7586017432
 40
0.8164344637
 40
0.8667115274
 40
0.9090416541
 40
0.9431941253
 40
0.9691493324
 40
0.9791765767
 40
0.9874160404
 40
0.994171127
 40
1.0
 40
1.0
 40
1.0
 40
1.0
 10
35.2860997273
 20
41.9418492875
 30
0.0
 10
35.2860997273
 20
41.6806220647
 30
0.0
 10
35.2785537245
 20
41.1681553644
 30
0.0
 10
35.2452207015
 20
40.4249217708
 30
0.0
 10
35.1997709481
 20
39.8382719042
 30
0.0
 10
35.1535118824
 20
39.4060943373
 30
0.0
 10
35.116190832
 20
39.1166419608
 30
0.0
 10
35.0758006161
 20
38.8545484042
 30
0.0
 10
35.0328986706
 20
38.6221843829
 30
0.0
 10
34.988149429
 20
38.4216797827
 30
0.0
 10
34.942223238
 20
38.2546888177
 30
0.0
 10
34.895722857
 20
38.1227180156
 30
0.0
 10
34.8543601934
 20
38.0358290118
 30
0.0
 10
34.81970982
 20
37.9861932756
 30
0.0
 10
34.7959239225
 20
37.9614065174
 30
0.0
 10
34.7717804088
 20
37.9457112481
 30
0.0
 10
34.75450616
 20
37.9418164337
 30
0.0
 10
34.7465481768
 20
37.9418167665
 30
0.0
  0
SPLINE
  5
271
100
AcDbEntity
  8
0
100
AcDbSpline
 62
7
  6
BYLAYER
 70
0
 71
3
 72
12
 73
8
 74
0
 42
0.0000001
 43
0.0000001
 44
0.0000000001
 40
0.0
 40
0.0
 40
0.0
 40
0.0
 40
0.3323406299
 40
0.629529735
 40
0.8601808819
 40
0.9426348124
 40
1.0
 40
1.0
 40
1.0
 40
1.0
 10
33.9605345527
 20
41.9418492875
 30
0.0
 10
33.9605345527
 20
42.3697024821
 30
0.0
 10
33.9555275388
 20
43.1801659687
 30
0.0
 10
33.9352435076
 20
44.2873925153
 30
0.0
 10
33.9121210032
 20
45.0727646215
 30
0.0
 10
33.8932052798
 20
45.5493312323
 30
0.0
 10
33.884710159
 20
45.7291385341
 30
0.0
 10
33.8805191381
 20
45.8028710941
 30
0.0
  0
SPLINE
  5
272
100
AcDbEntity
  8
0
100
AcDbSpline
 62
7
  6
BYLAYER
 70
0
 71
3
 72
12
 73
8
 74
0
 42
0.0000001
 43
0.0000001
 44
0.0000000001
 40
0.0
 40
0.0
 40
0.0
 40
0.0
 40
0.0573668565
 40
0.1398239245
 40
0.3704803941
 40
0.6676705331
 40
1.0
 40
1.0
 40
1.0
 40
1.0
 10
33.8805191381
 20
38.0808275106
 30
0.0
 10
33.8847102804
 20
38.1545622152
 30
0.0
 10
33.8932056703
 20
38.3343756984
 30
0.0
 10
33.9121217462
 20
38.8109553426
 30
0.0
 10
33.9352449717
 20
39.5963396517
 30
0.0
 10
33.955527956
 20
40.7035600272
 30
0.0
 10
33.9605345527
 20
41.5140104665
 30
0.0
 10
33.9605345527
 20
41.9418492875
 30
0.0
  0
SPLINE
  5
273
100
AcDbEntity
  8
0
100
AcDbSpline
 62
7
  6
BYLAYER
 70
0
 71
3
 72
22
 73
18
 74
0
 42
0.0000001
 43
0.0000001
 44
0.0000000001
 40
0.0
 40
0.0
 40
0.0
 40
0.0
 40
0.0057750914
 40
0.0123617779
 40
0.0203720641
 40
0.0301463352
 40
0.0555984643
 40
0.0893168794
 40
0.1313197656
 40
0.1813908853
 40
0.2391404256
 40
0.3041020413
 40
0.3756869534
 40
0.4532594915
 40
0.6233542775
 40
0.8080007102
 40
1.0
 40
1.0
 40
1.0
 40
1.0
 10
34.7465481768
 20
37.9418167665
 30
0.0
 10
34.7387037852
 20
37.9418170945
 30
0.0
 10
34.7217881801
 20
37.9456039522
 30
0.0
 10
34.6985164108
 20
37.9613290458
 30
0.0
 10
34.6762842987
 20
37.9861394023
 30
0.0
 10
34.6447126555
 20
38.0358660563
 30
0.0
 10
34.6087785193
 20
38.1229006646
 30
0.0
 10
34.5703053013
 20
38.2548903911
 30
0.0
 10
34.5341154016
 20
38.4220125725
 30
0.0
 10
34.5004608612
 20
38.6227563948
 30
0.0
 10
34.4695961587
 20
38.8554500452
 30
0.0
 10
34.4417518652
 20
39.117913954
 30
0.0
 10
34.4170065921
 20
39.4077175874
 30
0.0
 10
34.3874132012
 20
39.8403674743
 30
0.0
 10
34.359877078
 20
40.4270064555
 30
0.0
 10
34.3405333012
 20
41.1694377875
 30
0.0
 10
34.3362563864
 20
41.6810538268
 30
0.0
 10
34.3362563864
 20
41.9418492875
 30
0.0
  0
SPLINE
  5
274
100
AcDbEntity
  8
0
100
AcDbSpline
 62
7
  6
BYLAYER
 70
0
 71
3
 72
16
 73
12
 74
0
 42
0.0000001
 43
0.0000001
 44
0.0000000001
 40
0.0
 40
0.0
 40
0.0
 40
0.0
 40
0.3349622184
 40
0.4907856996
 40
0.6330854704
 40
0.7580010617
 40
0.8622892702
 40
0.9058889408
 40
0.9434512638
 40
0.9748295147
 40
1.0
 40
1.0
 40
1.0
 40
1.0
 10
34.3362563864
 20
41.9418492875
 30
0.0
 10
34.3362563864
 20
42.3783739067
 30
0.0
 10
34.3448743401
 20
43.0180451959
 30
0.0
 10
34.3767657813
 20
43.8425023828
 30
0.0
 10
34.4093328816
 20
44.3929040642
 30
0.0
 10
34.4508626504
 20
44.8753193104
 30
0.0
 10
34.4944801787
 20
45.2283243212
 30
0.0
 10
34.5354506868
 20
45.4665495216
 30
0.0
 10
34.5662127606
 20
45.6100182082
 30
0.0
 10
34.5986752317
 20
45.7283481982
 30
0.0
 10
34.6239911103
 20
45.7977581497
 30
0.0
 10
34.6375599789
 20
45.8276224718
 30
0.0
  0
SPLINE
  5
275
100
AcDbEntity
  8
0
100
AcDbSpline
 62
7
  6
BYLAYER
 70
0
 71
3
 72
15
 73
11
 74
0
 42
0.0000001
 43
0.0000001
 44
0.0000000001
 40
0.0
 40
0.0
 40
0.0
 40
0.0
 40
0.1573703729
 40
0.3008538586
 40
0.4300238577
 40
0.5472689281
 40
0.6572929776
 40
0.7662419013
 40
0.8794253759
 40
1.0
 40
1.0
 40
1.0
 40
1.0
 10
19.6123375338
 20
55.9089250871
 30
0.0
 10
19.5542151682
 20
55.8996313364
 30
0.0
 10
19.4436179304
 20
55.8781259214
 30
0.0
 10
19.2891658963
 20
55.8319517936
 30
0.0
 10
19.1561002542
 20
55.7707710236
 30
0.0
 10
19.0465396992
 20
55.6930456624
 30
0.0
 10
18.9629023467
 20
55.5974890836
 30
0.0
 10
18.9051520541
 20
55.4862439554
 30
0.0
 10
18.871506957
 20
55.3617650562
 30
0.0
 10
18.8629521802
 20
55.2744097258
 30
0.0
 10
18.8612695028
 20
55.2293430081
 30
0.0
  0
SPLINE
  5
276
100
AcDbEntity
  8
0
100
AcDbSpline
 62
7
  6
BYLAYER
 70
0
 71
3
 72
10
 73
6
 74
0
 42
0.0000001
 43
0.0000001
 44
0.0000000001
 40
0.0
 40
0.0
 40
0.0
 40
0.0
 40
0.2078406131
 40
0.4512700005
 40
1.0
 40
1.0
 40
1.0
 40
1.0
 10
18.8612695028
 20
55.2293430081
 30
0.0
 10
18.8576501651
 20
55.0639702503
 30
0.0
 10
18.8523036056
 20
54.7048540868
 30
0.0
 10
18.8459390247
 20
53.9090165748
 30
0.0
 10
18.8447443454
 20
53.2785624135
 30
0.0
 10
18.8447443454
 20
52.8418492875
 30
0.0
  0
SPLINE
  5
277
100
AcDbEntity
  8
0
100
AcDbSpline
 62
7
  6
BYLAYER
 70
0
 71
3
 72
10
 73
6
 74
0
 42
0.0000001
 43
0.0000001
 44
0.0000000001
 40
0.0
 40
0.0
 40
0.0
 40
0.0
 40
0.548730032
 40
0.7921594072
 40
1.0
 40
1.0
 40
1.0
 40
1.0
 10
18.8447443454
 20
52.8418492875
 30
0.0
 10
18.8447443454
 20
52.4051361084
 30
0.0
 10
18.8459390246
 20
51.7746818915
 30
0.0
 10
18.8523036074
 20
50.9788443299
 30
0.0
 10
18.8576501673
 20
50.6197281698
 30
0.0
 10
18.8612695055
 20
50.4543554178
 30
0.0
  0
SPLINE
  5
278
100
AcDbEntity
  8
0
100
AcDbSpline
 62
7
  6
BYLAYER
 70
0
 71
3
 72
15
 73
11
 74
0
 42
0.0000001
 43
0.0000001
 44
0.0000000001
 40
0.0
 40
0.0
 40
0.0
 40
0.0
 40
0.1205747002
 40
0.2337583709
 40
0.3427074853
 40
0.4527316293
 40
0.5699765993
 40
0.6991464668
 40
0.8426296797
 40
1.0
 40
1.0
 40
1.0
 40
1.0
 10
18.8612695055
 20
50.4543554178
 30
0.0
 10
18.8629521837
 20
50.4092886831
 30
0.0
 10
18.8715070512
 20
50.3219332805
 30
0.0
 10
18.9051522728
 20
50.1974542594
 30
0.0
 10
18.9629029233
 20
50.0862091352
 30
0.0
 10
19.0465404112
 20
49.9906526725
 30
0.0
 10
19.1561007418
 20
49.9129271372
 30
0.0
 10
19.2891663011
 20
49.8517466935
 30
0.0
 10
19.4436180845
 20
49.8055725158
 30
0.0
 10
19.5542152023
 20
49.7840672331
 30
0.0
 10
19.6123375338
 20
49.7747734879
 30
0.0
  0
ENDSEC
  0
SECTION
  2
OBJECTS
  0
DICTIONARY
  5
C
100
AcDbDictionary
280
0
281
1
  3
ACAD_GROUP
350
D
  3
ACAD_MLINESTYLE
350
17
  3
ACAD_LAYOUT
350
1A
  3
ACAD_PLOTSETTINGS
350
19
  3
ACAD_PLOTSTYLENAME
350
E
  0
DICTIONARY
  5
D
102
{ACAD_REACTORS
330
C
102
}
100
AcDbDictionary
280
0
281
1
  0
ACDBDICTIONARYWDFLT
  5
E
102
{ACAD_REACTORS
330
C
102
}
100
AcDbDictionary
281
1
  3
Normal
350
F
100
AcDbDictionaryWithDefault
340
F
  0
DICTIONARY
  5
17
102
{ACAD_REACTORS
330
C
102
}
100
AcDbDictionary
280
0
281
1
  3
Standard
350
18
  0
DICTIONARY
  5
19
102
{ACAD_REACTORS
330
C
102
}
100
AcDbDictionary
281
1
  0
DICTIONARY
  5
1A
102
{ACAD_REACTORS
330
C
102
}
100
AcDbDictionary
281
1
  3
Model
350
279
  3
Layout1
350
27A
  0
ACDBPLACEHOLDER
  5
F
102
{ACAD_REACTORS
330
E
102
}
  0
MLINESTYLE
  5
18
102
{ACAD_REACTORS
330
17
102
}
100
AcDbMlineStyle
  2
STANDARD
 70
0
  3

 62
256
 51
90.0
 52
90.0
 71
2
 49
0.5
 62
256
  6
BYLAYER
 49
-0.5
 62
256
  6
BYLAYER
  0
LAYOUT
  5
279
102
{ACAD_REACTORS
330
1A
102
}
100
AcDbPlotSettings
  1

  2
none_device
  4

  6

 40
0.0
 41
0.0
 42
0.0
 43
0.0
 44
210.0
 45
297.0
 46
0.0
 47
0.0
 48
0.0
 49
0.0
140
0.0
141
0.0
142
1.0
143
1.0
 70
1024
 72
1
 73
0
 74
0
  7

 75
0
147
1.0
148
0.0
149
0.0
100
AcDbLayout
  1
Model
 70
0
 71
0
 10
0.0
 20
0.0
 11
210.0
 21
297.0
 12
0.0
 22
0.0
 32
0.0
 14
0.0
 24
0.0
 34
0.0
 15
0.0
 25
0.0
 35
0.0
146
0.0
 13
0.0
 23
0.0
 33
0.0
 16
1.0
 26
0.0
 36
0.0
 17
0.0
 27
1.0
 37
0.0
 76
0
330
210
345
0
346
0
  0
LAYOUT
  5
27A
102
{ACAD_REACTORS
330
1A
102
}
100
AcDbPlotSettings
  1

  2
none_device
  4

  6

 40
0.0
 41
0.0
 42
0.0
 43
0.0
 44
210.0
 45
297.0
 46
0.0
 47
0.0
 48
0.0
 49
0.0
140
0.0
141
0.0
142
1.0
143
1.0
 70
0
 72
1
 73
0
 74
0
  7

 75
0
147
1.0
148
0.0
149
0.0
100
AcDbLayout
  1
Layout1
 70
0
 71
1
 10
0.0
 20
0.0
 11
210.0
 21
297.0
 12
0.0
 22
0.0
 32
0.0
 14
0.0
 24
0.0
 34
0.0
 15
0.0
 25
0.0
 35
0.0
146
0.0
 13
0.0
 23
0.0
 33
0.0
 16
1.0
 26
0.0
 36
0.0
 17
0.0
 27
1.0
 37
0.0
 76
0
330
211
345
0
346
0
  0
ENDSEC
  0
EOF
