999
DXF file: C:\Users\sesa63760\Dev\_Creo\CAD\MCADID0000553_3D-CAD\drw0001_7.dxf
999
Pro/ENGINEER 2019471 by Parametric Technology Corporation
  0
SECTION
  2
HEADER
  9
$ACADVER
  1
AC1024
  9
$DWGCODEPAGE
  3
ANSI_1252
  9
$EXTMAX
 10
232.329936816
 20
328.5809106398
 30
0.0
  9
$EXTMIN
 10
0.0
 20
0.0
 30
0.0
  9
$LIMMIN
 10
0.0
 20
0.0
  9
$LIMMAX
 10
232.329936816
 20
328.5809106398
  9
$VIEWCTR
 10
116.164968408
 20
164.2904553199
  9
$VIEWSIZE
 40
328.5809106398
  9
$CLAYER
  8
0
  9
$LTSCALE
 40
21.4186075084
  9
$CELTYPE
  6
BYLAYER
  9
$DIMSCALE
 40
1.0
  9
$DIMASZ
 40
2.7658325811
  9
$DIMEXO
 40
1.0
  9
$DIMDLI
 40
14.7983106421
  9
$DIMEXE
 40
1.0
  9
$DIMCEN
 40
3.5048630468
  9
$DIMLFAC
 40
1.0
  9
$DIMBLK
  1
_FILLED
  9
$DIMALT
 70
0
  9
$DIMALTF
 40
0.0393700787
  9
$DIMTXT
 40
3.8721656136
  9
$DIMTOL
 70
1
  9
$DIMLIM
 70
0
  9
$DIMTFAC
 40
1.0
  9
$DIMTP
 40
0.01
  9
$DIMTM
 40
0.01
  9
$DIMGAP
 40
0.625
  9
$DIMDSEP
 70
46
  9
$AUNITS
 70
0
  9
$PDMODE
 70
3
  9
$PDSIZE
 40
0.3125
  9
$HANDSEED
  5
2B5
  9
$TILEMODE
 70
1
  9
$MEASUREMENT
 70
1
  9
$INSUNITS
 70
4
  0
ENDSEC
  0
SECTION
  2
CLASSES
  0
CLASS
  1
ACDBDICTIONARYWDFLT
  2
AcDbDictionaryWithDefault
  3
AutoCAD 2000
 90
0
 91
1
280
0
281
0
  0
CLASS
  1
ACDBPLACEHOLDER
  2
AcDbPlaceHolder
  3
AutoCAD 2000
 90
0
 91
1
280
0
281
0
  0
CLASS
  1
LAYOUT
  2
AcDbLayout
  3
AutoCAD 2000
 90
0
 91
0
280
0
281
0
  0
ENDSEC
  0
SECTION
  2
TABLES
  0
TABLE
  2
VPORT
  5
8
100
AcDbSymbolTable
 70
2
  0
VPORT
  5
1F4
100
AcDbSymbolTableRecord
100
AcDbViewportTableRecord
  2
*ACTIVE
 70
0
 10
0.0
 20
0.0
 11
1.0
 21
1.0
 12
116.164968408
 22
164.2904553199
 13
0.0
 23
0.0
 14
1.0
 24
1.0
 15
0.0
 25
0.0
 16
0.0
 26
0.0
 36
1.0
 17
0.0
 27
0.0
 37
0.0
 40
328.5809106398
 41
0.7070707071
 42
50.0
 43
0.0
 44
0.0
 50
0.0
 51
0.0
 71
0
 72
100
 73
1
 74
1
 75
0
 76
0
 77
0
 78
0
  0
ENDTAB
  0
TABLE
  2
LTYPE
  5
5
100
AcDbSymbolTable
 70
6
  0
LTYPE
  5
14
100
AcDbSymbolTableRecord
100
AcDbLinetypeTableRecord
  2
BYBLOCK
 70
0
  3

 72
65
 73
0
 40
0.0
  0
LTYPE
  5
15
100
AcDbSymbolTableRecord
100
AcDbLinetypeTableRecord
  2
BYLAYER
 70
0
  3

 72
65
 73
0
 40
0.0
  0
LTYPE
  5
16
100
AcDbSymbolTableRecord
100
AcDbLinetypeTableRecord
  2
CONTINUOUS
 70
64
  3
Solid line
 72
65
 73
0
 40
0.0
  0
LTYPE
  5
1F5
100
AcDbSymbolTableRecord
100
AcDbLinetypeTableRecord
  2
CENTER
 70
64
  3
____ _ ____ _ ____ _ ____ _ ____ _ ____ _ ____
 72
65
 73
4
 40
0.6
 49
0.375
 74
0
 49
-0.075
 74
0
 49
0.075
 74
0
 49
-0.075
 74
0
  0
LTYPE
  5
1F6
100
AcDbSymbolTableRecord
100
AcDbLinetypeTableRecord
  2
HIDDEN
 70
64
  3
- - - - - - - - - - - - - - - - - - - -
 72
65
 73
2
 40
0.2
 49
0.1
 74
0
 49
-0.1
 74
0
  0
LTYPE
  5
1F7
100
AcDbSymbolTableRecord
100
AcDbLinetypeTableRecord
  2
PHANTOM
 70
64
  3
_____ _ _ _____ _ _ _____ _ _ _____
 72
65
 73
6
 40
0.8
 49
0.45
 74
0
 49
-0.05
 74
0
 49
0.1
 74
0
 49
-0.05
 74
0
 49
0.1
 74
0
 49
-0.05
 74
0
  0
LTYPE
  5
1F8
100
AcDbSymbolTableRecord
100
AcDbLinetypeTableRecord
  2
DOT
 70
64
  3
. . . . . . . . . . . . . . . . . . . .
 72
65
 73
2
 40
0.2
 49
0.1
 74
0
 49
-0.1
 74
0
  0
LTYPE
  5
1F9
100
AcDbSymbolTableRecord
100
AcDbLinetypeTableRecord
  2
DASHED
 70
64
  3
- - - - - - - - - - - - - - - - - - - -
 72
65
 73
2
 40
0.2
 49
0.1
 74
0
 49
-0.1
 74
0
  0
ENDTAB
  0
TABLE
  2
LAYER
  5
2
100
AcDbSymbolTable
 70
36
  0
LAYER
  5
10
100
AcDbSymbolTableRecord
100
AcDbLayerTableRecord
  2
0
 70
0
 62
7
  6
CONTINUOUS
370
-3
390
F
  0
LAYER
  5
1FA
100
AcDbSymbolTableRecord
100
AcDbLayerTableRecord
  2
DEFAULT_1
 70
0
 62
7
  6
CENTER
370
-3
390
F
  0
LAYER
  5
1FB
100
AcDbSymbolTableRecord
100
AcDbLayerTableRecord
  2
DEFAULT_2
 70
0
 62
8
  6
HIDDEN
370
-3
390
F
  0
LAYER
  5
1FC
100
AcDbSymbolTableRecord
100
AcDbLayerTableRecord
  2
DEFAULT_3
 70
0
 62
7
  6
PHANTOM
370
-3
390
F
  0
LAYER
  5
1FD
100
AcDbSymbolTableRecord
100
AcDbLayerTableRecord
  2
00_COMPONENTS
 70
0
 62
7
  6
CONTINUOUS
370
-3
390
F
  0
LAYER
  5
1FE
100
AcDbSymbolTableRecord
100
AcDbLayerTableRecord
  2
01_1_DEFAULT_DATUMS
 70
0
 62
7
  6
CONTINUOUS
370
-3
390
F
  0
LAYER
  5
1FF
100
AcDbSymbolTableRecord
100
AcDbLayerTableRecord
  2
01_PLANES
 70
0
 62
7
  6
CONTINUOUS
370
-3
390
F
  0
LAYER
  5
200
100
AcDbSymbolTableRecord
100
AcDbLayerTableRecord
  2
02_COORD_SYS
 70
0
 62
7
  6
CONTINUOUS
370
-3
390
F
  0
LAYER
  5
201
100
AcDbSymbolTableRecord
100
AcDbLayerTableRecord
  2
03_AXES
 70
0
 62
7
  6
CONTINUOUS
370
-3
390
F
  0
LAYER
  5
202
100
AcDbSymbolTableRecord
100
AcDbLayerTableRecord
  2
04_POINTS
 70
0
 62
7
  6
CONTINUOUS
370
-3
390
F
  0
LAYER
  5
203
100
AcDbSymbolTableRecord
100
AcDbLayerTableRecord
  2
05_CURVES
 70
0
 62
7
  6
CONTINUOUS
370
-3
390
F
  0
LAYER
  5
204
100
AcDbSymbolTableRecord
100
AcDbLayerTableRecord
  2
06_SURFS
 70
0
 62
7
  6
CONTINUOUS
370
-3
390
F
  0
LAYER
  5
205
100
AcDbSymbolTableRecord
100
AcDbLayerTableRecord
  2
07_COSMETICS
 70
0
 62
7
  6
CONTINUOUS
370
-3
390
F
  0
LAYER
  5
206
100
AcDbSymbolTableRecord
100
AcDbLayerTableRecord
  2
10_NOTES
 70
0
 62
7
  6
CONTINUOUS
370
-3
390
F
  0
LAYER
  5
207
100
AcDbSymbolTableRecord
100
AcDbLayerTableRecord
  2
11_NOTES_PUB
 70
0
 62
7
  6
CONTINUOUS
370
-3
390
F
  0
LAYER
  5
208
100
AcDbSymbolTableRecord
100
AcDbLayerTableRecord
  2
13_REF_GTOL
 70
0
 62
7
  6
CONTINUOUS
370
-3
390
F
  0
LAYER
  5
209
100
AcDbSymbolTableRecord
100
AcDbLayerTableRecord
  2
16_MISC
 70
0
 62
7
  6
CONTINUOUS
370
-3
390
F
  0
LAYER
  5
20A
100
AcDbSymbolTableRecord
100
AcDbLayerTableRecord
  2
17_NO_PRINT
 70
0
 62
7
  6
CONTINUOUS
370
-3
390
F
  0
LAYER
  5
20B
100
AcDbSymbolTableRecord
100
AcDbLayerTableRecord
  2
18_DATUM_CAMS_JOINTS
 70
0
 62
7
  6
CONTINUOUS
370
-3
390
F
  0
LAYER
  5
20C
100
AcDbSymbolTableRecord
100
AcDbLayerTableRecord
  2
19_DATUM_FUNCTIONAL
 70
0
 62
7
  6
CONTINUOUS
370
-3
390
F
  0
LAYER
  5
20D
100
AcDbSymbolTableRecord
100
AcDbLayerTableRecord
  2
20_DATUM_KINEMATIC_SCHEME
 70
0
 62
7
  6
CONTINUOUS
370
-3
390
F
  0
ENDTAB
  0
TABLE
  2
STYLE
  5
3
100
AcDbSymbolTable
 70
1
  0
STYLE
  5
11
100
AcDbSymbolTableRecord
100
AcDbTextStyleTableRecord
  2
STANDARD
 70
0
 40
0.0
 41
0.8
 50
0.0
 71
0
 42
0.2
  3
txt
  4

  0
STYLE
  5
20E
100
AcDbSymbolTableRecord
100
AcDbTextStyleTableRecord
  2
TEXTSTYLE_1
 70
0
 40
0.0
 41
0.8
 50
0.0
 71
0
 42
0.2
  3
gdt
  4

  0
ENDTAB
  0
TABLE
  2
VIEW
  5
6
100
AcDbSymbolTable
 70
0
  0
ENDTAB
  0
TABLE
  2
UCS
  5
7
100
AcDbSymbolTable
 70
0
  0
ENDTAB
  0
TABLE
  2
APPID
  5
9
100
AcDbSymbolTable
 70
1
  0
APPID
  5
20F
100
AcDbSymbolTableRecord
100
AcDbRegAppTableRecord
  2
ACAD
 70
0
  0
ENDTAB
  0
TABLE
  2
BLOCK_RECORD
  5
1
100
AcDbSymbolTable
 70
0
  0
BLOCK_RECORD
  5
210
100
AcDbSymbolTableRecord
100
AcDbBlockTableRecord
  2
*Model_Space
  0
BLOCK_RECORD
  5
211
100
AcDbSymbolTableRecord
100
AcDbBlockTableRecord
  2
*Paper_Space
  0
BLOCK_RECORD
  5
212
100
AcDbSymbolTableRecord
100
AcDbBlockTableRecord
  2
_FILLED
  0
ENDTAB
  0
TABLE
  2
DIMSTYLE
  5
A
100
AcDbSymbolTable
 70
1
100
AcDbDimStyleTable
 71
0
  0
DIMSTYLE
105
213
100
AcDbSymbolTableRecord
100
AcDbDimStyleTableRecord
  2
STANDARD
 70
0
  3

  4

 40
1.0
 41
2.7658325811
 42
1.0
 43
0.38
 44
1.0
 45
0.0
 46
0.0
 47
0.01
 48
0.01
140
3.8721656136
141
0.09
142
0.0
143
25.4
144
1.0
145
0.0
146
1.0
147
0.625
 71
1
 72
0
 73
0
 74
0
 75
0
 76
0
 77
1
 78
8
 79
2
170
0
171
1
172
0
173
0
174
0
175
0
176
0
177
0
178
0
270
2
179
2
271
2
272
2
273
2
274
2
275
0
280
0
281
0
282
0
283
1
284
8
285
0
286
0
287
3
288
0
340
11
278
46
341
212
342
212
343
212
344
212
  0
ENDTAB
  0
ENDSEC
  0
SECTION
  2
BLOCKS
  0
BLOCK
  5
20
100
AcDbEntity
  8
0
100
AcDbBlockBegin
  2
*Model_Space
 70
0
 10
0.0
 20
0.0
 30
0.0
  3
*Model_Space
  1

  0
ENDBLK
  5
21
100
AcDbEntity
  8
0
100
AcDbBlockEnd
  0
BLOCK
  5
1C
100
AcDbEntity
  8
0
100
AcDbBlockBegin
  2
*Paper_Space
 70
0
 10
0.0
 20
0.0
 30
0.0
  3
*Paper_Space
  1

  0
ENDBLK
  5
1D
100
AcDbEntity
  8
0
100
AcDbBlockEnd
  0
BLOCK
  5
214
100
AcDbEntity
  8
0
100
AcDbBlockBegin
  2
_FILLED
 70
64
 10
0.0
 20
0.0
  3
_FILLED
  1

  0
SOLID
  5
215
100
AcDbEntity
  8
0
  6
BYBLOCK
 62
0
100
AcDbTrace
 10
0.0
 20
0.0
 11
-1.0
 21
0.25
 12
-1.0
 22
-0.25
 13
-1.0
 23
-0.25
  0
ENDBLK
  5
216
100
AcDbEntity
  8
0
  6
BYBLOCK
 62
0
100
AcDbBlockEnd
  0
ENDSEC
  0
SECTION
  2
ENTITIES
  0
LINE
  5
217
100
AcDbEntity
  8
0
100
AcDbLine
 62
7
  6
CONTINUOUS
 10
24.6652364519
 20
139.2448149543
 11
24.6652364519
 21
196.4448149543
  0
LINE
  5
218
100
AcDbEntity
  8
0
100
AcDbLine
 62
7
  6
CONTINUOUS
 10
27.777395677
 20
139.2448149543
 11
27.777395677
 21
196.4448149543
  0
LINE
  5
219
100
AcDbEntity
  8
0
100
AcDbLine
 62
7
  6
CONTINUOUS
 10
28.4652364519
 20
139.2448149543
 11
28.4652364519
 21
196.4448149543
  0
LINE
  5
21A
100
AcDbEntity
  8
0
100
AcDbLine
 62
7
  6
CONTINUOUS
 10
29.4155430938
 20
139.2448149543
 11
29.4155430938
 21
196.4448149543
  0
LINE
  5
21B
100
AcDbEntity
  8
0
100
AcDbLine
 62
7
  6
CONTINUOUS
 10
32.1652364519
 20
139.2448149543
 11
32.1652364519
 21
142.7448149543
  0
LINE
  5
21C
100
AcDbEntity
  8
0
100
AcDbLine
 62
7
  6
CONTINUOUS
 10
32.1652364519
 20
192.9448149543
 11
32.1652364519
 21
196.4448149543
  0
LINE
  5
21D
100
AcDbEntity
  8
0
100
AcDbLine
 62
7
  6
CONTINUOUS
 10
38.1652364519
 20
196.4448149543
 11
38.1652364519
 21
192.9448149543
  0
LINE
  5
21E
100
AcDbEntity
  8
0
100
AcDbLine
 62
7
  6
CONTINUOUS
 10
38.1652364519
 20
142.7448149543
 11
38.1652364519
 21
139.2448149543
  0
LINE
  5
21F
100
AcDbEntity
  8
0
100
AcDbLine
 62
7
  6
CONTINUOUS
 10
41.1152364519
 20
137.2448149543
 11
41.1152364519
 21
139.2448149543
  0
LINE
  5
220
100
AcDbEntity
  8
0
100
AcDbLine
 62
7
  6
CONTINUOUS
 10
42.0504572896
 20
188.1197321719
 11
37.6915583461
 21
180.5698977367
  0
LINE
  5
221
100
AcDbEntity
  8
0
100
AcDbLine
 62
7
  6
CONTINUOUS
 10
37.6915583461
 20
155.1197321719
 11
42.0504572896
 21
147.5698977367
  0
LINE
  5
222
100
AcDbEntity
  8
0
100
AcDbLine
 62
7
  6
CONTINUOUS
 10
47.4152364519
 20
135.7448149543
 11
47.4152364519
 21
137.2448149543
  0
LINE
  5
223
100
AcDbEntity
  8
0
100
AcDbLine
 62
7
  6
CONTINUOUS
 10
47.9152364519
 20
133.7448149543
 11
47.9152364519
 21
135.7448149543
  0
LINE
  5
224
100
AcDbEntity
  8
0
100
AcDbLine
 62
7
  6
CONTINUOUS
 10
42.0504572896
 20
164.1197321719
 11
37.6915583461
 21
156.5698977367
  0
LINE
  5
225
100
AcDbEntity
  8
0
100
AcDbLine
 62
7
  6
CONTINUOUS
 10
45.4152712006
 20
186.9993698928
 11
40.5106815134
 21
182.0947802056
  0
LINE
  5
226
100
AcDbEntity
  8
0
100
AcDbLine
 62
7
  6
CONTINUOUS
 10
54.9152364519
 20
135.7448149543
 11
54.9152364519
 21
133.7448149543
  0
LINE
  5
227
100
AcDbEntity
  8
0
100
AcDbLine
 62
7
  6
CONTINUOUS
 10
55.4152364519
 20
137.2448149543
 11
55.4152364519
 21
135.7448149543
  0
LINE
  5
228
100
AcDbEntity
  8
0
100
AcDbLine
 62
7
  6
CONTINUOUS
 10
53.2800156142
 20
171.5698977367
 11
57.6389145577
 21
179.1197321719
  0
LINE
  5
229
100
AcDbEntity
  8
0
100
AcDbLine
 62
7
  6
CONTINUOUS
 10
37.6915583461
 20
179.1197321719
 11
42.0504572896
 21
171.5698977367
  0
LINE
  5
22A
100
AcDbEntity
  8
0
100
AcDbLine
 62
7
  6
CONTINUOUS
 10
60.1652364519
 20
133.7448149543
 11
59.9152364519
 21
135.1626354092
  0
LINE
  5
22B
100
AcDbEntity
  8
0
100
AcDbLine
 62
7
  6
CONTINUOUS
 10
59.9152364519
 20
137.2448149543
 11
59.9152364519
 21
135.1626354092
  0
LINE
  5
22C
100
AcDbEntity
  8
0
100
AcDbLine
 62
7
  6
CONTINUOUS
 10
64.1652364519
 20
152.2448149543
 11
64.1652364519
 21
168.2448149543
  0
LINE
  5
22D
100
AcDbEntity
  8
0
100
AcDbLine
 62
7
  6
CONTINUOUS
 10
64.6652364519
 20
162.2448034929
 11
64.6652364519
 21
158.2448264157
  0
LINE
  5
22E
100
AcDbEntity
  8
0
100
AcDbLine
 62
7
  6
CONTINUOUS
 10
49.9152017032
 20
172.6902600158
 11
54.8197913904
 21
177.594849703
  0
LINE
  5
22F
100
AcDbEntity
  8
0
100
AcDbLine
 62
7
  6
CONTINUOUS
 10
57.6389145577
 20
156.5698977367
 11
53.2800156142
 21
164.1197321719
  0
LINE
  5
230
100
AcDbEntity
  8
0
100
AcDbLine
 62
7
  6
CONTINUOUS
 10
66.6652364519
 20
166.7448149543
 11
66.6652364519
 21
153.7448149543
  0
LINE
  5
231
100
AcDbEntity
  8
0
100
AcDbLine
 62
7
  6
CONTINUOUS
 10
69.9152364519
 20
137.2448149543
 11
69.9152364519
 21
135.1626354092
  0
LINE
  5
232
100
AcDbEntity
  8
0
100
AcDbLine
 62
7
  6
CONTINUOUS
 10
53.2800156142
 20
147.5698977367
 11
57.6389145577
 21
155.1197321719
  0
LINE
  5
233
100
AcDbEntity
  8
0
100
AcDbLine
 62
7
  6
CONTINUOUS
 10
73.6652364519
 20
133.7448149543
 11
73.4152364519
 21
135.1626354092
  0
LINE
  5
234
100
AcDbEntity
  8
0
100
AcDbLine
 62
7
  6
CONTINUOUS
 10
73.4152364519
 20
137.2448149543
 11
73.4152364519
 21
135.1626354092
  0
LINE
  5
235
100
AcDbEntity
  8
0
100
AcDbLine
 62
7
  6
CONTINUOUS
 10
69.9152364519
 20
135.1626354092
 11
69.6652364519
 21
133.7448149543
  0
LINE
  5
236
100
AcDbEntity
  8
0
100
AcDbLine
 62
7
  6
CONTINUOUS
 10
64.1652364519
 20
152.2448149543
 11
72.5958933862
 21
145.1791215236
  0
LINE
  5
237
100
AcDbEntity
  8
0
100
AcDbLine
 62
7
  6
CONTINUOUS
 10
66.6652364519
 20
153.7448149543
 11
68.1652364519
 21
152.2448149543
  0
LINE
  5
238
100
AcDbEntity
  8
0
100
AcDbLine
 62
7
  6
CONTINUOUS
 10
57.6389145577
 20
180.5698977367
 11
53.2800156142
 21
188.1197321719
  0
LINE
  5
239
100
AcDbEntity
  8
0
100
AcDbLine
 62
7
  6
CONTINUOUS
 10
83.4152364519
 20
137.2448149543
 11
83.4152364519
 21
135.1626354092
  0
LINE
  5
23A
100
AcDbEntity
  8
0
100
AcDbLine
 62
7
  6
CONTINUOUS
 10
83.6652364519
 20
153.7448149543
 11
83.6652364519
 21
166.7448149543
  0
LINE
  5
23B
100
AcDbEntity
  8
0
100
AcDbLine
 62
7
  6
CONTINUOUS
 10
68.1652364519
 20
168.2448149543
 11
66.6652364519
 21
166.7448149543
  0
LINE
  5
23C
100
AcDbEntity
  8
0
100
AcDbLine
 62
7
  6
CONTINUOUS
 10
72.5958933862
 20
175.3105083849
 11
64.1652364519
 21
168.2448149543
  0
LINE
  5
23D
100
AcDbEntity
  8
0
100
AcDbLine
 62
7
  6
CONTINUOUS
 10
85.6652364519
 20
158.2448264157
 11
85.6652364519
 21
162.2448034929
  0
LINE
  5
23E
100
AcDbEntity
  8
0
100
AcDbLine
 62
7
  6
CONTINUOUS
 10
86.1652364519
 20
152.2448149543
 11
86.1652364519
 21
168.2448149543
  0
LINE
  5
23F
100
AcDbEntity
  8
0
100
AcDbLine
 62
7
  6
CONTINUOUS
 10
88.7152364519
 20
137.2448149543
 11
88.7152364519
 21
139.2448149543
  0
LINE
  5
240
100
AcDbEntity
  8
0
100
AcDbLine
 62
7
  6
CONTINUOUS
 10
91.1652364519
 20
139.2448149543
 11
91.1652364519
 21
142.7448149543
  0
LINE
  5
241
100
AcDbEntity
  8
0
100
AcDbLine
 62
7
  6
CONTINUOUS
 10
91.1652364519
 20
192.9448149543
 11
91.1652364519
 21
196.4448149543
  0
LINE
  5
242
100
AcDbEntity
  8
0
100
AcDbLine
 62
7
  6
CONTINUOUS
 10
83.4152364519
 20
135.1626354092
 11
83.1652364519
 21
133.7448149543
  0
LINE
  5
243
100
AcDbEntity
  8
0
100
AcDbLine
 62
7
  6
CONTINUOUS
 10
83.1652364519
 20
133.7448149543
 11
73.6652364519
 21
133.7448149543
  0
LINE
  5
244
100
AcDbEntity
  8
0
100
AcDbLine
 62
7
  6
CONTINUOUS
 10
69.6652364519
 20
133.7448149543
 11
60.1652364519
 21
133.7448149543
  0
LINE
  5
245
100
AcDbEntity
  8
0
100
AcDbLine
 62
7
  6
CONTINUOUS
 10
54.9152364519
 20
133.7448149543
 11
47.9152364519
 21
133.7448149543
  0
LINE
  5
246
100
AcDbEntity
  8
0
100
AcDbLine
 62
7
  6
CONTINUOUS
 10
55.4152364519
 20
135.7448149543
 11
47.4152364519
 21
135.7448149543
  0
LINE
  5
247
100
AcDbEntity
  8
0
100
AcDbLine
 62
7
  6
CONTINUOUS
 10
88.7152364519
 20
137.2448149543
 11
41.1152364519
 21
137.2448149543
  0
LINE
  5
248
100
AcDbEntity
  8
0
100
AcDbLine
 62
7
  6
CONTINUOUS
 10
24.6652428326
 20
139.2448149543
 11
188.4652364519
 21
139.2448149543
  0
LINE
  5
249
100
AcDbEntity
  8
0
100
AcDbLine
 62
7
  6
CONTINUOUS
 10
97.6652364519
 20
142.2448149543
 11
97.6652364519
 21
193.4448149543
  0
LINE
  5
24A
100
AcDbEntity
  8
0
100
AcDbLine
 62
7
  6
CONTINUOUS
 10
97.6652364519
 20
142.2448149543
 11
122.5650489116
 21
142.2448149543
  0
LINE
  5
24B
100
AcDbEntity
  8
0
100
AcDbLine
 62
7
  6
CONTINUOUS
 10
188.4652364519
 20
142.8448149543
 11
190.0652364519
 21
142.8448149543
  0
LINE
  5
24C
100
AcDbEntity
  8
0
100
AcDbLine
 62
7
  6
CONTINUOUS
 10
182.6652364519
 20
143.2448149543
 11
128.8652364519
 21
143.2448149543
  0
LINE
  5
24D
100
AcDbEntity
  8
0
100
AcDbLine
 62
7
  6
CONTINUOUS
 10
99.6652364519
 20
144.0448149543
 11
97.6652364519
 21
144.0448149543
  0
LINE
  5
24E
100
AcDbEntity
  8
0
100
AcDbLine
 62
7
  6
CONTINUOUS
 10
128.8652364519
 20
144.2448149543
 11
188.4652364519
 21
144.2448149543
  0
LINE
  5
24F
100
AcDbEntity
  8
0
100
AcDbLine
 62
7
  6
CONTINUOUS
 10
94.1652364519
 20
145.7448149543
 11
97.6652364519
 21
145.7448149543
  0
LINE
  5
250
100
AcDbEntity
  8
0
100
AcDbLine
 62
7
  6
CONTINUOUS
 10
83.6652364519
 20
166.7448149543
 11
82.1652364519
 21
168.2448149543
  0
LINE
  5
251
100
AcDbEntity
  8
0
100
AcDbLine
 62
7
  6
CONTINUOUS
 10
99.6652364519
 20
191.6448149543
 11
99.6652364519
 21
144.0448149543
  0
LINE
  5
252
100
AcDbEntity
  8
0
100
AcDbLine
 62
7
  6
CONTINUOUS
 10
101.1652364519
 20
158.3448149543
 11
101.1652364519
 21
150.3448149543
  0
LINE
  5
253
100
AcDbEntity
  8
0
100
AcDbLine
 62
7
  6
CONTINUOUS
 10
103.1652364519
 20
186.0948149543
 11
103.1652364519
 21
176.5948149543
  0
LINE
  5
254
100
AcDbEntity
  8
0
100
AcDbLine
 62
7
  6
CONTINUOUS
 10
103.1652364519
 20
172.5948149543
 11
103.1652364519
 21
163.0948149543
  0
LINE
  5
255
100
AcDbEntity
  8
0
100
AcDbLine
 62
7
  6
CONTINUOUS
 10
103.1652364519
 20
157.8448149543
 11
103.1652364519
 21
150.8448149543
  0
LINE
  5
256
100
AcDbEntity
  8
0
100
AcDbLine
 62
7
  6
CONTINUOUS
 10
82.1652364519
 20
152.2448149543
 11
83.6652364519
 21
153.7448149543
  0
LINE
  5
257
100
AcDbEntity
  8
0
100
AcDbLine
 62
7
  6
CONTINUOUS
 10
52.0241353954
 20
146.8448149543
 11
43.3063375084
 21
146.8448149543
  0
LINE
  5
258
100
AcDbEntity
  8
0
100
AcDbLine
 62
7
  6
CONTINUOUS
 10
128.8652364519
 20
148.8448149543
 11
182.6652364519
 21
148.8448149543
  0
LINE
  5
259
100
AcDbEntity
  8
0
100
AcDbLine
 62
7
  6
CONTINUOUS
 10
101.1652364519
 20
150.3448149543
 11
99.6652364519
 21
150.3448149543
  0
LINE
  5
25A
100
AcDbEntity
  8
0
100
AcDbLine
 62
7
  6
CONTINUOUS
 10
103.1652364519
 20
150.8448149543
 11
101.1652364519
 21
150.8448149543
  0
LINE
  5
25B
100
AcDbEntity
  8
0
100
AcDbLine
 62
7
  6
CONTINUOUS
 10
68.1652364519
 20
152.2448149543
 11
82.1652364519
 21
152.2448149543
  0
LINE
  5
25C
100
AcDbEntity
  8
0
100
AcDbLine
 62
7
  6
CONTINUOUS
 10
182.6652364519
 20
152.8448149543
 11
128.8652364519
 21
152.8448149543
  0
LINE
  5
25D
100
AcDbEntity
  8
0
100
AcDbLine
 62
7
  6
CONTINUOUS
 10
86.1652364519
 20
168.2448149543
 11
77.7345795176
 21
175.3105083849
  0
LINE
  5
25E
100
AcDbEntity
  8
0
100
AcDbLine
 62
7
  6
CONTINUOUS
 10
77.7345795176
 20
145.1791215236
 11
86.1652364519
 21
152.2448149543
  0
LINE
  5
25F
100
AcDbEntity
  8
0
100
AcDbLine
 62
7
  6
CONTINUOUS
 10
101.1652364519
 20
157.8448149543
 11
103.1652364519
 21
157.8448149543
  0
LINE
  5
260
100
AcDbEntity
  8
0
100
AcDbLine
 62
7
  6
CONTINUOUS
 10
64.1652364519
 20
158.2448149543
 11
64.6652364519
 21
158.2448149543
  0
LINE
  5
261
100
AcDbEntity
  8
0
100
AcDbLine
 62
7
  6
CONTINUOUS
 10
85.6652364519
 20
158.2448149543
 11
86.1652364519
 21
158.2448149543
  0
LINE
  5
262
100
AcDbEntity
  8
0
100
AcDbLine
 62
7
  6
CONTINUOUS
 10
99.6652364519
 20
158.3448149543
 11
101.1652364519
 21
158.3448149543
  0
LINE
  5
263
100
AcDbEntity
  8
0
100
AcDbLine
 62
7
  6
CONTINUOUS
 10
64.6652364519
 20
158.7448149543
 11
66.6652364519
 21
158.7448149543
  0
LINE
  5
264
100
AcDbEntity
  8
0
100
AcDbLine
 62
7
  6
CONTINUOUS
 10
83.6652364519
 20
158.7448149543
 11
85.6652364519
 21
158.7448149543
  0
LINE
  5
265
100
AcDbEntity
  8
0
100
AcDbLine
 62
7
  6
CONTINUOUS
 10
111.6652364519
 20
196.4448149543
 11
111.6652364519
 21
139.2448149543
  0
LINE
  5
266
100
AcDbEntity
  8
0
100
AcDbLine
 62
7
  6
CONTINUOUS
 10
103.1652364519
 20
163.0948149543
 11
101.747415997
 21
162.8448149543
  0
LINE
  5
267
100
AcDbEntity
  8
0
100
AcDbLine
 62
7
  6
CONTINUOUS
 10
64.6652364519
 20
161.7448149543
 11
66.6652364519
 21
161.7448149543
  0
LINE
  5
268
100
AcDbEntity
  8
0
100
AcDbLine
 62
7
  6
CONTINUOUS
 10
83.6652364519
 20
161.7448149543
 11
85.6652364519
 21
161.7448149543
  0
LINE
  5
269
100
AcDbEntity
  8
0
100
AcDbLine
 62
7
  6
CONTINUOUS
 10
64.1652364519
 20
162.2448149543
 11
64.6652364519
 21
162.2448149543
  0
LINE
  5
26A
100
AcDbEntity
  8
0
100
AcDbLine
 62
7
  6
CONTINUOUS
 10
85.6652364519
 20
162.2448149543
 11
86.1652364519
 21
162.2448149543
  0
LINE
  5
26B
100
AcDbEntity
  8
0
100
AcDbLine
 62
7
  6
CONTINUOUS
 10
99.6652364519
 20
162.8448149543
 11
101.747415997
 21
162.8448149543
  0
LINE
  5
26C
100
AcDbEntity
  8
0
100
AcDbLine
 62
7
  6
CONTINUOUS
 10
190.0652364519
 20
163.3448149543
 11
208.4652364519
 21
163.3448149543
  0
LINE
  5
26D
100
AcDbEntity
  8
0
100
AcDbLine
 62
7
  6
CONTINUOUS
 10
43.3063375084
 20
164.8448149543
 11
52.0241353954
 21
164.8448149543
  0
LINE
  5
26E
100
AcDbEntity
  8
0
100
AcDbLine
 62
7
  6
CONTINUOUS
 10
122.5650489116
 20
196.4448149543
 11
122.5650489116
 21
193.4448149543
  0
LINE
  5
26F
100
AcDbEntity
  8
0
100
AcDbLine
 62
7
  6
CONTINUOUS
 10
122.5650489116
 20
142.2448149543
 11
122.5650489116
 21
139.2448149543
  0
LINE
  5
270
100
AcDbEntity
  8
0
100
AcDbLine
 62
7
  6
CONTINUOUS
 10
82.1652364519
 20
168.2448149543
 11
68.1652364519
 21
168.2448149543
  0
LINE
  5
271
100
AcDbEntity
  8
0
100
AcDbLine
 62
7
  6
CONTINUOUS
 10
52.0241353954
 20
170.8448149543
 11
43.3063375084
 21
170.8448149543
  0
LINE
  5
272
100
AcDbEntity
  8
0
100
AcDbLine
 62
7
  6
CONTINUOUS
 10
190.0652364519
 20
172.3448149543
 11
208.4652364519
 21
172.3448149543
  0
LINE
  5
273
100
AcDbEntity
  8
0
100
AcDbLine
 62
7
  6
CONTINUOUS
 10
101.747415997
 20
172.8448149543
 11
103.1652364519
 21
172.5948149543
  0
LINE
  5
274
100
AcDbEntity
  8
0
100
AcDbLine
 62
7
  6
CONTINUOUS
 10
128.8652364519
 20
139.2448149543
 11
128.8652364519
 21
196.4448149543
  0
LINE
  5
275
100
AcDbEntity
  8
0
100
AcDbLine
 62
7
  6
CONTINUOUS
 10
103.1652364519
 20
176.5948149543
 11
101.747415997
 21
176.3448149543
  0
LINE
  5
276
100
AcDbEntity
  8
0
100
AcDbLine
 62
7
  6
CONTINUOUS
 10
99.6652364519
 20
172.8448149543
 11
101.747415997
 21
172.8448149543
  0
LINE
  5
277
100
AcDbEntity
  8
0
100
AcDbLine
 62
7
  6
CONTINUOUS
 10
99.6652364519
 20
176.3448149543
 11
101.747415997
 21
176.3448149543
  0
LINE
  5
278
100
AcDbEntity
  8
0
100
AcDbLine
 62
7
  6
CONTINUOUS
 10
122.5650489116
 20
142.2448149543
 11
128.8652364519
 21
151.1546256193
  0
LINE
  5
279
100
AcDbEntity
  8
0
100
AcDbLine
 62
7
  6
CONTINUOUS
 10
128.8652364519
 20
182.8448149543
 11
182.6652364519
 21
182.8448149543
  0
LINE
  5
27A
100
AcDbEntity
  8
0
100
AcDbLine
 62
7
  6
CONTINUOUS
 10
101.747415997
 20
186.3448149543
 11
103.1652364519
 21
186.0948149543
  0
LINE
  5
27B
100
AcDbEntity
  8
0
100
AcDbLine
 62
7
  6
CONTINUOUS
 10
99.6652364519
 20
186.3448149543
 11
101.747415997
 21
186.3448149543
  0
LINE
  5
27C
100
AcDbEntity
  8
0
100
AcDbLine
 62
7
  6
CONTINUOUS
 10
182.6652364519
 20
186.8448149543
 11
128.8652364519
 21
186.8448149543
  0
LINE
  5
27D
100
AcDbEntity
  8
0
100
AcDbLine
 62
7
  6
CONTINUOUS
 10
43.3063375084
 20
188.8448149543
 11
52.0241353954
 21
188.8448149543
  0
LINE
  5
27E
100
AcDbEntity
  8
0
100
AcDbLine
 62
7
  6
CONTINUOUS
 10
97.6652364519
 20
189.9448149543
 11
94.1652364519
 21
189.9448149543
  0
LINE
  5
27F
100
AcDbEntity
  8
0
100
AcDbLine
 62
7
  6
CONTINUOUS
 10
128.8652364519
 20
191.4448149543
 11
188.4652364519
 21
191.4448149543
  0
LINE
  5
280
100
AcDbEntity
  8
0
100
AcDbLine
 62
7
  6
CONTINUOUS
 10
99.6652364519
 20
191.6448149543
 11
97.6652364519
 21
191.6448149543
  0
LINE
  5
281
100
AcDbEntity
  8
0
100
AcDbLine
 62
7
  6
CONTINUOUS
 10
122.5650489116
 20
193.4448149543
 11
128.8652364519
 21
184.5350042893
  0
LINE
  5
282
100
AcDbEntity
  8
0
100
AcDbLine
 62
7
  6
CONTINUOUS
 10
128.8652364519
 20
192.4448149543
 11
182.6652364519
 21
192.4448149543
  0
LINE
  5
283
100
AcDbEntity
  8
0
100
AcDbLine
 62
7
  6
CONTINUOUS
 10
188.4652364519
 20
192.8448149543
 11
190.0652364519
 21
192.8448149543
  0
LINE
  5
284
100
AcDbEntity
  8
0
100
AcDbLine
 62
7
  6
CONTINUOUS
 10
97.6652364519
 20
193.4448149543
 11
122.5650489116
 21
193.4448149543
  0
LINE
  5
285
100
AcDbEntity
  8
0
100
AcDbLine
 62
7
  6
CONTINUOUS
 10
24.6652428326
 20
196.4448149543
 11
188.4652364519
 21
196.4448149543
  0
LINE
  5
286
100
AcDbEntity
  8
0
100
AcDbLine
 62
7
  6
CONTINUOUS
 10
169.8652364519
 20
196.4448149543
 11
169.8652364519
 21
139.2448149543
  0
LINE
  5
287
100
AcDbEntity
  8
0
100
AcDbLine
 62
7
  6
CONTINUOUS
 10
182.6652364519
 20
139.2448149543
 11
182.6652364519
 21
152.8448149543
  0
LINE
  5
288
100
AcDbEntity
  8
0
100
AcDbLine
 62
7
  6
CONTINUOUS
 10
182.6652364519
 20
182.8448149543
 11
182.6652364519
 21
196.4448149543
  0
LINE
  5
289
100
AcDbEntity
  8
0
100
AcDbLine
 62
7
  6
CONTINUOUS
 10
188.4652364519
 20
196.4448149543
 11
188.4652364519
 21
139.2448149543
  0
LINE
  5
28A
100
AcDbEntity
  8
0
100
AcDbLine
 62
7
  6
CONTINUOUS
 10
190.0652364519
 20
192.8448010908
 11
190.0652364519
 21
142.8448288178
  0
LINE
  5
28B
100
AcDbEntity
  8
0
100
AcDbLine
 62
7
  6
CONTINUOUS
 10
208.4652364519
 20
172.3448100441
 11
208.4652364519
 21
163.3448198645
  0
ARC
  5
28C
100
AcDbEntity
  8
0
100
AcDbCircle
 62
7
  6
CONTINUOUS
 10
47.6652364519
 20
155.8448149543
 40
10.0
100
AcDbArc
 50
235.8419327632
 51
244.1580672368
  0
ARC
  5
28D
100
AcDbEntity
  8
0
100
AcDbCircle
 62
7
  6
CONTINUOUS
 10
47.6652364519
 20
155.8448149543
 40
10.0
100
AcDbArc
 50
295.8419327632
 51
304.1580672368
  0
ARC
  5
28E
100
AcDbEntity
  8
0
100
AcDbCircle
 62
7
  6
CONTINUOUS
 10
47.6652364519
 20
155.8448149543
 40
10.0
100
AcDbArc
 50
355.8419327632
 51
4.1580672368
  0
ARC
  5
28F
100
AcDbEntity
  8
0
100
AcDbCircle
 62
7
  6
CONTINUOUS
 10
47.6652364519
 20
155.8448149543
 40
10.0
100
AcDbArc
 50
55.8419327632
 51
64.1580672368
  0
ARC
  5
290
100
AcDbEntity
  8
0
100
AcDbCircle
 62
7
  6
CONTINUOUS
 10
47.6652364519
 20
155.8448149543
 40
10.0
100
AcDbArc
 50
115.8419327632
 51
124.1580672368
  0
ARC
  5
291
100
AcDbEntity
  8
0
100
AcDbCircle
 62
7
  6
CONTINUOUS
 10
47.6652364519
 20
155.8448149543
 40
10.0
100
AcDbArc
 50
175.8419327632
 51
184.1580672368
  0
CIRCLE
  5
292
100
AcDbEntity
  8
0
100
AcDbCircle
 62
7
  6
CONTINUOUS
 10
47.6652364519
 20
155.8448149543
 40
7.5
  0
CIRCLE
  5
293
100
AcDbEntity
  8
0
100
AcDbCircle
 62
7
  6
CONTINUOUS
 10
47.6652364519
 20
155.8448149543
 40
6.0
  0
CIRCLE
  5
294
100
AcDbEntity
  8
0
100
AcDbCircle
 62
7
  6
CONTINUOUS
 10
47.6652364519
 20
155.8448149543
 40
5.25
  0
CIRCLE
  5
295
100
AcDbEntity
  8
0
100
AcDbCircle
 62
7
  6
CONTINUOUS
 10
35.1652364519
 20
142.7448149543
 40
3.0
  0
ARC
  5
296
100
AcDbEntity
  8
0
100
AcDbCircle
 62
7
  6
CONTINUOUS
 10
47.6652364519
 20
179.8448149543
 40
10.0
100
AcDbArc
 50
115.8419327632
 51
124.1580672368
  0
ARC
  5
297
100
AcDbEntity
  8
0
100
AcDbCircle
 62
7
  6
CONTINUOUS
 10
47.6652364519
 20
179.8448149543
 40
10.0
100
AcDbArc
 50
175.8419327632
 51
184.1580672368
  0
ARC
  5
298
100
AcDbEntity
  8
0
100
AcDbCircle
 62
7
  6
CONTINUOUS
 10
47.6652364519
 20
179.8448149543
 40
10.0
100
AcDbArc
 50
235.8419327632
 51
244.1580672368
  0
ARC
  5
299
100
AcDbEntity
  8
0
100
AcDbCircle
 62
7
  6
CONTINUOUS
 10
47.6652364519
 20
179.8448149543
 40
10.0
100
AcDbArc
 50
295.8419327632
 51
304.1580672368
  0
ARC
  5
29A
100
AcDbEntity
  8
0
100
AcDbCircle
 62
7
  6
CONTINUOUS
 10
47.6652364519
 20
179.8448149543
 40
10.0
100
AcDbArc
 50
355.8419327632
 51
4.1580672368
  0
ARC
  5
29B
100
AcDbEntity
  8
0
100
AcDbCircle
 62
7
  6
CONTINUOUS
 10
47.6652364519
 20
179.8448149543
 40
10.0
100
AcDbArc
 50
55.8419327632
 51
64.1580672368
  0
ARC
  5
29C
100
AcDbEntity
  8
0
100
AcDbCircle
 62
7
  6
CONTINUOUS
 10
47.6652364519
 20
179.8448149543
 40
7.5
100
AcDbArc
 50
162.5426751545
 51
287.4573248455
  0
ARC
  5
29D
100
AcDbEntity
  8
0
100
AcDbCircle
 62
7
  6
CONTINUOUS
 10
47.6652364519
 20
179.8448149543
 40
7.5
100
AcDbArc
 50
342.5426751545
 51
107.4573248455
  0
ARC
  5
29E
100
AcDbEntity
  8
0
100
AcDbCircle
 62
7
  6
CONTINUOUS
 10
47.6652364519
 20
179.8448149543
 40
6.75
100
AcDbArc
 50
144.8746877614
 51
305.1253122386
  0
ARC
  5
29F
100
AcDbEntity
  8
0
100
AcDbCircle
 62
7
  6
CONTINUOUS
 10
47.6652364519
 20
179.8448149543
 40
6.75
100
AcDbArc
 50
324.8746877614
 51
125.1253122386
  0
CIRCLE
  5
2A0
100
AcDbEntity
  8
0
100
AcDbCircle
 62
7
  6
CONTINUOUS
 10
47.6652364519
 20
179.8448149543
 40
4.0
  0
CIRCLE
  5
2A1
100
AcDbEntity
  8
0
100
AcDbCircle
 62
7
  6
CONTINUOUS
 10
35.1652364519
 20
192.9448149543
 40
3.0
  0
ARC
  5
2A2
100
AcDbEntity
  8
0
100
AcDbCircle
 62
7
  6
CONTINUOUS
 10
75.1652364519
 20
148.2448149543
 40
4.0
100
AcDbArc
 50
230.0337869562
 51
309.9662130438
  0
ARC
  5
2A3
100
AcDbEntity
  8
0
100
AcDbCircle
 62
7
  6
CONTINUOUS
 10
94.6652364519
 20
142.2448149543
 40
3.0
100
AcDbArc
 50
270.0
 51
360.0
  0
CIRCLE
  5
2A4
100
AcDbEntity
  8
0
100
AcDbCircle
 62
7
  6
CONTINUOUS
 10
94.1652364519
 20
142.7448149543
 40
3.0
  0
CIRCLE
  5
2A5
100
AcDbEntity
  8
0
100
AcDbCircle
 62
7
  6
CONTINUOUS
 10
75.1652364519
 20
148.2448149543
 40
3.0
  0
CIRCLE
  5
2A6
100
AcDbEntity
  8
0
100
AcDbCircle
 62
7
  6
CONTINUOUS
 10
86.6652364519
 20
189.2448149543
 40
4.0
  0
ARC
  5
2A7
100
AcDbEntity
  8
0
100
AcDbCircle
 62
7
  6
CONTINUOUS
 10
75.1652364519
 20
172.2448149543
 40
4.0
100
AcDbArc
 50
50.0337869562
 51
129.9662130438
  0
ARC
  5
2A8
100
AcDbEntity
  8
0
100
AcDbCircle
 62
7
  6
CONTINUOUS
 10
94.6652364519
 20
193.4448149543
 40
3.0
100
AcDbArc
 50
0.0
 51
90.0
  0
CIRCLE
  5
2A9
100
AcDbEntity
  8
0
100
AcDbCircle
 62
7
  6
CONTINUOUS
 10
94.1652364519
 20
192.9448149543
 40
3.0
  0
CIRCLE
  5
2AA
100
AcDbEntity
  8
0
100
AcDbCircle
 62
7
  6
CONTINUOUS
 10
75.1652364519
 20
172.2448149543
 40
3.0
  0
SPLINE
  5
2AB
100
AcDbEntity
  8
0
100
AcDbSpline
 62
7
  6
CONTINUOUS
 70
0
 71
3
 72
27
 73
23
 74
0
 42
0.0000001
 43
0.0000001
 44
0.0000000001
 40
0.0
 40
0.0
 40
0.0
 40
0.0
 40
0.0647901975
 40
0.1293282942
 40
0.1935222812
 40
0.2572246469
 40
0.320183851
 40
0.3819582168
 40
0.4122378247
 40
0.4419809881
 40
0.4711770607
 40
0.4999990224
 40
0.5288209078
 40
0.5580172261
 40
0.5877606271
 40
0.6180403309
 40
0.6798148102
 40
0.742774607
 40
0.8064772738
 40
0.8706714467
 40
0.9352096989
 40
1.0
 40
1.0
 40
1.0
 40
1.0
 10
99.6671942344
 20
182.1560545988
 30
0.0
 10
99.7786254835
 20
182.2028832022
 30
0.0
 10
99.9998688451
 20
182.2992236016
 30
0.0
 10
100.3261417996
 20
182.4539697897
 30
0.0
 10
100.6439292125
 20
182.621252282
 30
0.0
 10
100.9494398174
 20
182.8046779953
 30
0.0
 10
101.2357323927
 20
183.0093750152
 30
0.0
 10
101.4499473576
 20
183.2058288332
 30
0.0
 10
101.5919545349
 20
183.3838820336
 30
0.0
 10
101.6770709722
 20
183.5277315742
 30
0.0
 10
101.7338828423
 20
183.6825209758
 30
0.0
 10
101.7541466437
 20
183.8448778488
 30
0.0
 10
101.7338516847
 20
184.0072309385
 30
0.0
 10
101.6770160956
 20
184.1620119771
 30
0.0
 10
101.5918815479
 20
184.3058518151
 30
0.0
 10
101.4498571207
 20
184.4838918882
 30
0.0
 10
101.2356328517
 20
184.6803368862
 30
0.0
 10
100.9493293535
 20
184.8850219956
 30
0.0
 10
100.6438131337
 20
185.0684418593
 30
0.0
 10
100.3260217669
 20
185.2357194756
 30
0.0
 10
99.99974587
 20
185.3904613035
 30
0.0
 10
99.7785013705
 20
185.4868003084
 30
0.0
 10
99.6670693494
 20
185.5336275734
 30
0.0
  0
SPLINE
  5
2AC
100
AcDbEntity
  8
0
100
AcDbSpline
 62
7
  6
CONTINUOUS
 70
0
 71
3
 72
27
 73
23
 74
0
 42
0.0000001
 43
0.0000001
 44
0.0000000001
 40
0.0
 40
0.0
 40
0.0
 40
0.0
 40
0.0647901975
 40
0.1293282942
 40
0.1935222812
 40
0.2572246469
 40
0.320183851
 40
0.3819582168
 40
0.4122378247
 40
0.4419809881
 40
0.4711770607
 40
0.4999990224
 40
0.5288209078
 40
0.5580172261
 40
0.5877606271
 40
0.6180403309
 40
0.6798148102
 40
0.742774607
 40
0.8064772738
 40
0.8706714467
 40
0.9352096989
 40
1.0
 40
1.0
 40
1.0
 40
1.0
 10
99.6671942344
 20
163.6560545988
 30
0.0
 10
99.7786254835
 20
163.7028832022
 30
0.0
 10
99.9998688451
 20
163.7992236016
 30
0.0
 10
100.3261417996
 20
163.9539697897
 30
0.0
 10
100.6439292125
 20
164.121252282
 30
0.0
 10
100.9494398174
 20
164.3046779953
 30
0.0
 10
101.2357323927
 20
164.5093750152
 30
0.0
 10
101.4499473576
 20
164.7058288332
 30
0.0
 10
101.5919545349
 20
164.8838820336
 30
0.0
 10
101.6770709722
 20
165.0277315742
 30
0.0
 10
101.7338828423
 20
165.1825209758
 30
0.0
 10
101.7541466437
 20
165.3448778488
 30
0.0
 10
101.7338516847
 20
165.5072309385
 30
0.0
 10
101.6770160956
 20
165.6620119771
 30
0.0
 10
101.5918815479
 20
165.8058518151
 30
0.0
 10
101.4498571207
 20
165.9838918882
 30
0.0
 10
101.2356328517
 20
166.1803368862
 30
0.0
 10
100.9493293535
 20
166.3850219956
 30
0.0
 10
100.6438131337
 20
166.5684418593
 30
0.0
 10
100.3260217669
 20
166.7357194756
 30
0.0
 10
99.99974587
 20
166.8904613035
 30
0.0
 10
99.7785013705
 20
166.9868003084
 30
0.0
 10
99.6670693494
 20
167.0336275734
 30
0.0
  0
SPLINE
  5
2AD
100
AcDbEntity
  8
0
100
AcDbSpline
 62
7
  6
CONTINUOUS
 70
0
 71
3
 72
27
 73
23
 74
0
 42
0.0000001
 43
0.0000001
 44
0.0000000001
 40
0.0
 40
0.0
 40
0.0
 40
0.0
 40
0.0647901975
 40
0.1293282942
 40
0.1935222812
 40
0.2572246469
 40
0.320183851
 40
0.3819582168
 40
0.4122378247
 40
0.4419809881
 40
0.4711770607
 40
0.4999990224
 40
0.5288209078
 40
0.5580172261
 40
0.5877606271
 40
0.6180403309
 40
0.6798148102
 40
0.742774607
 40
0.8064772738
 40
0.8706714467
 40
0.9352096989
 40
1.0
 40
1.0
 40
1.0
 40
1.0
 10
99.6671942344
 20
177.1560545988
 30
0.0
 10
99.7786254835
 20
177.2028832022
 30
0.0
 10
99.9998688451
 20
177.2992236016
 30
0.0
 10
100.3261417996
 20
177.4539697897
 30
0.0
 10
100.6439292125
 20
177.621252282
 30
0.0
 10
100.9494398174
 20
177.8046779953
 30
0.0
 10
101.2357323927
 20
178.0093750152
 30
0.0
 10
101.4499473576
 20
178.2058288332
 30
0.0
 10
101.5919545349
 20
178.3838820336
 30
0.0
 10
101.6770709722
 20
178.5277315742
 30
0.0
 10
101.7338828423
 20
178.6825209758
 30
0.0
 10
101.7541466437
 20
178.8448778488
 30
0.0
 10
101.7338516847
 20
179.0072309385
 30
0.0
 10
101.6770160956
 20
179.1620119771
 30
0.0
 10
101.5918815479
 20
179.3058518151
 30
0.0
 10
101.4498571207
 20
179.4838918882
 30
0.0
 10
101.2356328517
 20
179.6803368862
 30
0.0
 10
100.9493293535
 20
179.8850219956
 30
0.0
 10
100.6438131337
 20
180.0684418593
 30
0.0
 10
100.3260217669
 20
180.2357194756
 30
0.0
 10
99.99974587
 20
180.3904613035
 30
0.0
 10
99.7785013705
 20
180.4868003084
 30
0.0
 10
99.6670693494
 20
180.5336275734
 30
0.0
  0
SPLINE
  5
2AE
100
AcDbEntity
  8
0
100
AcDbSpline
 62
7
  6
CONTINUOUS
 70
0
 71
3
 72
27
 73
23
 74
0
 42
0.0000001
 43
0.0000001
 44
0.0000000001
 40
0.0
 40
0.0
 40
0.0
 40
0.0
 40
0.0647901975
 40
0.1293282942
 40
0.1935222812
 40
0.2572246469
 40
0.320183851
 40
0.3819582168
 40
0.4122378247
 40
0.4419809881
 40
0.4711770607
 40
0.4999990224
 40
0.5288209078
 40
0.5580172261
 40
0.5877606271
 40
0.6180403309
 40
0.6798148102
 40
0.742774607
 40
0.8064772738
 40
0.8706714467
 40
0.9352096989
 40
1.0
 40
1.0
 40
1.0
 40
1.0
 10
99.6671942344
 20
168.6560545988
 30
0.0
 10
99.7786254835
 20
168.7028832022
 30
0.0
 10
99.9998688451
 20
168.7992236016
 30
0.0
 10
100.3261417996
 20
168.9539697897
 30
0.0
 10
100.6439292125
 20
169.121252282
 30
0.0
 10
100.9494398174
 20
169.3046779953
 30
0.0
 10
101.2357323927
 20
169.5093750152
 30
0.0
 10
101.4499473576
 20
169.7058288332
 30
0.0
 10
101.5919545349
 20
169.8838820336
 30
0.0
 10
101.6770709722
 20
170.0277315742
 30
0.0
 10
101.7338828423
 20
170.1825209758
 30
0.0
 10
101.7541466437
 20
170.3448778488
 30
0.0
 10
101.7338516847
 20
170.5072309385
 30
0.0
 10
101.6770160956
 20
170.6620119771
 30
0.0
 10
101.5918815479
 20
170.8058518151
 30
0.0
 10
101.4498571207
 20
170.9838918882
 30
0.0
 10
101.2356328517
 20
171.1803368862
 30
0.0
 10
100.9493293535
 20
171.3850219956
 30
0.0
 10
100.6438131337
 20
171.5684418593
 30
0.0
 10
100.3260217669
 20
171.7357194756
 30
0.0
 10
99.99974587
 20
171.8904613035
 30
0.0
 10
99.7785013705
 20
171.9868003084
 30
0.0
 10
99.6670693494
 20
172.0336275734
 30
0.0
  0
SPLINE
  5
2AF
100
AcDbEntity
  8
0
100
AcDbSpline
 62
7
  6
CONTINUOUS
 70
0
 71
3
 72
27
 73
23
 74
0
 42
0.0000001
 43
0.0000001
 44
0.0000000001
 40
0.0
 40
0.0
 40
0.0
 40
0.0
 40
0.0647901901
 40
0.1293282787
 40
0.1935222571
 40
0.2572246119
 40
0.3201838013
 40
0.3819581792
 40
0.4122378005
 40
0.4419809843
 40
0.4711770688
 40
0.4999990467
 40
0.5288209372
 40
0.5580172668
 40
0.5877606831
 40
0.6180403915
 40
0.6798148764
 40
0.7427746508
 40
0.8064773035
 40
0.8706714655
 40
0.9352097075
 40
1.0
 40
1.0
 40
1.0
 40
1.0
 10
79.226476955
 20
137.2428551218
 30
0.0
 10
79.2733055289
 20
137.1314240126
 30
0.0
 10
79.3696458342
 20
136.9101809174
 30
0.0
 10
79.5243918987
 20
136.5839083719
 30
0.0
 10
79.6916742367
 20
136.2661213623
 30
0.0
 10
79.875099757
 20
135.9606111475
 30
0.0
 10
80.0797966444
 20
135.6743189673
 30
0.0
 10
80.2762501963
 20
135.460104148
 30
0.0
 10
80.4543032673
 20
135.3180970501
 30
0.0
 10
80.5981527091
 20
135.2329806283
 30
0.0
 10
80.7529419952
 20
135.1761686886
 30
0.0
 10
80.9152987406
 20
135.1559047757
 30
0.0
 10
81.0776517449
 20
135.1761995369
 30
0.0
 10
81.2324327195
 20
135.2330349765
 30
0.0
 10
81.3762725469
 20
135.3181693079
 30
0.0
 10
81.554312598
 20
135.4601934668
 30
0.0
 10
81.7507574
 20
135.6744174741
 30
0.0
 10
81.9554425024
 20
135.9607204471
 30
0.0
 10
82.1388622203
 20
136.2662362223
 30
0.0
 10
82.3061397343
 20
136.5840271418
 30
0.0
 10
82.4608814855
 20
136.9103025964
 30
0.0
 10
82.5572204134
 20
137.1315468155
 30
0.0
 10
82.6040476616
 20
137.2429786889
 30
0.0
  0
SPLINE
  5
2B0
100
AcDbEntity
  8
0
100
AcDbSpline
 62
7
  6
CONTINUOUS
 70
0
 71
3
 72
27
 73
23
 74
0
 42
0.0000001
 43
0.0000001
 44
0.0000000001
 40
0.0
 40
0.0
 40
0.0
 40
0.0
 40
0.0647901901
 40
0.1293282787
 40
0.1935222571
 40
0.2572246119
 40
0.3201838013
 40
0.3819581792
 40
0.4122378005
 40
0.4419809843
 40
0.4711770688
 40
0.4999990467
 40
0.5288209372
 40
0.5580172668
 40
0.5877606831
 40
0.6180403915
 40
0.6798148764
 40
0.7427746508
 40
0.8064773035
 40
0.8706714655
 40
0.9352097075
 40
1.0
 40
1.0
 40
1.0
 40
1.0
 10
60.726476955
 20
137.2428551218
 30
0.0
 10
60.7733055289
 20
137.1314240126
 30
0.0
 10
60.8696458342
 20
136.9101809174
 30
0.0
 10
61.0243918987
 20
136.5839083719
 30
0.0
 10
61.1916742367
 20
136.2661213623
 30
0.0
 10
61.375099757
 20
135.9606111475
 30
0.0
 10
61.5797966444
 20
135.6743189673
 30
0.0
 10
61.7762501963
 20
135.460104148
 30
0.0
 10
61.9543032673
 20
135.3180970501
 30
0.0
 10
62.0981527091
 20
135.2329806283
 30
0.0
 10
62.2529419952
 20
135.1761686886
 30
0.0
 10
62.4152987406
 20
135.1559047757
 30
0.0
 10
62.5776517449
 20
135.1761995369
 30
0.0
 10
62.7324327195
 20
135.2330349765
 30
0.0
 10
62.8762725469
 20
135.3181693079
 30
0.0
 10
63.054312598
 20
135.4601934668
 30
0.0
 10
63.2507574
 20
135.6744174741
 30
0.0
 10
63.4554425024
 20
135.9607204471
 30
0.0
 10
63.6388622203
 20
136.2662362223
 30
0.0
 10
63.8061397343
 20
136.5840271418
 30
0.0
 10
63.9608814855
 20
136.9103025964
 30
0.0
 10
64.0572204134
 20
137.1315468155
 30
0.0
 10
64.1040476616
 20
137.2429786889
 30
0.0
  0
SPLINE
  5
2B1
100
AcDbEntity
  8
0
100
AcDbSpline
 62
7
  6
CONTINUOUS
 70
0
 71
3
 72
27
 73
23
 74
0
 42
0.0000001
 43
0.0000001
 44
0.0000000001
 40
0.0
 40
0.0
 40
0.0
 40
0.0
 40
0.0647901901
 40
0.1293282787
 40
0.1935222571
 40
0.2572246119
 40
0.3201838013
 40
0.3819581792
 40
0.4122378005
 40
0.4419809843
 40
0.4711770688
 40
0.4999990467
 40
0.5288209372
 40
0.5580172668
 40
0.5877606831
 40
0.6180403915
 40
0.6798148764
 40
0.7427746508
 40
0.8064773035
 40
0.8706714655
 40
0.9352097075
 40
1.0
 40
1.0
 40
1.0
 40
1.0
 10
74.226476955
 20
137.2428551218
 30
0.0
 10
74.2733055289
 20
137.1314240126
 30
0.0
 10
74.3696458342
 20
136.9101809174
 30
0.0
 10
74.5243918987
 20
136.5839083719
 30
0.0
 10
74.6916742367
 20
136.2661213623
 30
0.0
 10
74.875099757
 20
135.9606111475
 30
0.0
 10
75.0797966444
 20
135.6743189673
 30
0.0
 10
75.2762501963
 20
135.460104148
 30
0.0
 10
75.4543032673
 20
135.3180970501
 30
0.0
 10
75.5981527091
 20
135.2329806283
 30
0.0
 10
75.7529419952
 20
135.1761686886
 30
0.0
 10
75.9152987406
 20
135.1559047757
 30
0.0
 10
76.0776517449
 20
135.1761995369
 30
0.0
 10
76.2324327195
 20
135.2330349765
 30
0.0
 10
76.3762725469
 20
135.3181693079
 30
0.0
 10
76.554312598
 20
135.4601934668
 30
0.0
 10
76.7507574
 20
135.6744174741
 30
0.0
 10
76.9554425024
 20
135.9607204471
 30
0.0
 10
77.1388622203
 20
136.2662362223
 30
0.0
 10
77.3061397343
 20
136.5840271418
 30
0.0
 10
77.4608814855
 20
136.9103025964
 30
0.0
 10
77.5572204134
 20
137.1315468155
 30
0.0
 10
77.6040476616
 20
137.2429786889
 30
0.0
  0
SPLINE
  5
2B2
100
AcDbEntity
  8
0
100
AcDbSpline
 62
7
  6
CONTINUOUS
 70
0
 71
3
 72
27
 73
23
 74
0
 42
0.0000001
 43
0.0000001
 44
0.0000000001
 40
0.0
 40
0.0
 40
0.0
 40
0.0
 40
0.0647901901
 40
0.1293282787
 40
0.1935222571
 40
0.2572246119
 40
0.3201838013
 40
0.3819581792
 40
0.4122378005
 40
0.4419809843
 40
0.4711770688
 40
0.4999990467
 40
0.5288209372
 40
0.5580172668
 40
0.5877606831
 40
0.6180403915
 40
0.6798148764
 40
0.7427746508
 40
0.8064773035
 40
0.8706714655
 40
0.9352097075
 40
1.0
 40
1.0
 40
1.0
 40
1.0
 10
65.726476955
 20
137.2428551218
 30
0.0
 10
65.7733055289
 20
137.1314240126
 30
0.0
 10
65.8696458342
 20
136.9101809174
 30
0.0
 10
66.0243918987
 20
136.5839083719
 30
0.0
 10
66.1916742367
 20
136.2661213623
 30
0.0
 10
66.375099757
 20
135.9606111475
 30
0.0
 10
66.5797966444
 20
135.6743189673
 30
0.0
 10
66.7762501963
 20
135.460104148
 30
0.0
 10
66.9543032673
 20
135.3180970501
 30
0.0
 10
67.0981527091
 20
135.2329806283
 30
0.0
 10
67.2529419952
 20
135.1761686886
 30
0.0
 10
67.4152987406
 20
135.1559047757
 30
0.0
 10
67.5776517449
 20
135.1761995369
 30
0.0
 10
67.7324327195
 20
135.2330349765
 30
0.0
 10
67.8762725469
 20
135.3181693079
 30
0.0
 10
68.054312598
 20
135.4601934668
 30
0.0
 10
68.2507574
 20
135.6744174741
 30
0.0
 10
68.4554425024
 20
135.9607204471
 30
0.0
 10
68.6388622203
 20
136.2662362223
 30
0.0
 10
68.8061397343
 20
136.5840271418
 30
0.0
 10
68.9608814855
 20
136.9103025964
 30
0.0
 10
69.0572204134
 20
137.1315468155
 30
0.0
 10
69.1040476616
 20
137.2429786889
 30
0.0
  0
ENDSEC
  0
SECTION
  2
OBJECTS
  0
DICTIONARY
  5
C
100
AcDbDictionary
280
0
281
1
  3
ACAD_GROUP
350
D
  3
ACAD_MLINESTYLE
350
17
  3
ACAD_LAYOUT
350
1A
  3
ACAD_PLOTSETTINGS
350
19
  3
ACAD_PLOTSTYLENAME
350
E
  0
DICTIONARY
  5
D
102
{ACAD_REACTORS
330
C
102
}
100
AcDbDictionary
280
0
281
1
  0
ACDBDICTIONARYWDFLT
  5
E
102
{ACAD_REACTORS
330
C
102
}
100
AcDbDictionary
281
1
  3
Normal
350
F
100
AcDbDictionaryWithDefault
340
F
  0
DICTIONARY
  5
17
102
{ACAD_REACTORS
330
C
102
}
100
AcDbDictionary
280
0
281
1
  3
Standard
350
18
  0
DICTIONARY
  5
19
102
{ACAD_REACTORS
330
C
102
}
100
AcDbDictionary
281
1
  0
DICTIONARY
  5
1A
102
{ACAD_REACTORS
330
C
102
}
100
AcDbDictionary
281
1
  3
Model
350
2B3
  3
Layout1
350
2B4
  0
ACDBPLACEHOLDER
  5
F
102
{ACAD_REACTORS
330
E
102
}
  0
MLINESTYLE
  5
18
102
{ACAD_REACTORS
330
17
102
}
100
AcDbMlineStyle
  2
STANDARD
 70
0
  3

 62
256
 51
90.0
 52
90.0
 71
2
 49
0.5
 62
256
  6
BYLAYER
 49
-0.5
 62
256
  6
BYLAYER
  0
LAYOUT
  5
2B3
102
{ACAD_REACTORS
330
1A
102
}
100
AcDbPlotSettings
  1

  2
none_device
  4

  6

 40
0.0
 41
0.0
 42
0.0
 43
0.0
 44
210.0
 45
297.0
 46
0.0
 47
0.0
 48
0.0
 49
0.0
140
0.0
141
0.0
142
1.0
143
1.0
 70
1024
 72
1
 73
0
 74
0
  7

 75
0
147
1.0
148
0.0
149
0.0
100
AcDbLayout
  1
Model
 70
0
 71
0
 10
0.0
 20
0.0
 11
210.0
 21
297.0
 12
0.0
 22
0.0
 32
0.0
 14
0.0
 24
0.0
 34
0.0
 15
0.0
 25
0.0
 35
0.0
146
0.0
 13
0.0
 23
0.0
 33
0.0
 16
1.0
 26
0.0
 36
0.0
 17
0.0
 27
1.0
 37
0.0
 76
0
330
210
345
0
346
0
  0
LAYOUT
  5
2B4
102
{ACAD_REACTORS
330
1A
102
}
100
AcDbPlotSettings
  1

  2
none_device
  4

  6

 40
0.0
 41
0.0
 42
0.0
 43
0.0
 44
210.0
 45
297.0
 46
0.0
 47
0.0
 48
0.0
 49
0.0
140
0.0
141
0.0
142
1.0
143
1.0
 70
0
 72
1
 73
0
 74
0
  7

 75
0
147
1.0
148
0.0
149
0.0
100
AcDbLayout
  1
Layout1
 70
0
 71
1
 10
0.0
 20
0.0
 11
210.0
 21
297.0
 12
0.0
 22
0.0
 32
0.0
 14
0.0
 24
0.0
 34
0.0
 15
0.0
 25
0.0
 35
0.0
146
0.0
 13
0.0
 23
0.0
 33
0.0
 16
1.0
 26
0.0
 36
0.0
 17
0.0
 27
1.0
 37
0.0
 76
0
330
211
345
0
346
0
  0
ENDSEC
  0
EOF
