999
DXF file: C:\Users\sesa63760\Dev\_Creo\CAD\MCADID0003391_3D-CAD\drw0001_1.dxf
999
Pro/ENGINEER 2019471 by Parametric Technology Corporation
  0
SECTION
  2
HEADER
  9
$ACADVER
  1
AC1024
  9
$DWGCODEPAGE
  3
ANSI_1252
  9
$EXTMAX
 10
63.7657572871
 20
90.1829995918
 30
0.0
  9
$EXTMIN
 10
0.0
 20
0.0
 30
0.0
  9
$LIMMIN
 10
0.0
 20
0.0
  9
$LIMMAX
 10
63.7657572871
 20
90.1829995918
  9
$VIEWCTR
 10
31.8828786436
 20
45.0914997959
  9
$VIEWSIZE
 40
90.1829995918
  9
$CLAYER
  8
0
  9
$LTSCALE
 40
5.8785955289
  9
$CELTYPE
  6
BYLAYER
  9
$DIMSCALE
 40
1.0
  9
$DIMASZ
 40
0.7591161582
  9
$DIMEXO
 40
1.0
  9
$DIMDLI
 40
4.0615750927
  9
$DIMEXE
 40
1.0
  9
$DIMCEN
 40
0.9619519956
  9
$DIMLFAC
 40
1.0
  9
$DIMBLK
  1
_FILLED
  9
$DIMALT
 70
0
  9
$DIMALTF
 40
0.0393700787
  9
$DIMTXT
 40
1.0627626215
  9
$DIMTOL
 70
1
  9
$DIMLIM
 70
0
  9
$DIMTFAC
 40
1.0
  9
$DIMTP
 40
0.01
  9
$DIMTM
 40
0.01
  9
$DIMGAP
 40
0.625
  9
$DIMDSEP
 70
46
  9
$AUNITS
 70
0
  9
$PDMODE
 70
3
  9
$PDSIZE
 40
0.3125
  9
$HANDSEED
  5
356
  9
$TILEMODE
 70
1
  9
$MEASUREMENT
 70
1
  9
$INSUNITS
 70
4
  0
ENDSEC
  0
SECTION
  2
CLASSES
  0
CLASS
  1
ACDBDICTIONARYWDFLT
  2
AcDbDictionaryWithDefault
  3
AutoCAD 2000
 90
0
 91
1
280
0
281
0
  0
CLASS
  1
ACDBPLACEHOLDER
  2
AcDbPlaceHolder
  3
AutoCAD 2000
 90
0
 91
1
280
0
281
0
  0
CLASS
  1
LAYOUT
  2
AcDbLayout
  3
AutoCAD 2000
 90
0
 91
0
280
0
281
0
  0
ENDSEC
  0
SECTION
  2
TABLES
  0
TABLE
  2
VPORT
  5
8
100
AcDbSymbolTable
 70
2
  0
VPORT
  5
1F4
100
AcDbSymbolTableRecord
100
AcDbViewportTableRecord
  2
*ACTIVE
 70
0
 10
0.0
 20
0.0
 11
1.0
 21
1.0
 12
31.8828786436
 22
45.0914997959
 13
0.0
 23
0.0
 14
1.0
 24
1.0
 15
0.0
 25
0.0
 16
0.0
 26
0.0
 36
1.0
 17
0.0
 27
0.0
 37
0.0
 40
90.1829995918
 41
0.7070707071
 42
50.0
 43
0.0
 44
0.0
 50
0.0
 51
0.0
 71
0
 72
100
 73
1
 74
1
 75
0
 76
0
 77
0
 78
0
  0
ENDTAB
  0
TABLE
  2
LTYPE
  5
5
100
AcDbSymbolTable
 70
6
  0
LTYPE
  5
14
100
AcDbSymbolTableRecord
100
AcDbLinetypeTableRecord
  2
BYBLOCK
 70
0
  3

 72
65
 73
0
 40
0.0
  0
LTYPE
  5
15
100
AcDbSymbolTableRecord
100
AcDbLinetypeTableRecord
  2
BYLAYER
 70
0
  3

 72
65
 73
0
 40
0.0
  0
LTYPE
  5
16
100
AcDbSymbolTableRecord
100
AcDbLinetypeTableRecord
  2
CONTINUOUS
 70
64
  3
Solid line
 72
65
 73
0
 40
0.0
  0
LTYPE
  5
1F5
100
AcDbSymbolTableRecord
100
AcDbLinetypeTableRecord
  2
CENTER
 70
64
  3
____ _ ____ _ ____ _ ____ _ ____ _ ____ _ ____
 72
65
 73
4
 40
0.6
 49
0.375
 74
0
 49
-0.075
 74
0
 49
0.075
 74
0
 49
-0.075
 74
0
  0
LTYPE
  5
1F6
100
AcDbSymbolTableRecord
100
AcDbLinetypeTableRecord
  2
HIDDEN
 70
64
  3
- - - - - - - - - - - - - - - - - - - -
 72
65
 73
2
 40
0.2
 49
0.1
 74
0
 49
-0.1
 74
0
  0
LTYPE
  5
1F7
100
AcDbSymbolTableRecord
100
AcDbLinetypeTableRecord
  2
PHANTOM
 70
64
  3
_____ _ _ _____ _ _ _____ _ _ _____
 72
65
 73
6
 40
0.8
 49
0.45
 74
0
 49
-0.05
 74
0
 49
0.1
 74
0
 49
-0.05
 74
0
 49
0.1
 74
0
 49
-0.05
 74
0
  0
LTYPE
  5
1F8
100
AcDbSymbolTableRecord
100
AcDbLinetypeTableRecord
  2
DOT
 70
64
  3
. . . . . . . . . . . . . . . . . . . .
 72
65
 73
2
 40
0.2
 49
0.1
 74
0
 49
-0.1
 74
0
  0
LTYPE
  5
1F9
100
AcDbSymbolTableRecord
100
AcDbLinetypeTableRecord
  2
DASHED
 70
64
  3
- - - - - - - - - - - - - - - - - - - -
 72
65
 73
2
 40
0.2
 49
0.1
 74
0
 49
-0.1
 74
0
  0
ENDTAB
  0
TABLE
  2
LAYER
  5
2
100
AcDbSymbolTable
 70
36
  0
LAYER
  5
10
100
AcDbSymbolTableRecord
100
AcDbLayerTableRecord
  2
0
 70
0
 62
7
  6
CONTINUOUS
370
-3
390
F
  0
LAYER
  5
1FA
100
AcDbSymbolTableRecord
100
AcDbLayerTableRecord
  2
DEFAULT_1
 70
0
 62
7
  6
CENTER
370
-3
390
F
  0
LAYER
  5
1FB
100
AcDbSymbolTableRecord
100
AcDbLayerTableRecord
  2
DEFAULT_2
 70
0
 62
7
  6
HIDDEN
370
-3
390
F
  0
LAYER
  5
1FC
100
AcDbSymbolTableRecord
100
AcDbLayerTableRecord
  2
DEFAULT_3
 70
0
 62
7
  6
PHANTOM
370
-3
390
F
  0
LAYER
  5
1FD
100
AcDbSymbolTableRecord
100
AcDbLayerTableRecord
  2
00_COMPONENTS
 70
0
 62
7
  6
CONTINUOUS
370
-3
390
F
  0
LAYER
  5
1FE
100
AcDbSymbolTableRecord
100
AcDbLayerTableRecord
  2
01_1_DEFAULT_DATUMS
 70
0
 62
7
  6
CONTINUOUS
370
-3
390
F
  0
LAYER
  5
1FF
100
AcDbSymbolTableRecord
100
AcDbLayerTableRecord
  2
01_PLANES
 70
0
 62
7
  6
CONTINUOUS
370
-3
390
F
  0
LAYER
  5
200
100
AcDbSymbolTableRecord
100
AcDbLayerTableRecord
  2
02_COORD_SYS
 70
0
 62
7
  6
CONTINUOUS
370
-3
390
F
  0
LAYER
  5
201
100
AcDbSymbolTableRecord
100
AcDbLayerTableRecord
  2
03_AXES
 70
0
 62
7
  6
CONTINUOUS
370
-3
390
F
  0
LAYER
  5
202
100
AcDbSymbolTableRecord
100
AcDbLayerTableRecord
  2
04_POINTS
 70
0
 62
7
  6
CONTINUOUS
370
-3
390
F
  0
LAYER
  5
203
100
AcDbSymbolTableRecord
100
AcDbLayerTableRecord
  2
05_CURVES
 70
0
 62
7
  6
CONTINUOUS
370
-3
390
F
  0
LAYER
  5
204
100
AcDbSymbolTableRecord
100
AcDbLayerTableRecord
  2
06_SURFS
 70
0
 62
7
  6
CONTINUOUS
370
-3
390
F
  0
LAYER
  5
205
100
AcDbSymbolTableRecord
100
AcDbLayerTableRecord
  2
07_COSMETICS
 70
0
 62
7
  6
CONTINUOUS
370
-3
390
F
  0
LAYER
  5
206
100
AcDbSymbolTableRecord
100
AcDbLayerTableRecord
  2
10_NOTES
 70
0
 62
7
  6
CONTINUOUS
370
-3
390
F
  0
LAYER
  5
207
100
AcDbSymbolTableRecord
100
AcDbLayerTableRecord
  2
11_NOTES_PUB
 70
0
 62
7
  6
CONTINUOUS
370
-3
390
F
  0
LAYER
  5
208
100
AcDbSymbolTableRecord
100
AcDbLayerTableRecord
  2
13_REF_GTOL
 70
0
 62
7
  6
CONTINUOUS
370
-3
390
F
  0
LAYER
  5
209
100
AcDbSymbolTableRecord
100
AcDbLayerTableRecord
  2
16_MISC
 70
0
 62
7
  6
CONTINUOUS
370
-3
390
F
  0
LAYER
  5
20A
100
AcDbSymbolTableRecord
100
AcDbLayerTableRecord
  2
17_NO_PRINT
 70
0
 62
7
  6
CONTINUOUS
370
-3
390
F
  0
LAYER
  5
20B
100
AcDbSymbolTableRecord
100
AcDbLayerTableRecord
  2
18_DATUM_CAMS_JOINTS
 70
0
 62
7
  6
CONTINUOUS
370
-3
390
F
  0
LAYER
  5
20C
100
AcDbSymbolTableRecord
100
AcDbLayerTableRecord
  2
19_DATUM_FUNCTIONAL
 70
0
 62
7
  6
CONTINUOUS
370
-3
390
F
  0
LAYER
  5
20D
100
AcDbSymbolTableRecord
100
AcDbLayerTableRecord
  2
20_DATUM_KINEMATIC_SCHEME
 70
0
 62
7
  6
CONTINUOUS
370
-3
390
F
  0
ENDTAB
  0
TABLE
  2
STYLE
  5
3
100
AcDbSymbolTable
 70
1
  0
STYLE
  5
11
100
AcDbSymbolTableRecord
100
AcDbTextStyleTableRecord
  2
STANDARD
 70
0
 40
0.0
 41
1.0
 50
0.0
 71
0
 42
0.2
  3
ARIAL.TTF
  4

  0
STYLE
  5
20E
100
AcDbSymbolTableRecord
100
AcDbTextStyleTableRecord
  2
TEXTSTYLE_1
 70
0
 40
0.0
 41
0.8
 50
0.0
 71
0
 42
0.2
  3
gdt
  4

  0
ENDTAB
  0
TABLE
  2
VIEW
  5
6
100
AcDbSymbolTable
 70
0
  0
ENDTAB
  0
TABLE
  2
UCS
  5
7
100
AcDbSymbolTable
 70
0
  0
ENDTAB
  0
TABLE
  2
APPID
  5
9
100
AcDbSymbolTable
 70
1
  0
APPID
  5
20F
100
AcDbSymbolTableRecord
100
AcDbRegAppTableRecord
  2
ACAD
 70
0
  0
ENDTAB
  0
TABLE
  2
BLOCK_RECORD
  5
1
100
AcDbSymbolTable
 70
0
  0
BLOCK_RECORD
  5
210
100
AcDbSymbolTableRecord
100
AcDbBlockTableRecord
  2
*Model_Space
  0
BLOCK_RECORD
  5
211
100
AcDbSymbolTableRecord
100
AcDbBlockTableRecord
  2
*Paper_Space
  0
BLOCK_RECORD
  5
212
100
AcDbSymbolTableRecord
100
AcDbBlockTableRecord
  2
_FILLED
  0
ENDTAB
  0
TABLE
  2
DIMSTYLE
  5
A
100
AcDbSymbolTable
 70
1
100
AcDbDimStyleTable
 71
0
  0
DIMSTYLE
105
213
100
AcDbSymbolTableRecord
100
AcDbDimStyleTableRecord
  2
STANDARD
 70
0
  3

  4

 40
1.0
 41
0.7591161582
 42
1.0
 43
0.38
 44
1.0
 45
0.0
 46
0.0
 47
0.01
 48
0.01
140
1.0627626215
141
0.09
142
0.0
143
25.4
144
1.0
145
0.0
146
1.0
147
0.625
 71
1
 72
0
 73
0
 74
0
 75
0
 76
0
 77
1
 78
8
 79
2
170
0
171
1
172
0
173
0
174
0
175
0
176
0
177
0
178
0
270
2
179
2
271
2
272
2
273
2
274
2
275
0
280
0
281
0
282
0
283
1
284
8
285
0
286
0
287
3
288
0
340
11
278
46
341
212
342
212
343
212
344
212
  0
ENDTAB
  0
ENDSEC
  0
SECTION
  2
BLOCKS
  0
BLOCK
  5
20
100
AcDbEntity
  8
0
100
AcDbBlockBegin
  2
*Model_Space
 70
0
 10
0.0
 20
0.0
 30
0.0
  3
*Model_Space
  1

  0
ENDBLK
  5
21
100
AcDbEntity
  8
0
100
AcDbBlockEnd
  0
BLOCK
  5
1C
100
AcDbEntity
  8
0
100
AcDbBlockBegin
  2
*Paper_Space
 70
0
 10
0.0
 20
0.0
 30
0.0
  3
*Paper_Space
  1

  0
ENDBLK
  5
1D
100
AcDbEntity
  8
0
100
AcDbBlockEnd
  0
BLOCK
  5
214
100
AcDbEntity
  8
0
100
AcDbBlockBegin
  2
_FILLED
 70
64
 10
0.0
 20
0.0
  3
_FILLED
  1

  0
SOLID
  5
215
100
AcDbEntity
  8
0
  6
BYBLOCK
 62
0
100
AcDbTrace
 10
0.0
 20
0.0
 11
-1.0
 21
0.25
 12
-1.0
 22
-0.25
 13
-1.0
 23
-0.25
  0
ENDBLK
  5
216
100
AcDbEntity
  8
0
  6
BYBLOCK
 62
0
100
AcDbBlockEnd
  0
ENDSEC
  0
SECTION
  2
ENTITIES
  0
LINE
  5
217
100
AcDbEntity
  8
0
100
AcDbLine
 62
7
  6
BYLAYER
 10
32.9559906451
 20
7.04293096
 11
35.1553875525
 21
7.2847423349
  0
LINE
  5
218
100
AcDbEntity
  8
0
100
AcDbLine
 62
7
  6
BYLAYER
 10
35.1553875525
 20
7.2847423349
 11
37.8411705059
 21
7.8876325103
  0
LINE
  5
219
100
AcDbEntity
  8
0
100
AcDbLine
 62
7
  6
BYLAYER
 10
29.7695205542
 20
81.4045613149
 11
30.5562094221
 21
81.7080431279
  0
LINE
  5
21A
100
AcDbEntity
  8
0
100
AcDbLine
 62
7
  6
BYLAYER
 10
32.9559906451
 20
7.04293096
 11
30.8346614696
 21
8.2676532236
  0
LINE
  5
21B
100
AcDbEntity
  8
0
100
AcDbLine
 62
7
  6
BYLAYER
 10
13.156918341
 20
18.4736720866
 11
11.0355891655
 21
19.6983943502
  0
LINE
  5
21C
100
AcDbEntity
  8
0
100
AcDbLine
 62
7
  6
BYLAYER
 10
32.7281949675
 20
7.3665696676
 11
10.807793488
 21
20.0220330578
  0
LINE
  5
21D
100
AcDbEntity
  8
0
100
AcDbLine
 62
7
  6
BYLAYER
 10
34.373091186
 20
7.1987332297
 11
34.7858488812
 21
6.9604328544
  0
LINE
  5
21E
100
AcDbEntity
  8
0
100
AcDbLine
 62
7
  6
BYLAYER
 10
11.0355891655
 20
19.6983943502
 11
10.807793488
 21
20.0220330578
  0
LINE
  5
21F
100
AcDbEntity
  8
0
100
AcDbLine
 62
7
  6
BYLAYER
 10
26.9939432526
 20
76.3128515739
 11
14.4746508906
 21
69.0848779038
  0
LINE
  5
220
100
AcDbEntity
  8
0
100
AcDbLine
 62
7
  6
BYLAYER
 10
14.6752127912
 20
69.0989264429
 11
27.0328990137
 21
76.2335973218
  0
LINE
  5
221
100
AcDbEntity
  8
0
100
AcDbLine
 62
7
  6
BYLAYER
 10
12.9291226634
 20
18.7973107942
 11
13.156918341
 21
18.4736720866
  0
LWPOLYLINE
  5
222
100
AcDbEntity
  8
0
100
AcDbPolyline
 62
7
  6
BYLAYER
 90
4
 70
0
 10
36.3301809975
 20
75.6068857117
 10
38.3569002728
 20
76.2967392362
 10
39.6997886017
 20
77.2906648846
 10
39.8391415382
 20
77.4625711287
  0
LINE
  5
223
100
AcDbEntity
  8
0
100
AcDbLine
 62
7
  6
BYLAYER
 10
27.9772952381
 20
72.9694126807
 11
27.9124122328
 21
72.9133314608
  0
LWPOLYLINE
  5
224
100
AcDbEntity
  8
0
100
AcDbPolyline
 62
7
  6
BYLAYER
 90
3
 70
0
 10
28.2201841606
 20
73.3824033102
 10
26.9893036927
 20
72.3188472868
 10
26.3993824174
 20
70.6065855105
  0
LINE
  5
225
100
AcDbEntity
  8
0
100
AcDbLine
 62
7
  6
BYLAYER
 10
17.9258223536
 20
65.6259075896
 11
18.2793742722
 21
65.8300296665
  0
LINE
  5
226
100
AcDbEntity
  8
0
100
AcDbLine
 62
7
  6
BYLAYER
 10
16.0120915665
 20
63.5233777549
 11
17.5311388728
 21
64.400394891
  0
LINE
  5
227
100
AcDbEntity
  8
0
100
AcDbLine
 62
7
  6
BYLAYER
 10
19.6757030942
 20
65.0238770828
 11
19.3221511756
 21
64.8197550059
  0
LINE
  5
228
100
AcDbEntity
  8
0
100
AcDbLine
 62
7
  6
BYLAYER
 10
13.156918341
 20
18.4736720866
 11
13.4364599214
 21
18.5044061181
  0
LINE
  5
229
100
AcDbEntity
  8
0
100
AcDbLine
 62
7
  6
BYLAYER
 10
42.8937600665
 20
11.6560934913
 11
42.977064567
 21
11.6079987035
  0
LINE
  5
22A
100
AcDbEntity
  8
0
100
AcDbLine
 62
7
  6
BYLAYER
 10
42.853502563
 20
12.3531629902
 11
41.1551014368
 21
13.3337131546
  0
LINE
  5
22B
100
AcDbEntity
  8
0
100
AcDbLine
 62
7
  6
BYLAYER
 10
10.807793488
 20
55.3221373556
 11
10.807793488
 21
20.0220330578
  0
LINE
  5
22C
100
AcDbEntity
  8
0
100
AcDbLine
 62
7
  6
BYLAYER
 10
18.5171973596
 20
63.3366877913
 11
16.0120915665
 21
61.8903729206
  0
LINE
  5
22D
100
AcDbEntity
  8
0
100
AcDbLine
 62
7
  6
BYLAYER
 10
44.7298824478
 20
12.5383322964
 11
44.6591702533
 21
12.5791570773
  0
LINE
  5
22E
100
AcDbEntity
  8
0
100
AcDbLine
 62
7
  6
BYLAYER
 10
45.0698744369
 20
13.9687130395
 11
45.0822595608
 21
13.9615626466
  0
LINE
  5
22F
100
AcDbEntity
  8
0
100
AcDbLine
 62
7
  6
BYLAYER
 10
30.8346614696
 20
8.2676532236
 11
30.6068657921
 21
8.5912919312
  0
LINE
  5
230
100
AcDbEntity
  8
0
100
AcDbLine
 62
7
  6
BYLAYER
 10
32.7281949675
 20
7.3665696676
 11
32.9559906451
 21
7.04293096
  0
LINE
  5
231
100
AcDbEntity
  8
0
100
AcDbLine
 62
7
  6
BYLAYER
 10
14.3503837124
 20
68.8102063388
 11
14.3503837124
 21
57.6079735274
  0
LINE
  5
232
100
AcDbEntity
  8
0
100
AcDbLine
 62
7
  6
BYLAYER
 10
17.3399501344
 20
54.9726296453
 11
17.1304088639
 21
54.5805443164
  0
LINE
  5
233
100
AcDbEntity
  8
0
100
AcDbLine
 62
7
  6
BYLAYER
 10
39.6362221242
 20
74.9974474696
 11
41.2892035629
 21
76.4108753892
  0
LINE
  5
234
100
AcDbEntity
  8
0
100
AcDbLine
 62
7
  6
BYLAYER
 10
21.3962501967
 20
60.4105258197
 11
21.2060205281
 21
60.2864288817
  0
LINE
  5
235
100
AcDbEntity
  8
0
100
AcDbLine
 62
7
  6
BYLAYER
 10
14.4305096447
 20
57.6542339798
 11
11.0305324513
 21
55.6912679493
  0
LINE
  5
236
100
AcDbEntity
  8
0
100
AcDbLine
 62
7
  6
BYLAYER
 10
11.2453790372
 20
55.7441569747
 11
14.5967256092
 21
57.6790462704
  0
LINE
  5
237
100
AcDbEntity
  8
0
100
AcDbLine
 62
7
  6
BYLAYER
 10
17.5323774756
 20
59.2571751016
 11
19.6151807864
 21
60.4596749758
  0
LINE
  5
238
100
AcDbEntity
  8
0
100
AcDbLine
 62
7
  6
BYLAYER
 10
37.9677749331
 20
70.7699424458
 11
38.3920407682
 21
71.0148994434
  0
LINE
  5
239
100
AcDbEntity
  8
0
100
AcDbLine
 62
7
  6
BYLAYER
 10
19.7597862452
 20
59.7266741703
 11
18.2394872007
 21
58.8489343471
  0
LINE
  5
23A
100
AcDbEntity
  8
0
100
AcDbLine
 62
7
  6
BYLAYER
 10
24.1265729496
 20
61.9879241006
 11
21.3959590266
 21
60.4114128276
  0
LINE
  5
23B
100
AcDbEntity
  8
0
100
AcDbLine
 62
7
  6
BYLAYER
 10
45.4891160059
 20
14.4344164953
 11
45.2231899844
 21
14.5879454821
  0
LINE
  5
23C
100
AcDbEntity
  8
0
100
AcDbLine
 62
7
  6
BYLAYER
 10
45.35404595
 20
15.1164649997
 11
46.0122613159
 21
14.736452778
  0
LINE
  5
23D
100
AcDbEntity
  8
0
100
AcDbLine
 62
7
  6
BYLAYER
 10
45.4046379152
 20
15.3208029593
 11
46.3659237743
 21
14.7658168652
  0
LINE
  5
23E
100
AcDbEntity
  8
0
100
AcDbLine
 62
7
  6
BYLAYER
 10
16.0120915665
 20
63.5233777549
 11
16.0120915665
 21
61.8903729206
  0
LINE
  5
23F
100
AcDbEntity
  8
0
100
AcDbLine
 62
7
  6
BYLAYER
 10
17.925748408
 20
67.2504165803
 11
17.9258223536
 21
65.6259075896
  0
LINE
  5
240
100
AcDbEntity
  8
0
100
AcDbLine
 62
7
  6
BYLAYER
 10
30.1493824173
 20
78.8151995986
 11
30.0615733619
 21
78.6166587792
  0
LWPOLYLINE
  5
241
100
AcDbEntity
  8
0
100
AcDbPolyline
 62
7
  6
BYLAYER
 90
3
 70
0
 10
38.5083166534
 20
70.8803941075
 10
39.4626448269
 20
71.7053825914
 10
39.6732836839
 20
72.3174845832
  0
LWPOLYLINE
  5
242
100
AcDbEntity
  8
0
100
AcDbPolyline
 62
7
  6
BYLAYER
 90
3
 70
0
 10
38.5334627133
 20
69.5451971833
 10
39.8784653633
 20
70.7079121989
 10
40.3493718322
 20
72.076333922
  0
LINE
  5
243
100
AcDbEntity
  8
0
100
AcDbLine
 62
7
  6
BYLAYER
 10
20.0895403036
 20
55.7540705223
 11
20.4294557579
 21
56.0021912684
  0
LINE
  5
244
100
AcDbEntity
  8
0
100
AcDbLine
 62
7
  6
BYLAYER
 10
17.1304088639
 20
54.5805443164
 11
16.9714732935
 21
54.4739255964
  0
LINE
  5
245
100
AcDbEntity
  8
0
100
AcDbLine
 62
7
  6
BYLAYER
 10
20.5184308733
 20
56.0608397363
 11
20.4293637993
 21
56.0023531174
  0
LINE
  5
246
100
AcDbEntity
  8
0
100
AcDbLine
 62
7
  6
BYLAYER
 10
20.169192475
 20
55.8059356273
 11
20.0895403035
 21
55.7540705222
  0
LINE
  5
247
100
AcDbEntity
  8
0
100
AcDbLine
 62
7
  6
BYLAYER
 10
23.721399918
 20
58.8339718627
 11
26.5257568849
 21
60.4530584479
  0
LINE
  5
248
100
AcDbEntity
  8
0
100
AcDbLine
 62
7
  6
BYLAYER
 10
15.9833540848
 20
54.2868563822
 11
17.4144891352
 21
55.1131176566
  0
LINE
  5
249
100
AcDbEntity
  8
0
100
AcDbLine
 62
7
  6
BYLAYER
 10
18.2793189097
 20
67.046287174
 11
18.2793742722
 21
65.8300296665
  0
LINE
  5
24A
100
AcDbEntity
  8
0
100
AcDbLine
 62
7
  6
BYLAYER
 10
19.0526633846
 20
61.6181879756
 11
19.0526633846
 21
61.7679425105
  0
LWPOLYLINE
  5
24B
100
AcDbEntity
  8
0
100
AcDbPolyline
 62
7
  6
BYLAYER
 90
4
 70
0
 10
28.2600558022
 20
72.979010472
 10
27.9493930025
 20
72.0762458008
 10
28.4203481475
 20
70.7078442647
 10
29.7653386266
 20
69.5451761074
  0
LINE
  5
24C
100
AcDbEntity
  8
0
100
AcDbLine
 62
7
  6
BYLAYER
 10
27.9124122328
 20
72.9133314608
 11
27.4252048591
 21
71.5003882453
  0
LINE
  5
24D
100
AcDbEntity
  8
0
100
AcDbLine
 62
7
  6
BYLAYER
 10
27.8770417297
 20
58.6644725155
 11
27.5234898111
 21
58.4603504386
  0
LINE
  5
24E
100
AcDbEntity
  8
0
100
AcDbLine
 62
7
  6
BYLAYER
 10
20.653263001
 20
54.171319141
 11
20.1032607112
 21
53.8537660919
  0
LINE
  5
24F
100
AcDbEntity
  8
0
100
AcDbLine
 62
7
  6
BYLAYER
 10
19.7724085692
 20
53.1431168287
 11
22.435472867
 21
54.6806781101
  0
LINE
  5
250
100
AcDbEntity
  8
0
100
AcDbLine
 62
7
  6
BYLAYER
 10
22.9854756473
 20
53.7280517712
 11
20.322414746
 21
52.1904924508
  0
LINE
  5
251
100
AcDbEntity
  8
0
100
AcDbLine
 62
7
  6
BYLAYER
 10
31.2990177288
 20
57.9050643086
 11
31.6525696474
 21
58.1091863855
  0
LINE
  5
252
100
AcDbEntity
  8
0
100
AcDbLine
 62
7
  6
BYLAYER
 10
40.2365122363
 20
78.214372175
 11
39.8391415382
 21
77.4625711287
  0
LINE
  5
253
100
AcDbEntity
  8
0
100
AcDbLine
 62
7
  6
BYLAYER
 10
21.3737090426
 20
51.8159782432
 11
21.9237113325
 21
52.1335312924
  0
LINE
  5
254
100
AcDbEntity
  8
0
100
AcDbLine
 62
7
  6
BYLAYER
 10
25.3985296355
 20
52.4557219811
 11
28.8473353983
 21
54.446879031
  0
LINE
  5
255
100
AcDbEntity
  8
0
100
AcDbLine
 62
7
  6
BYLAYER
 10
31.5685055197
 20
54.5420811555
 11
33.087552826
 21
55.4190982916
  0
LINE
  5
256
100
AcDbEntity
  8
0
100
AcDbLine
 62
7
  6
BYLAYER
 10
22.7420982168
 20
51.1596780218
 11
22.8268639866
 21
51.2027390928
  0
LINE
  5
257
100
AcDbEntity
  8
0
100
AcDbLine
 62
7
  6
BYLAYER
 10
23.1135312524
 20
51.3296758178
 11
23.027470531
 21
51.2865068331
  0
LINE
  5
258
100
AcDbEntity
  8
0
100
AcDbLine
 62
7
  6
BYLAYER
 10
22.7420982168
 20
51.1596780218
 11
23.0277001169
 21
51.2860735403
  0
LINE
  5
259
100
AcDbEntity
  8
0
100
AcDbLine
 62
7
  6
BYLAYER
 10
31.3066956885
 20
54.301540954
 11
31.5685055197
 21
54.3923266206
  0
LINE
  5
25A
100
AcDbEntity
  8
0
100
AcDbLine
 62
7
  6
BYLAYER
 10
46.4691919668
 20
14.6549797744
 11
46.3659136505
 21
14.7657993045
  0
LINE
  5
25B
100
AcDbEntity
  8
0
100
AcDbLine
 62
7
  6
BYLAYER
 10
46.6079594035
 20
14.4968160214
 11
46.4691919668
 21
14.6549797744
  0
LINE
  5
25C
100
AcDbEntity
  8
0
100
AcDbLine
 62
7
  6
BYLAYER
 10
26.3993824174
 20
69.5645297642
 11
26.3993824174
 21
70.6065855105
  0
LINE
  5
25D
100
AcDbEntity
  8
0
100
AcDbLine
 62
7
  6
BYLAYER
 10
39.9214655796
 20
73.4984579611
 11
41.6141586182
 21
76.9421878957
  0
LINE
  5
25E
100
AcDbEntity
  8
0
100
AcDbLine
 62
7
  6
BYLAYER
 10
33.1902902259
 20
55.3286588681
 11
31.5685055197
 21
54.3923266206
  0
LINE
  5
25F
100
AcDbEntity
  8
0
100
AcDbLine
 62
7
  6
BYLAYER
 10
35.9459561131
 20
56.8185348797
 11
53.6235520435
 21
67.0246387265
  0
LINE
  5
260
100
AcDbEntity
  8
0
100
AcDbLine
 62
7
  6
BYLAYER
 10
36.270785192
 20
56.1547429487
 11
53.9483811223
 21
66.3608467955
  0
LINE
  5
261
100
AcDbEntity
  8
0
100
AcDbLine
 62
7
  6
BYLAYER
 10
29.9045775198
 20
51.247124919
 11
26.4044135256
 21
49.2263163573
  0
LINE
  5
262
100
AcDbEntity
  8
0
100
AcDbLine
 62
7
  6
BYLAYER
 10
29.8019153303
 20
50.0333334434
 11
30.4251191298
 21
50.393138177
  0
LINE
  5
263
100
AcDbEntity
  8
0
100
AcDbLine
 62
7
  6
BYLAYER
 10
21.6174952898
 20
52.4856231027
 11
21.8465151169
 21
52.0889513281
  0
LINE
  5
264
100
AcDbEntity
  8
0
100
AcDbLine
 62
7
  6
BYLAYER
 10
34.7175369522
 20
7.2366031131
 11
34.7858488812
 21
6.9604328544
  0
LINE
  5
265
100
AcDbEntity
  8
0
100
AcDbLine
 62
7
  6
BYLAYER
 10
27.6493824174
 20
71.4230879277
 11
27.6493824174
 21
71.8313391362
  0
LINE
  5
266
100
AcDbEntity
  8
0
100
AcDbLine
 62
7
  6
BYLAYER
 10
28.1493824174
 20
73.4643439705
 11
28.1493824174
 21
73.9621474895
  0
LINE
  5
267
100
AcDbEntity
  8
0
100
AcDbLine
 62
7
  6
BYLAYER
 10
29.8805559867
 20
77.4334214637
 11
29.8823948031
 21
77.5002237497
  0
LINE
  5
268
100
AcDbEntity
  8
0
100
AcDbLine
 62
7
  6
BYLAYER
 10
29.9234144612
 20
78.304274354
 11
29.8823948031
 21
77.5002237497
  0
LINE
  5
269
100
AcDbEntity
  8
0
100
AcDbLine
 62
7
  6
BYLAYER
 10
32.3816817036
 20
50.6841192567
 11
34.6090773379
 21
51.9700990494
  0
LINE
  5
26A
100
AcDbEntity
  8
0
100
AcDbLine
 62
7
  6
BYLAYER
 10
27.5528936089
 20
47.6072086798
 11
30.545518493
 21
49.3349911487
  0
LINE
  5
26B
100
AcDbEntity
  8
0
100
AcDbLine
 62
7
  6
BYLAYER
 10
34.6090904733
 20
51.1536183254
 11
33.0887914288
 21
50.2758785022
  0
LINE
  5
26C
100
AcDbEntity
  8
0
100
AcDbLine
 62
7
  6
BYLAYER
 10
26.4044135256
 20
49.2263163573
 11
26.1949300415
 21
49.8603202682
  0
LINE
  5
26D
100
AcDbEntity
  8
0
100
AcDbLine
 62
7
  6
BYLAYER
 10
30.1493824173
 20
78.5778232881
 11
30.1493824173
 21
80.8128657246
  0
LINE
  5
26E
100
AcDbEntity
  8
0
100
AcDbLine
 62
7
  6
BYLAYER
 10
31.5685055197
 20
54.5420811555
 11
31.5685055197
 21
54.3923266206
  0
LINE
  5
26F
100
AcDbEntity
  8
0
100
AcDbLine
 62
7
  6
BYLAYER
 10
32.6953465508
 20
57.0989117249
 11
32.6953465508
 21
58.7233780241
  0
LINE
  5
270
100
AcDbEntity
  8
0
100
AcDbLine
 62
7
  6
BYLAYER
 10
32.7281949675
 20
7.3665696676
 11
32.7281949675
 21
42.6666739655
  0
LINE
  5
271
100
AcDbEntity
  8
0
100
AcDbLine
 62
7
  6
BYLAYER
 10
47.2021656016
 20
13.4096693468
 11
46.6079594035
 21
14.4968160214
  0
LINE
  5
272
100
AcDbEntity
  8
0
100
AcDbLine
 62
7
  6
BYLAYER
 10
27.4534071523
 20
58.4688569582
 11
27.4653775536
 21
58.4378882111
  0
LINE
  5
273
100
AcDbEntity
  8
0
100
AcDbLine
 62
7
  6
BYLAYER
 10
28.8473353983
 20
54.446879031
 11
29.9045775198
 21
51.247124919
  0
LINE
  5
274
100
AcDbEntity
  8
0
100
AcDbLine
 62
7
  6
BYLAYER
 10
34.6090773379
 20
51.1536410768
 11
34.6090773379
 21
52.786645911
  0
LINE
  5
275
100
AcDbEntity
  8
0
100
AcDbLine
 62
7
  6
BYLAYER
 10
32.2902208184
 20
43.5941867763
 11
35.6415548583
 21
45.5290688367
  0
LINE
  5
276
100
AcDbEntity
  8
0
100
AcDbLine
 62
7
  6
BYLAYER
 10
37.8925660226
 20
45.6483071864
 11
36.270785192
 21
44.7119771764
  0
LINE
  5
277
100
AcDbEntity
  8
0
100
AcDbLine
 62
7
  6
BYLAYER
 10
32.7281949675
 20
42.6666739655
 11
36.2637141536
 21
44.7078947348
  0
LINE
  5
278
100
AcDbEntity
  8
0
100
AcDbLine
 62
7
  6
BYLAYER
 10
17.3399501344
 20
54.9726296453
 11
19.6161702402
 21
53.6584830845
  0
LINE
  5
279
100
AcDbEntity
  8
0
100
AcDbLine
 62
7
  6
BYLAYER
 10
23.3364993207
 20
51.51059868
 11
26.1949300415
 21
49.8603202682
  0
LINE
  5
27A
100
AcDbEntity
  8
0
100
AcDbLine
 62
7
  6
BYLAYER
 10
36.270785192
 20
44.7119771764
 11
36.2567626547
 21
44.7200729089
  0
LINE
  5
27B
100
AcDbEntity
  8
0
100
AcDbLine
 62
7
  6
BYLAYER
 10
27.4534071523
 20
58.4688569582
 11
27.4665194189
 21
58.4380878348
  0
LINE
  5
27C
100
AcDbEntity
  8
0
100
AcDbLine
 62
7
  6
BYLAYER
 10
36.270785192
 20
44.7119771764
 11
36.270785192
 21
56.1547429487
  0
LINE
  5
27D
100
AcDbEntity
  8
0
100
AcDbLine
 62
7
  6
BYLAYER
 10
38.1493824173
 20
78.5778232881
 11
38.1493824173
 21
80.8128657246
  0
LINE
  5
27E
100
AcDbEntity
  8
0
100
AcDbLine
 62
7
  6
BYLAYER
 10
17.5323774756
 20
59.2571751016
 11
18.2394872007
 21
58.8489343471
  0
LINE
  5
27F
100
AcDbEntity
  8
0
100
AcDbLine
 62
7
  6
BYLAYER
 10
32.3816817036
 20
50.6841192567
 11
33.0887914288
 21
50.2758785022
  0
LINE
  5
280
100
AcDbEntity
  8
0
100
AcDbLine
 62
7
  6
BYLAYER
 10
42.9036993969
 20
11.4839913139
 11
42.853502563
 21
12.3531629902
  0
LINE
  5
281
100
AcDbEntity
  8
0
100
AcDbLine
 62
7
  6
BYLAYER
 10
38.3753503735
 20
78.304274354
 11
38.4163700316
 21
77.5002237497
  0
LINE
  5
282
100
AcDbEntity
  8
0
100
AcDbLine
 62
7
  6
BYLAYER
 10
38.4163700316
 20
77.5002237497
 11
38.4181927596
 21
77.4365483696
  0
LINE
  5
283
100
AcDbEntity
  8
0
100
AcDbLine
 62
7
  6
BYLAYER
 10
40.1493824173
 20
73.4643439705
 11
40.1493824173
 21
73.9621474895
  0
LINE
  5
284
100
AcDbEntity
  8
0
100
AcDbLine
 62
7
  6
BYLAYER
 10
40.6493824173
 20
71.4230879277
 11
40.6493824173
 21
71.8313391362
  0
LINE
  5
285
100
AcDbEntity
  8
0
100
AcDbLine
 62
7
  6
BYLAYER
 10
23.8388350822
 20
58.3861462168
 11
20.9229317873
 21
60.0696056841
  0
LINE
  5
286
100
AcDbEntity
  8
0
100
AcDbLine
 62
7
  6
BYLAYER
 10
27.4329445127
 20
58.5126256084
 11
27.5234898111
 21
58.4603504386
  0
LINE
  5
287
100
AcDbEntity
  8
0
100
AcDbLine
 62
7
  6
BYLAYER
 10
28.3772992551
 20
73.4984579611
 11
26.6846062165
 21
76.9421878957
  0
LWPOLYLINE
  5
288
100
AcDbEntity
  8
0
100
AcDbPolyline
 62
7
  6
BYLAYER
 90
4
 70
0
 10
40.003961887
 20
72.3250721589
 10
40.0788693722
 20
71.546803325
 10
39.1850957413
 20
70.1929176736
 10
38.3920407682
 20
69.6268453342
  0
LINE
  5
289
100
AcDbEntity
  8
0
100
AcDbLine
 62
7
  6
BYLAYER
 10
41.8993824173
 20
69.5645297642
 11
41.8993824173
 21
70.6065855105
  0
LINE
  5
28A
100
AcDbEntity
  8
0
100
AcDbLine
 62
7
  6
BYLAYER
 10
27.8770417297
 20
58.6644725155
 11
27.1715227035
 21
59.0717949004
  0
LINE
  5
28B
100
AcDbEntity
  8
0
100
AcDbLine
 62
7
  6
BYLAYER
 10
17.9258223536
 20
65.6259075896
 11
19.3221511756
 21
64.8197550059
  0
LINE
  5
28C
100
AcDbEntity
  8
0
100
AcDbLine
 62
7
  6
BYLAYER
 10
31.2990177288
 20
57.9050643086
 11
32.6953465508
 21
57.0989117249
  0
LINE
  5
28D
100
AcDbEntity
  8
0
100
AcDbLine
 62
7
  6
BYLAYER
 10
32.6953465508
 20
57.5071524794
 11
31.6525696474
 21
58.1091863855
  0
LINE
  5
28E
100
AcDbEntity
  8
0
100
AcDbLine
 62
7
  6
BYLAYER
 10
18.2793742722
 20
65.8300296665
 11
19.6757030942
 21
65.0238770828
  0
LINE
  5
28F
100
AcDbEntity
  8
0
100
AcDbLine
 62
7
  6
BYLAYER
 10
32.6953465508
 20
58.7233780241
 11
17.925748408
 21
67.2504165803
  0
LINE
  5
290
100
AcDbEntity
  8
0
100
AcDbLine
 62
7
  6
BYLAYER
 10
28.4582171828
 20
77.4644594681
 11
28.0622525984
 21
78.214372175
  0
LINE
  5
291
100
AcDbEntity
  8
0
100
AcDbLine
 62
7
  6
BYLAYER
 10
14.4304932211
 20
57.6542526243
 11
14.5969063
 21
57.6789875529
  0
LINE
  5
292
100
AcDbEntity
  8
0
100
AcDbLine
 62
7
  6
BYLAYER
 10
11.2453790372
 20
55.7441569747
 11
11.0305411789
 21
55.6912528542
  0
LINE
  5
293
100
AcDbEntity
  8
0
100
AcDbLine
 62
7
  6
BYLAYER
 10
41.8993824173
 20
70.6065855105
 11
41.3094364465
 21
72.3188817082
  0
LINE
  5
294
100
AcDbEntity
  8
0
100
AcDbLine
 62
7
  6
BYLAYER
 10
40.3493718322
 20
72.076333922
 11
40.0640832073
 21
72.9052650775
  0
LWPOLYLINE
  5
295
100
AcDbEntity
  8
0
100
AcDbPolyline
 62
7
  6
BYLAYER
 90
3
 70
0
 10
40.8721663376
 20
71.4997340713
 10
40.3853667462
 20
72.9146926873
 10
40.3216718476
 20
72.9697252741
  0
LINE
  5
296
100
AcDbEntity
  8
0
100
AcDbLine
 62
7
  6
BYLAYER
 10
40.6493824173
 20
71.8313391362
 11
40.1485241412
 21
73.3373659673
  0
LINE
  5
297
100
AcDbEntity
  8
0
100
AcDbLine
 62
7
  6
BYLAYER
 10
51.7563409743
 20
16.7582925473
 11
51.7563409743
 21
19.126193296
  0
LINE
  5
298
100
AcDbEntity
  8
0
100
AcDbLine
 62
7
  6
BYLAYER
 10
44.7369534861
 20
12.6240649796
 11
45.4445775356
 21
15.4821167278
  0
LINE
  5
299
100
AcDbEntity
  8
0
100
AcDbLine
 62
7
  6
BYLAYER
 10
45.0822595608
 20
13.9615626466
 11
44.7298824478
 21
12.5383322964
  0
LINE
  5
29A
100
AcDbEntity
  8
0
100
AcDbLine
 62
7
  6
BYLAYER
 10
27.0095612718
 20
76.4108753892
 11
28.6625883981
 21
74.9974210922
  0
LINE
  5
29B
100
AcDbEntity
  8
0
100
AcDbLine
 62
7
  6
BYLAYER
 10
53.9483811223
 20
20.3917607111
 11
53.9483811223
 21
66.3608467955
  0
LINE
  5
29C
100
AcDbEntity
  8
0
100
AcDbLine
 62
7
  6
BYLAYER
 10
30.3309239211
 20
70.7699805401
 11
29.9066507548
 21
71.0149417703
  0
LINE
  5
29D
100
AcDbEntity
  8
0
100
AcDbLine
 62
7
  6
BYLAYER
 10
28.4582171828
 20
77.4644594681
 11
29.664380708
 21
76.4471719718
  0
LINE
  5
29E
100
AcDbEntity
  8
0
100
AcDbLine
 62
7
  6
BYLAYER
 10
14.6752127912
 20
69.0989264429
 11
14.474699726
 21
69.0847932203
  0
LINE
  5
29F
100
AcDbEntity
  8
0
100
AcDbLine
 62
7
  6
BYLAYER
 10
41.3094364465
 20
72.3188817082
 11
40.0785918523
 21
73.382417041
  0
LWPOLYLINE
  5
2A0
100
AcDbEntity
  8
0
100
AcDbPolyline
 62
7
  6
BYLAYER
 90
4
 70
0
 10
31.1945643245
 20
75.8474492154
 10
31.582332857
 20
75.6954716287
 10
33.9343325623
 20
75.3895870614
 10
36.3301809975
 20
75.6068857117
  0
LINE
  5
2A1
100
AcDbEntity
  8
0
100
AcDbLine
 62
7
  6
BYLAYER
 10
53.9483811223
 20
20.3917607111
 11
45.4445775356
 21
15.4821167278
  0
LINE
  5
2A2
100
AcDbEntity
  8
0
100
AcDbLine
 62
7
  6
BYLAYER
 10
45.4891160059
 20
14.4344164953
 11
46.0122613159
 21
14.736452778
  0
LINE
  5
2A3
100
AcDbEntity
  8
0
100
AcDbLine
 62
7
  6
BYLAYER
 10
41.2784386448
 20
11.4438048412
 11
42.853502563
 21
12.3531629902
  0
LINE
  5
2A4
100
AcDbEntity
  8
0
100
AcDbLine
 62
7
  6
BYLAYER
 10
34.7858488812
 20
6.9604328544
 11
35.4698286156
 21
7.355326381
  0
LINE
  5
2A5
100
AcDbEntity
  8
0
100
AcDbLine
 62
7
  6
BYLAYER
 10
46.903325992
 20
13.9564197658
 11
51.7563409743
 21
16.7582925473
  0
LINE
  5
2A6
100
AcDbEntity
  8
0
100
AcDbLine
 62
7
  6
BYLAYER
 10
44.7369534861
 20
12.6240649796
 11
42.977064567
 21
11.6079987035
  0
LINE
  5
2A7
100
AcDbEntity
  8
0
100
AcDbLine
 62
7
  6
BYLAYER
 10
42.9036993969
 20
11.4839913139
 11
44.7298824478
 21
12.5383322964
  0
LINE
  5
2A8
100
AcDbEntity
  8
0
100
AcDbLine
 62
7
  6
BYLAYER
 10
47.0330798465
 20
12.3167214045
 11
41.7953181398
 21
9.2927163241
  0
LINE
  5
2A9
100
AcDbEntity
  8
0
100
AcDbLine
 62
7
  6
BYLAYER
 10
37.7705659467
 20
81.6972391851
 11
38.5292078105
 21
81.4045823706
  0
ARC
  5
2AA
100
AcDbEntity
  8
0
100
AcDbCircle
 62
7
  6
BYLAYER
 10
-122.577262396
 20
6.6699490205
 40
165.6279551007
100
AcDbArc
 50
1.7084757073
 51
1.9768720955
  0
ARC
  5
2AB
100
AcDbEntity
  8
0
100
AcDbCircle
 62
7
  6
BYLAYER
 10
-25.7493721741
 20
-31.356617944
 40
98.38826895
100
AcDbArc
 50
51.3937671543
 51
55.0982264009
  0
ARC
  5
2AC
100
AcDbEntity
  8
0
100
AcDbCircle
 62
7
  6
BYLAYER
 10
71.8005491646
 20
65.2736716593
 40
48.1398717316
100
AcDbArc
 50
195.4421164735
 51
198.2809075967
  0
ARC
  5
2AD
100
AcDbEntity
  8
0
100
AcDbCircle
 62
7
  6
BYLAYER
 10
55.8718930596
 20
34.584897684
 40
43.593497395
100
AcDbArc
 50
149.6842429047
 51
151.8284037136
  0
ARC
  5
2AE
100
AcDbEntity
  8
0
100
AcDbCircle
 62
7
  6
BYLAYER
 10
-2.4815832978
 20
45.6826521588
 40
32.551354602
100
AcDbArc
 50
23.1288987632
 51
26.9849884311
  0
ARC
  5
2AF
100
AcDbEntity
  8
0
100
AcDbCircle
 62
7
  6
BYLAYER
 10
36.4294053394
 20
54.6386481994
 40
7.3536255165
100
AcDbArc
 50
207.4648423575
 51
215.2633624371
  0
ARC
  5
2B0
100
AcDbEntity
  8
0
100
AcDbCircle
 62
7
  6
BYLAYER
 10
26.2910771575
 20
56.2777267608
 40
6.0184633856
100
AcDbArc
 50
200.4867605807
 51
204.8073046974
  0
ARC
  5
2B1
100
AcDbEntity
  8
0
100
AcDbCircle
 62
7
  6
BYLAYER
 10
25.7278898663
 20
55.9546726224
 40
6.0041869877
100
AcDbArc
 50
200.4816215705
 51
204.8124437076
  0
ARC
  5
2B2
100
AcDbEntity
  8
0
100
AcDbCircle
 62
7
  6
BYLAYER
 10
25.7166035946
 20
55.9290890652
 40
5.9815059746
100
AcDbArc
 50
215.1854908399
 51
223.4434259255
  0
ARC
  5
2B3
100
AcDbEntity
  8
0
100
AcDbCircle
 62
7
  6
BYLAYER
 10
26.2403157193
 20
56.2251127825
 40
5.9476140193
100
AcDbArc
 50
215.1619211165
 51
223.4669956489
  0
ARC
  5
2B4
100
AcDbEntity
  8
0
100
AcDbCircle
 62
7
  6
BYLAYER
 10
35.493941952
 20
75.0577993641
 40
5.402226164
100
AcDbArc
 50
60.0011769703
 51
60.4686971693
  0
ARC
  5
2B5
100
AcDbEntity
  8
0
100
AcDbCircle
 62
7
  6
BYLAYER
 10
32.8048051274
 20
75.0578300608
 40
5.4021907018
100
AcDbArc
 50
119.531364329
 51
119.9992352765
  0
ARC
  5
2B6
100
AcDbEntity
  8
0
100
AcDbCircle
 62
7
  6
BYLAYER
 10
32.5750750189
 20
74.9562195054
 40
4.9949551459
100
AcDbArc
 50
235.2698093833
 51
240.0786179967
  0
ARC
  5
2B7
100
AcDbEntity
  8
0
100
AcDbCircle
 62
7
  6
BYLAYER
 10
18.8727914102
 20
51.9888742885
 40
4.5656716469
100
AcDbArc
 50
29.9978679415
 51
37.0073255372
  0
ARC
  5
2B8
100
AcDbEntity
  8
0
100
AcDbCircle
 62
7
  6
BYLAYER
 10
24.0409084722
 20
54.9722625894
 40
4.5464066929
100
AcDbArc
 50
209.9979714121
 51
214.6429345113
  0
ARC
  5
2B9
100
AcDbEntity
  8
0
100
AcDbCircle
 62
7
  6
BYLAYER
 10
18.8994570276
 20
52.0017637224
 40
4.5361342658
100
AcDbArc
 50
22.9701088891
 51
30.0252661907
  0
ARC
  5
2BA
100
AcDbEntity
  8
0
100
AcDbCircle
 62
7
  6
BYLAYER
 10
18.8232028272
 20
51.960758462
 40
4.5217981384
100
AcDbArc
 50
29.9922061417
 51
36.9785012595
  0
ARC
  5
2BB
100
AcDbEntity
  8
0
100
AcDbCircle
 62
7
  6
BYLAYER
 10
18.8535671748
 20
51.9745102043
 40
4.4886267159
100
AcDbArc
 50
22.9959270333
 51
30.0339249141
  0
ARC
  5
2BC
100
AcDbEntity
  8
0
100
AcDbCircle
 62
7
  6
BYLAYER
 10
23.9894591311
 20
54.9458130721
 40
4.4886262818
100
AcDbArc
 50
202.9959266925
 51
210.0339252549
  0
ARC
  5
2BD
100
AcDbEntity
  8
0
100
AcDbCircle
 62
7
  6
BYLAYER
 10
23.9500344178
 20
54.9105170119
 40
4.4365438103
100
AcDbArc
 50
214.6540352905
 51
217.0146215654
  0
ARC
  5
2BE
100
AcDbEntity
  8
0
100
AcDbCircle
 62
7
  6
BYLAYER
 10
19.02865182
 20
52.1022146299
 40
4.3729877398
100
AcDbArc
 50
37.0506434013
 51
37.5026412752
  0
ARC
  5
2BF
100
AcDbEntity
  8
0
100
AcDbCircle
 62
7
  6
BYLAYER
 10
23.1699248222
 20
56.7320121071
 40
4.0837202325
100
AcDbArc
 50
86.4864422108
 51
86.7819951476
  0
ARC
  5
2C0
100
AcDbEntity
  8
0
100
AcDbCircle
 62
7
  6
BYLAYER
 10
23.3819387549
 20
54.5578646014
 40
3.8645553527
100
AcDbArc
 50
217.7395722041
 51
220.4099579603
  0
ARC
  5
2C1
100
AcDbEntity
  8
0
100
AcDbCircle
 62
7
  6
BYLAYER
 10
23.3377341834
 20
54.6034977761
 40
3.8488957434
100
AcDbArc
 50
199.7194688785
 51
202.2663888269
  0
ARC
  5
2C2
100
AcDbEntity
  8
0
100
AcDbCircle
 62
7
  6
BYLAYER
 10
35.1697407419
 20
79.9684512581
 40
3.7886185747
100
AcDbArc
 50
299.9961819849
 51
301.2885104361
  0
ARC
  5
2C3
100
AcDbEntity
  8
0
100
AcDbCircle
 62
7
  6
BYLAYER
 10
30.8309403701
 20
71.4720571024
 40
3.2658171142
100
AcDbArc
 50
144.8375642445
 51
145.8609044484
  0
ARC
  5
2C4
100
AcDbEntity
  8
0
100
AcDbCircle
 62
7
  6
BYLAYER
 10
30.4637998919
 20
73.5479465677
 40
2.3265226437
100
AcDbArc
 50
198.7473314081
 51
204.917101724
  0
ARC
  5
2C5
100
AcDbEntity
  8
0
100
AcDbCircle
 62
7
  6
BYLAYER
 10
30.330029082
 20
72.7695506309
 40
2.1806467993
100
AcDbArc
 50
172.2908489354
 51
179.9798661132
  0
ARC
  5
2C6
100
AcDbEntity
  8
0
100
AcDbCircle
 62
7
  6
BYLAYER
 10
29.8294824805
 20
71.8317218355
 40
2.1801000968
100
AcDbArc
 50
180.0100578209
 51
189.7899073266
  0
ARC
  5
2C7
100
AcDbEntity
  8
0
100
AcDbCircle
 62
7
  6
BYLAYER
 10
37.9783670981
 20
72.7700340236
 40
2.1710153377
100
AcDbArc
 50
0.0074658779
 51
5.4373962168
  0
ARC
  5
2C8
100
AcDbEntity
  8
0
100
AcDbCircle
 62
7
  6
BYLAYER
 10
30.3069909966
 20
72.0463613816
 40
2.1607667456
100
AcDbArc
 50
162.6414196455
 51
164.9954036848
  0
ARC
  5
2C9
100
AcDbEntity
  8
0
100
AcDbCircle
 62
7
  6
BYLAYER
 10
30.2665049061
 20
72.0573359002
 40
2.1188197644
100
AcDbArc
 50
164.9986117274
 51
166.7829435554
  0
ARC
  5
2CA
100
AcDbEntity
  8
0
100
AcDbCircle
 62
7
  6
BYLAYER
 10
30.1499748024
 20
73.4641217212
 40
2.0005779386
100
AcDbArc
 50
179.9936348817
 51
180.4801414125
  0
ARC
  5
2CB
100
AcDbEntity
  8
0
100
AcDbCircle
 62
7
  6
BYLAYER
 10
34.8398644341
 20
44.0651851506
 40
1.5621141186
100
AcDbArc
 50
24.2709489092
 51
24.7580773732
  0
ARC
  5
2CC
100
AcDbEntity
  8
0
100
AcDbCircle
 62
7
  6
BYLAYER
 10
31.5191754559
 20
78.3464858338
 40
1.4940132101
100
AcDbArc
 50
162.3300914819
 51
164.6846371422
  0
ARC
  5
2CD
100
AcDbEntity
  8
0
100
AcDbCircle
 62
7
  6
BYLAYER
 10
36.8019828663
 20
78.3532528164
 40
1.470622272
100
AcDbArc
 50
11.0986037422
 51
17.6838884577
  0
ARC
  5
2CE
100
AcDbEntity
  8
0
100
AcDbCircle
 62
7
  6
BYLAYER
 10
31.4683381482
 20
78.3599970052
 40
1.4414126327
100
AcDbArc
 50
164.6688803915
 51
168.947614714
  0
ARC
  5
2CF
100
AcDbEntity
  8
0
100
AcDbCircle
 62
7
  6
BYLAYER
 10
31.4412905322
 20
78.3654220002
 40
1.4138266878
100
AcDbArc
 50
168.9532547238
 51
170.4846408601
  0
ARC
  5
2D0
100
AcDbEntity
  8
0
100
AcDbCircle
 62
7
  6
BYLAYER
 10
36.8603249618
 20
78.3659469549
 40
1.4109282637
100
AcDbArc
 50
8.6576908986
 51
11.048818245
  0
ARC
  5
2D1
100
AcDbEntity
  8
0
100
AcDbCircle
 62
7
  6
BYLAYER
 10
31.4330371163
 20
78.3668247275
 40
1.4054549405
100
AcDbArc
 50
170.4854170184
 51
171.3445930864
  0
ARC
  5
2D2
100
AcDbEntity
  8
0
100
AcDbCircle
 62
7
  6
BYLAYER
 10
20.6454217809
 20
54.9264799089
 40
1.0033330682
100
AcDbArc
 50
98.4374600803
 51
100.6640129594
  0
SPLINE
  5
2D3
100
AcDbEntity
  8
0
100
AcDbSpline
 62
7
  6
BYLAYER
 70
0
 71
3
 72
22
 73
18
 74
0
 42
0.0000001
 43
0.0000001
 44
0.0000000001
 40
0.0
 40
0.0
 40
0.0
 40
0.0
 40
0.042818485
 40
0.087403137
 40
0.1351878628
 40
0.1870975763
 40
0.2435428541
 40
0.30449875
 40
0.369596129
 40
0.4382039417
 40
0.5095038015
 40
0.5825466271
 40
0.7295741334
 40
0.8015840347
 40
0.8712032591
 40
0.9376035104
 40
1.0
 40
1.0
 40
1.0
 40
1.0
 10
38.1493687977
 20
80.812865725
 30
0.0
 10
38.1493768495
 20
80.9267328224
 30
0.0
 10
38.118912128
 20
81.1601508577
 30
0.0
 10
37.9850818995
 20
81.4971956052
 30
0.0
 10
37.7678607051
 20
81.8166867753
 30
0.0
 10
37.4734695724
 20
82.1123216209
 30
0.0
 10
37.1087000811
 20
82.3788996903
 30
0.0
 10
36.681303167
 20
82.6114002747
 30
0.0
 10
36.2002099797
 20
82.8052361588
 30
0.0
 10
35.6755535739
 20
82.9564744656
 30
0.0
 10
35.1183348079
 20
83.0619899388
 30
0.0
 10
34.3466004845
 20
83.138742598
 30
0.0
 10
33.5656236345
 20
83.117253254
 30
0.0
 10
32.8066987249
 20
82.997041123
 30
0.0
 10
32.2696140877
 20
82.8607390909
 30
0.0
 10
31.7727344601
 20
82.6806350933
 30
0.0
 10
31.464644054
 20
82.5287937913
 30
0.0
 10
31.3209435168
 20
82.4458287427
 30
0.0
  0
SPLINE
  5
2D4
100
AcDbEntity
  8
0
100
AcDbSpline
 62
7
  6
BYLAYER
 70
0
 71
3
 72
14
 73
10
 74
0
 42
0.0000001
 43
0.0000001
 44
0.0000000001
 40
0.0
 40
0.0
 40
0.0
 40
0.0
 40
0.108043954
 40
0.218133765
 40
0.3321071597
 40
0.4514835263
 40
0.5774327111
 40
0.7107566597
 40
1.0
 40
1.0
 40
1.0
 40
1.0
 10
38.1493529066
 20
78.5778232851
 30
0.0
 10
38.1493547138
 20
78.5021011058
 30
0.0
 10
38.1362471752
 20
78.3489090575
 30
0.0
 10
38.0774756968
 20
78.1226687957
 30
0.0
 10
37.9806361349
 20
77.9012798322
 30
0.0
 10
37.8468126762
 20
77.6870275769
 30
0.0
 10
37.6774901228
 20
77.4817724489
 30
0.0
 10
37.3992583636
 20
77.2155479129
 30
0.0
 10
37.1533779672
 20
77.0462173437
 30
0.0
 10
36.9778213179
 20
76.94486027
 30
0.0
  0
SPLINE
  5
2D5
100
AcDbEntity
  8
0
100
AcDbSpline
 62
7
  6
BYLAYER
 70
0
 71
3
 72
9
 73
5
 74
0
 42
0.0000001
 43
0.0000001
 44
0.0000000001
 40
0.0
 40
0.0
 40
0.0
 40
0.0
 40
0.2491963902
 40
1.0
 40
1.0
 40
1.0
 40
1.0
 10
38.3753503735
 20
78.304274354
 30
0.0
 10
38.3739614204
 20
78.3315000455
 30
0.0
 10
38.3654961799
 20
78.4405917072
 30
0.0
 10
38.3454590408
 20
78.5487499293
 30
0.0
 10
38.3244467507
 20
78.6281516436
 30
0.0
  0
SPLINE
  5
2D6
100
AcDbEntity
  8
0
100
AcDbSpline
 62
7
  6
BYLAYER
 70
0
 71
3
 72
9
 73
5
 74
0
 42
0.0000001
 43
0.0000001
 44
0.0000000001
 40
0.0
 40
0.0
 40
0.0
 40
0.0
 40
0.2473685175
 40
1.0
 40
1.0
 40
1.0
 40
1.0
 10
38.3244467507
 20
78.6281516436
 30
0.0
 10
38.3177621549
 20
78.6534115443
 30
0.0
 10
38.28830445
 20
78.7548718116
 30
0.0
 10
38.2491837656
 20
78.8534799262
 30
0.0
 10
38.2151115009
 20
78.9253085167
 30
0.0
  0
SPLINE
  5
2D7
100
AcDbEntity
  8
0
100
AcDbSpline
 62
7
  6
BYLAYER
 70
0
 71
3
 72
9
 73
5
 74
0
 42
0.0000001
 43
0.0000001
 44
0.0000000001
 40
0.0
 40
0.0
 40
0.0
 40
0.0
 40
0.2515166021
 40
1.0
 40
1.0
 40
1.0
 40
1.0
 10
29.9747679657
 20
78.629703265
 30
0.0
 10
29.9676670508
 20
78.6029813715
 30
0.0
 10
29.942115041
 20
78.4960473771
 30
0.0
 10
29.9276066761
 20
78.3864484408
 30
0.0
 10
29.9234144612
 20
78.304274354
 30
0.0
  0
SPLINE
  5
2D8
100
AcDbEntity
  8
0
100
AcDbSpline
 62
7
  6
BYLAYER
 70
0
 71
3
 72
12
 73
8
 74
0
 42
0.0000001
 43
0.0000001
 44
0.0000000001
 40
0.0
 40
0.0
 40
0.0
 40
0.0
 40
0.2894847231
 40
0.5486751865
 40
0.7816263484
 40
0.8918293154
 40
1.0
 40
1.0
 40
1.0
 40
1.0
 10
34.6090773379
 20
51.1536410768
 30
0.0
 10
34.6090773379
 20
51.0447045663
 30
0.0
 10
34.5925085059
 20
50.8375020752
 30
0.0
 10
34.5088139933
 20
50.5529682956
 30
0.0
 10
34.3883694233
 20
50.3566478606
 30
0.0
 10
34.2667840078
 20
50.2371029168
 30
0.0
 10
34.1990336571
 20
50.1897634417
 30
0.0
 10
34.1637812521
 20
50.1694105932
 30
0.0
  0
SPLINE
  5
2D9
100
AcDbEntity
  8
0
100
AcDbSpline
 62
7
  6
BYLAYER
 70
0
 71
3
 72
12
 73
8
 74
0
 42
0.0000001
 43
0.0000001
 44
0.0000000001
 40
0.0
 40
0.0
 40
0.0
 40
0.0
 40
0.2894847231
 40
0.5486751865
 40
0.7816263484
 40
0.8918293154
 40
1.0
 40
1.0
 40
1.0
 40
1.0
 10
19.7597731098
 20
59.7266969217
 30
0.0
 10
19.7597731098
 20
59.6177604112
 30
0.0
 10
19.7432042778
 20
59.4105579201
 30
0.0
 10
19.6595097652
 20
59.1260241405
 30
0.0
 10
19.5390651952
 20
58.9297037055
 30
0.0
 10
19.4174797797
 20
58.8101587617
 30
0.0
 10
19.349729429
 20
58.7628192866
 30
0.0
 10
19.314477024
 20
58.7424664381
 30
0.0
  0
SPLINE
  5
2DA
100
AcDbEntity
  8
0
100
AcDbSpline
 62
7
  6
BYLAYER
 70
0
 71
3
 72
11
 73
7
 74
0
 42
0.0000001
 43
0.0000001
 44
0.0000000001
 40
0.0
 40
0.0
 40
0.0
 40
0.0
 40
0.2623101792
 40
0.5232787045
 40
0.7721956439
 40
1.0
 40
1.0
 40
1.0
 40
1.0
 10
19.0526633846
 20
61.6181879756
 30
0.0
 10
19.161545567
 20
61.4757344358
 30
0.0
 10
19.3576525556
 20
61.1748327704
 30
0.0
 10
19.5806733549
 20
60.6944305918
 30
0.0
 10
19.7227912828
 20
60.2086282055
 30
0.0
 10
19.7597731098
 20
59.8824103838
 30
0.0
 10
19.7597731098
 20
59.7266969217
 30
0.0
  0
SPLINE
  5
2DB
100
AcDbEntity
  8
0
100
AcDbSpline
 62
7
  6
BYLAYER
 70
0
 71
3
 72
11
 73
7
 74
0
 42
0.0000001
 43
0.0000001
 44
0.0000000001
 40
0.0
 40
0.0
 40
0.0
 40
0.0
 40
0.2644477991
 40
0.5268899656
 40
0.7752865935
 40
1.0
 40
1.0
 40
1.0
 40
1.0
 10
35.6414256595
 20
45.5291506244
 30
0.0
 10
35.7081699552
 20
45.4683987032
 30
0.0
 10
35.835444824
 20
45.34095827
 30
0.0
 10
36.0054977178
 20
45.1377917816
 30
0.0
 10
36.1483817365
 20
44.9309655987
 30
0.0
 10
36.2262793343
 20
44.7890229912
 30
0.0
 10
36.2583954956
 20
44.7193794239
 30
0.0
  0
SPLINE
  5
2DC
100
AcDbEntity
  8
0
100
AcDbSpline
 62
7
  6
BYLAYER
 70
0
 71
3
 72
9
 73
5
 74
0
 42
0.0000001
 43
0.0000001
 44
0.0000000001
 40
0.0
 40
0.0
 40
0.0
 40
0.0
 40
0.2524299562
 40
1.0
 40
1.0
 40
1.0
 40
1.0
 10
29.8019949344
 20
50.033287485
 30
0.0
 10
29.8619188002
 20
49.9718126512
 30
0.0
 10
30.1018892944
 20
49.7308184805
 30
0.0
 10
30.3523782085
 20
49.5002391176
 30
0.0
 10
30.5455677476
 20
49.3349628201
 30
0.0
  0
SPLINE
  5
2DD
100
AcDbEntity
  8
0
100
AcDbSpline
 62
7
  6
BYLAYER
 70
0
 71
3
 72
9
 73
5
 74
0
 42
0.0000001
 43
0.0000001
 44
0.0000000001
 40
0.0
 40
0.0
 40
0.0
 40
0.0
 40
0.4871024373
 40
1.0
 40
1.0
 40
1.0
 40
1.0
 10
14.5969063
 20
57.6789875529
 30
0.0
 10
15.1779736619
 20
57.4987812521
 30
0.0
 10
16.3606610058
 20
57.095373585
 30
0.0
 10
17.522405809
 20
56.6356046209
 30
0.0
 10
18.1130013255
 20
56.3875156738
 30
0.0
  0
SPLINE
  5
2DE
100
AcDbEntity
  8
0
100
AcDbSpline
 62
7
  6
BYLAYER
 70
0
 71
3
 72
19
 73
15
 74
0
 42
0.0000001
 43
0.0000001
 44
0.0000000001
 40
0.0
 40
0.0
 40
0.0
 40
0.0
 40
0.0428394104
 40
0.0874448899
 40
0.1352571039
 40
0.1871950253
 40
0.2436735499
 40
0.3046656819
 40
0.4382689093
 40
0.5825434307
 40
0.7296392143
 40
0.871166535
 40
0.9376088396
 40
1.0
 40
1.0
 40
1.0
 40
1.0
 10
16.4573859559
 20
64.507611185
 30
0.0
 10
16.5103881744
 20
64.5382171877
 30
0.0
 10
16.6272404972
 20
64.5867378488
 30
0.0
 10
16.8200983994
 20
64.615048982
 30
0.0
 10
17.0272083695
 20
64.5997736705
 30
0.0
 10
17.2439592786
 20
64.542200961
 30
0.0
 10
17.4661193984
 20
64.4440421108
 30
0.0
 10
17.7727807183
 20
64.2563212899
 30
0.0
 10
18.1381117598
 20
63.9327946588
 30
0.0
 10
18.51360135
 20
63.4520636036
 30
0.0
 10
18.8092709179
 20
62.9056968633
 30
0.0
 10
18.9728764925
 20
62.4221535137
 30
0.0
 10
19.0405180358
 20
62.0412702726
 30
0.0
 10
19.0526633846
 20
61.8570801838
 30
0.0
 10
19.0526633846
 20
61.7679425105
 30
0.0
  0
SPLINE
  5
2DF
100
AcDbEntity
  8
0
100
AcDbSpline
 62
7
  6
BYLAYER
 70
0
 71
3
 72
19
 73
15
 74
0
 42
0.0000001
 43
0.0000001
 44
0.0000000001
 40
0.0
 40
0.0
 40
0.0
 40
0.0
 40
0.0428394104
 40
0.0874448899
 40
0.1352571039
 40
0.1871950253
 40
0.2436735499
 40
0.3046656819
 40
0.4382689093
 40
0.5825434307
 40
0.7296392143
 40
0.871166535
 40
0.9376088396
 40
1.0
 40
1.0
 40
1.0
 40
1.0
 10
32.0137999091
 20
55.5263145855
 30
0.0
 10
32.0668021276
 20
55.5569205882
 30
0.0
 10
32.1836544505
 20
55.6054412494
 30
0.0
 10
32.3765123526
 20
55.6337523825
 30
0.0
 10
32.5836223227
 20
55.6184770711
 30
0.0
 10
32.8003732318
 20
55.5609043615
 30
0.0
 10
33.0225333517
 20
55.4627455114
 30
0.0
 10
33.3291946716
 20
55.2750246904
 30
0.0
 10
33.694525713
 20
54.9514980594
 30
0.0
 10
34.0700153032
 20
54.4707670041
 30
0.0
 10
34.3656848711
 20
53.9244002639
 30
0.0
 10
34.5292904457
 20
53.4408569142
 30
0.0
 10
34.596931989
 20
53.0599736732
 30
0.0
 10
34.6090773379
 20
52.8757835843
 30
0.0
 10
34.6090773379
 20
52.786645911
 30
0.0
  0
SPLINE
  5
2E0
100
AcDbEntity
  8
0
100
AcDbSpline
 62
7
  6
BYLAYER
 70
0
 71
3
 72
11
 73
7
 74
0
 42
0.0000001
 43
0.0000001
 44
0.0000000001
 40
0.0
 40
0.0
 40
0.0
 40
0.0
 40
0.2502967885
 40
0.512831404
 40
0.7685531842
 40
1.0
 40
1.0
 40
1.0
 40
1.0
 10
53.6235520435
 20
67.0246387265
 30
0.0
 10
53.6716117249
 20
66.9835129291
 30
0.0
 10
53.760054849
 20
66.887211086
 30
0.0
 10
53.8622035206
 20
66.7207459191
 30
0.0
 10
53.929777037
 20
66.5425773677
 30
0.0
 10
53.9483811223
 20
66.4193370744
 30
0.0
 10
53.9483811223
 20
66.3608467955
 30
0.0
  0
SPLINE
  5
2E1
100
AcDbEntity
  8
0
100
AcDbSpline
 62
7
  6
BYLAYER
 70
0
 71
3
 72
11
 73
7
 74
0
 42
0.0000001
 43
0.0000001
 44
0.0000000001
 40
0.0
 40
0.0
 40
0.0
 40
0.0
 40
0.236292443
 40
0.482127322
 40
0.7369708888
 40
1.0
 40
1.0
 40
1.0
 40
1.0
 10
41.1060144653
 20
75.9266589303
 30
0.0
 10
42.1817565841
 20
75.3663167475
 30
0.0
 10
44.3337799377
 20
74.1390591665
 30
0.0
 10
47.4858598055
 20
72.0425897756
 30
0.0
 10
50.6072264928
 20
69.6667975629
 30
0.0
 10
52.624414589
 20
67.932768989
 30
0.0
 10
53.6235520435
 20
67.0246387265
 30
0.0
  0
SPLINE
  5
2E2
100
AcDbEntity
  8
0
100
AcDbSpline
 62
7
  6
BYLAYER
 70
0
 71
3
 72
11
 73
7
 74
0
 42
0.0000001
 43
0.0000001
 44
0.0000000001
 40
0.0
 40
0.0
 40
0.0
 40
0.0
 40
0.2176664589
 40
0.4508331335
 40
0.7105115758
 40
1.0
 40
1.0
 40
1.0
 40
1.0
 10
14.4746581775
 20
69.0848651893
 30
0.0
 10
14.4548764293
 20
69.0734464203
 30
0.0
 10
14.4178488793
 20
69.0423315914
 30
0.0
 10
14.3783916291
 20
68.9778634826
 30
0.0
 10
14.355036815
 20
68.8983991428
 30
0.0
 10
14.3503837124
 20
68.8405838747
 30
0.0
 10
14.3503837124
 20
68.8102063388
 30
0.0
  0
SPLINE
  5
2E3
100
AcDbEntity
  8
0
100
AcDbSpline
 62
7
  6
BYLAYER
 70
0
 71
3
 72
17
 73
13
 74
0
 42
0.0000001
 43
0.0000001
 44
0.0000000001
 40
0.0
 40
0.0
 40
0.0
 40
0.0
 40
0.0444346493
 40
0.0898152779
 40
0.1863489985
 40
0.2389990339
 40
0.294924865
 40
0.4167703685
 40
0.5512566768
 40
0.6958009238
 40
0.846852245
 40
1.0
 40
1.0
 40
1.0
 40
1.0
 10
24.1266006682
 20
61.9878765514
 30
0.0
 10
24.1666471289
 20
62.0109824758
 30
0.0
 10
24.252064272
 20
62.0503890922
 30
0.0
 10
24.4406238103
 20
62.0991166676
 30
0.0
 10
24.6468605958
 20
62.0980154084
 30
0.0
 10
24.8560674927
 20
62.054436588
 30
0.0
 10
25.083813286
 20
61.9777293973
 30
0.0
 10
25.3725860044
 20
61.8240576465
 30
0.0
 10
25.7037702999
 20
61.5679759991
 30
0.0
 10
26.0162486647
 20
61.2457069197
 30
0.0
 10
26.2965993437
 20
60.8709297141
 30
0.0
 10
26.4548571435
 20
60.5957668413
 30
0.0
 10
26.5257568849
 20
60.4530584479
 30
0.0
  0
SPLINE
  5
2E4
100
AcDbEntity
  8
0
100
AcDbSpline
 62
7
  6
BYLAYER
 70
0
 71
3
 72
11
 73
7
 74
0
 42
0.0000001
 43
0.0000001
 44
0.0000000001
 40
0.0
 40
0.0
 40
0.0
 40
0.0
 40
0.2272590486
 40
0.4648166926
 40
0.721104274
 40
1.0
 40
1.0
 40
1.0
 40
1.0
 10
11.0305322892
 20
55.6912682591
 30
0.0
 10
11.0013323095
 20
55.6744342092
 30
0.0
 10
10.9460947128
 20
55.6315936622
 30
0.0
 10
10.8806161549
 20
55.545747747
 30
0.0
 10
10.8330845238
 20
55.440576351
 30
0.0
 10
10.8143690133
 20
55.3629745838
 30
0.0
 10
10.807793488
 20
55.3221373556
 30
0.0
  0
SPLINE
  5
2E5
100
AcDbEntity
  8
0
100
AcDbSpline
 62
7
  6
BYLAYER
 70
0
 71
3
 72
16
 73
12
 74
0
 42
0.0000001
 43
0.0000001
 44
0.0000000001
 40
0.0
 40
0.0
 40
0.0
 40
0.0
 40
0.1512285665
 40
0.2971529728
 40
0.4361021347
 40
0.5667533038
 40
0.6882583641
 40
0.8003966782
 40
0.9037492039
 40
0.9526406489
 40
1.0
 40
1.0
 40
1.0
 40
1.0
 10
31.6434307524
 20
7.7648851056
 30
0.0
 10
31.1478161273
 20
7.8327972412
 30
0.0
 10
30.1789914588
 20
8.0073134669
 30
0.0
 10
28.7860384819
 20
8.3900827797
 30
0.0
 10
27.5002841233
 20
8.8828885301
 30
0.0
 10
26.3473370592
 20
9.4761399282
 30
0.0
 10
25.34986867
 20
10.1588572968
 30
0.0
 10
24.5278994805
 20
10.9183672952
 30
0.0
 10
23.9935921927
 20
11.618028186
 30
0.0
 10
23.6779330404
 20
12.1991410038
 30
0.0
 10
23.5569617574
 20
12.4945248581
 30
0.0
 10
23.5061356854
 20
12.6427097393
 30
0.0
  0
SPLINE
  5
2E6
100
AcDbEntity
  8
0
100
AcDbSpline
 62
7
  6
BYLAYER
 70
0
 71
3
 72
14
 73
10
 74
0
 42
0.0000001
 43
0.0000001
 44
0.0000000001
 40
0.0
 40
0.0
 40
0.0
 40
0.0
 40
0.1122646435
 40
0.2253618136
 40
0.3415440594
 40
0.4619765615
 40
0.5880565282
 40
0.7202175489
 40
1.0
 40
1.0
 40
1.0
 40
1.0
 10
22.7420982167
 20
51.1596780218
 30
0.0
 10
22.6455253569
 20
51.116938892
 30
0.0
 10
22.4396051374
 20
51.0561331751
 30
0.0
 10
22.1159496356
 20
51.042395252
 30
0.0
 10
21.7895767734
 20
51.0984702179
 30
0.0
 10
21.4680488944
 20
51.2173246361
 30
0.0
 10
21.1560177708
 20
51.3917555959
 30
0.0
 10
20.7499281437
 20
51.6955589615
 30
0.0
 10
20.4827449653
 20
51.9817877107
 30
0.0
 10
20.3223180241
 20
52.1904336322
 30
0.0
  0
SPLINE
  5
2E7
100
AcDbEntity
  8
0
100
AcDbSpline
 62
7
  6
BYLAYER
 70
0
 71
3
 72
14
 73
10
 74
0
 42
0.0000001
 43
0.0000001
 44
0.0000000001
 40
0.0
 40
0.0
 40
0.0
 40
0.0
 40
0.2797938119
 40
0.4119545329
 40
0.5380352458
 40
0.6584625789
 40
0.7746340264
 40
0.8877419687
 40
1.0
 40
1.0
 40
1.0
 40
1.0
 10
19.7723144822
 20
53.1430651162
 30
0.0
 10
19.6718277175
 20
53.3863344942
 30
0.0
 10
19.5575335296
 20
53.7608518174
 30
0.0
 10
19.497472344
 20
54.2644562864
 30
0.0
 10
19.5024432818
 20
54.6218992904
 30
0.0
 10
19.5602683571
 20
54.9597678659
 30
0.0
 10
19.6748805544
 20
55.2704590097
 30
0.0
 10
19.8486279994
 20
55.5438679506
 30
0.0
 10
20.0042441536
 20
55.691808733
 30
0.0
 10
20.0895403035
 20
55.7540705222
 30
0.0
  0
SPLINE
  5
2E8
100
AcDbEntity
  8
0
100
AcDbSpline
 62
7
  6
BYLAYER
 70
0
 71
3
 72
9
 73
5
 74
0
 42
0.0000001
 43
0.0000001
 44
0.0000000001
 40
0.0
 40
0.0
 40
0.0
 40
0.0
 40
0.2543964128
 40
1.0
 40
1.0
 40
1.0
 40
1.0
 10
28.1278967249
 20
73.3048463636
 30
0.0
 10
28.1030236576
 20
73.2681605922
 30
0.0
 10
28.0082257033
 20
73.1219702363
 30
0.0
 10
27.9257204911
 20
72.9677187943
 30
0.0
 10
27.8726484502
 20
72.8491499205
 30
0.0
  0
SPLINE
  5
2E9
100
AcDbEntity
  8
0
100
AcDbSpline
 62
7
  6
BYLAYER
 70
0
 71
3
 72
9
 73
5
 74
0
 42
0.0000001
 43
0.0000001
 44
0.0000000001
 40
0.0
 40
0.0
 40
0.0
 40
0.0
 40
0.5050783127
 40
1.0
 40
1.0
 40
1.0
 40
1.0
 10
27.8726484502
 20
72.8491499205
 30
0.0
 10
27.8005733269
 20
72.6881260359
 30
0.0
 10
27.6882223277
 20
72.3545200191
 30
0.0
 10
27.6493824174
 20
72.0042101115
 30
0.0
 10
27.6493824174
 20
71.8313391362
 30
0.0
  0
SPLINE
  5
2EA
100
AcDbEntity
  8
0
100
AcDbSpline
 62
7
  6
BYLAYER
 70
0
 71
3
 72
11
 73
7
 74
0
 42
0.0000001
 43
0.0000001
 44
0.0000000001
 40
0.0
 40
0.0
 40
0.0
 40
0.0
 40
0.2514251033
 40
0.5014327466
 40
0.7506538262
 40
1.0
 40
1.0
 40
1.0
 40
1.0
 10
20.9229317873
 20
60.0696056841
 30
0.0
 10
20.6343054582
 20
59.8360140945
 30
0.0
 10
20.0841702983
 20
59.3375236464
 30
0.0
 10
19.3521841108
 20
58.5016740814
 30
0.0
 10
18.7270872789
 20
57.5866620703
 30
0.0
 10
18.3890535212
 20
56.9299961352
 30
0.0
 10
18.2414259353
 20
56.5926450892
 30
0.0
  0
SPLINE
  5
2EB
100
AcDbEntity
  8
0
100
AcDbSpline
 62
7
  6
BYLAYER
 70
0
 71
3
 72
9
 73
5
 74
0
 42
0.0000001
 43
0.0000001
 44
0.0000000001
 40
0.0
 40
0.0
 40
0.0
 40
0.0
 40
0.2646929835
 40
1.0
 40
1.0
 40
1.0
 40
1.0
 10
21.2060205281
 20
60.2864288817
 30
0.0
 10
21.1805363585
 20
60.2679648565
 30
0.0
 10
21.0846722506
 20
60.197643273
 30
0.0
 10
20.9905171407
 20
60.1249574937
 30
0.0
 10
20.9227764528
 20
60.0696953644
 30
0.0
  0
SPLINE
  5
2EC
100
AcDbEntity
  8
0
100
AcDbSpline
 62
7
  6
BYLAYER
 70
0
 71
3
 72
23
 73
19
 74
0
 42
0.0000001
 43
0.0000001
 44
0.0000000001
 40
0.0
 40
0.0
 40
0.0
 40
0.0
 40
0.0622055491
 40
0.1280706022
 40
0.1969244653
 40
0.2680141161
 40
0.3404082657
 40
0.4131165531
 40
0.4851345548
 40
0.5554917202
 40
0.6233075154
 40
0.6878520158
 40
0.7486081827
 40
0.8053366605
 40
0.8581483744
 40
0.9075605283
 40
0.9544346997
 40
1.0
 40
1.0
 40
1.0
 40
1.0
 10
29.9585374742
 20
70.2064054557
 30
0.0
 10
30.1738957846
 20
70.0820710901
 30
0.0
 10
30.6343669929
 20
69.8549896141
 30
0.0
 10
31.3757582852
 20
69.5863886784
 30
0.0
 10
32.1745552123
 20
69.3840929225
 30
0.0
 10
33.0141372602
 20
69.2517102338
 30
0.0
 10
33.8773818938
 20
69.1918732396
 30
0.0
 10
34.7462791899
 20
69.2056997846
 30
0.0
 10
35.602748583
 20
69.2929009223
 30
0.0
 10
36.4290270862
 20
69.4518132024
 30
0.0
 10
37.2081392732
 20
69.6794533825
 30
0.0
 10
37.9243412832
 20
69.9716876586
 30
0.0
 10
38.5633714525
 20
70.3236510007
 30
0.0
 10
39.1124225161
 20
70.7301312561
 30
0.0
 10
39.559845019
 20
71.1856491433
 30
0.0
 10
39.8936649073
 20
71.684380989
 30
0.0
 10
40.1018226995
 20
72.2170678723
 30
0.0
 10
40.1493824173
 20
72.5881650367
 30
0.0
 10
40.1493824173
 20
72.7703169159
 30
0.0
  0
SPLINE
  5
2ED
100
AcDbEntity
  8
0
100
AcDbSpline
 62
7
  6
BYLAYER
 70
0
 71
3
 72
14
 73
10
 74
0
 42
0.0000001
 43
0.0000001
 44
0.0000000001
 40
0.0
 40
0.0
 40
0.0
 40
0.0
 40
0.1116822063
 40
0.2247343861
 40
0.3407312659
 40
0.4609469953
 40
0.586350225
 40
0.7178150105
 40
1.0
 40
1.0
 40
1.0
 40
1.0
 10
28.1493824174
 20
72.7703169159
 30
0.0
 10
28.1493824174
 20
72.6480630686
 30
0.0
 10
28.1704517638
 20
72.4015728686
 30
0.0
 10
28.2637848193
 20
72.0388292436
 30
0.0
 10
28.4169458165
 20
71.6868857549
 30
0.0
 10
28.6263516135
 20
71.3494978806
 30
0.0
 10
28.8890036373
 20
71.0296203592
 30
0.0
 10
29.3153594797
 20
70.6202190362
 30
0.0
 10
29.6910240709
 20
70.3608508971
 30
0.0
 10
29.9585374742
 20
70.2064054557
 30
0.0
  0
SPLINE
  5
2EE
100
AcDbEntity
  8
0
100
AcDbSpline
 62
7
  6
BYLAYER
 70
0
 71
3
 72
9
 73
5
 74
0
 42
0.0000001
 43
0.0000001
 44
0.0000000001
 40
0.0
 40
0.0
 40
0.0
 40
0.0
 40
0.5061354691
 40
1.0
 40
1.0
 40
1.0
 40
1.0
 10
27.4665194189
 20
58.4380878348
 30
0.0
 10
27.7456843846
 20
57.7820443093
 30
0.0
 10
28.2538611735
 20
56.466919789
 30
0.0
 10
28.6682481217
 20
55.1191175454
 30
0.0
 10
28.8473353983
 20
54.446879031
 30
0.0
  0
SPLINE
  5
2EF
100
AcDbEntity
  8
0
100
AcDbSpline
 62
7
  6
BYLAYER
 70
0
 71
3
 72
11
 73
7
 74
0
 42
0.0000001
 43
0.0000001
 44
0.0000000001
 40
0.0
 40
0.0
 40
0.0
 40
0.0
 40
0.2780752343
 40
0.5367136578
 40
0.776593132
 40
1.0
 40
1.0
 40
1.0
 40
1.0
 10
29.9066721973
 20
71.0149541495
 30
0.0
 10
29.7278329191
 20
71.1182099973
 30
0.0
 10
29.3930466744
 20
71.3365519379
 30
0.0
 10
28.9533183053
 20
71.7125616692
 30
0.0
 10
28.6011508847
 20
72.1196981376
 30
0.0
 10
28.4236785073
 20
72.4172765741
 30
0.0
 10
28.3538339251
 20
72.5677673848
 30
0.0
  0
SPLINE
  5
2F0
100
AcDbEntity
  8
0
100
AcDbSpline
 62
7
  6
BYLAYER
 70
0
 71
3
 72
9
 73
5
 74
0
 42
0.0000001
 43
0.0000001
 44
0.0000000001
 40
0.0
 40
0.0
 40
0.0
 40
0.0
 40
0.5045109149
 40
1.0
 40
1.0
 40
1.0
 40
1.0
 10
28.260710675
 20
72.8002129827
 30
0.0
 10
28.2252159686
 20
72.9051513629
 30
0.0
 10
28.1703227529
 20
73.1187872224
 30
0.0
 10
28.1503788458
 20
73.3385630013
 30
0.0
 10
28.149467109
 20
73.4473569772
 30
0.0
  0
SPLINE
  5
2F1
100
AcDbEntity
  8
0
100
AcDbSpline
 62
7
  6
BYLAYER
 70
0
 71
3
 72
11
 73
7
 74
0
 42
0.0000001
 43
0.0000001
 44
0.0000000001
 40
0.0
 40
0.0
 40
0.0
 40
0.0
 40
0.2650926457
 40
0.5201088199
 40
0.7650165048
 40
1.0
 40
1.0
 40
1.0
 40
1.0
 10
41.2784386448
 20
11.4438048412
 30
0.0
 10
41.2394989108
 20
14.4262953335
 30
0.0
 10
40.9817815671
 20
20.2776054239
 30
0.0
 10
40.0184147571
 20
28.8383536363
 30
0.0
 10
38.4902960285
 20
36.9726809828
 30
0.0
 10
37.0704148032
 20
42.1900013981
 30
0.0
 10
36.2637141536
 20
44.7078947348
 30
0.0
  0
SPLINE
  5
2F2
100
AcDbEntity
  8
0
100
AcDbSpline
 62
7
  6
BYLAYER
 70
0
 71
3
 72
9
 73
5
 74
0
 42
0.0000001
 43
0.0000001
 44
0.0000000001
 40
0.0
 40
0.0
 40
0.0
 40
0.0
 40
0.2719636547
 40
1.0
 40
1.0
 40
1.0
 40
1.0
 10
47.2636434059
 20
13.0928663276
 30
0.0
 10
47.2636434059
 20
13.122240738
 30
0.0
 10
47.2591571532
 20
13.2300348049
 30
0.0
 10
47.2350567578
 20
13.3382445206
 30
0.0
 10
47.2021656016
 20
13.4096693468
 30
0.0
  0
SPLINE
  5
2F3
100
AcDbEntity
  8
0
100
AcDbSpline
 62
7
  6
BYLAYER
 70
0
 71
3
 72
10
 73
6
 74
0
 42
0.0000001
 43
0.0000001
 44
0.0000000001
 40
0.0
 40
0.0
 40
0.0
 40
0.0
 40
0.5249285206
 40
0.7715403218
 40
1.0
 40
1.0
 40
1.0
 40
1.0
 10
47.0330798465
 20
12.3167214045
 30
0.0
 10
47.104552737
 20
12.440567962
 30
0.0
 10
47.1904436331
 20
12.6352322527
 30
0.0
 10
47.2522138062
 20
12.9010800117
 30
0.0
 10
47.2636434059
 20
13.0306338313
 30
0.0
 10
47.2636434059
 20
13.0928663276
 30
0.0
  0
SPLINE
  5
2F4
100
AcDbEntity
  8
0
100
AcDbSpline
 62
7
  6
BYLAYER
 70
0
 71
3
 72
9
 73
5
 74
0
 42
0.0000001
 43
0.0000001
 44
0.0000000001
 40
0.0
 40
0.0
 40
0.0
 40
0.0
 40
0.4830160048
 40
1.0
 40
1.0
 40
1.0
 40
1.0
 10
37.8411705059
 20
7.8876325103
 30
0.0
 10
38.5039694598
 20
8.0255958481
 30
0.0
 10
39.8557353507
 20
8.4147268307
 30
0.0
 10
41.1461391321
 20
8.9707932208
 30
0.0
 10
41.7953181398
 20
9.2927163241
 30
0.0
  0
SPLINE
  5
2F5
100
AcDbEntity
  8
0
100
AcDbSpline
 62
7
  6
BYLAYER
 70
0
 71
3
 72
9
 73
5
 74
0
 42
0.0000001
 43
0.0000001
 44
0.0000000001
 40
0.0
 40
0.0
 40
0.0
 40
0.0
 40
0.4961065568
 40
1.0
 40
1.0
 40
1.0
 40
1.0
 10
40.1493679585
 20
73.464343971
 30
0.0
 10
40.1493564847
 20
73.3609547629
 30
0.0
 10
40.1330766252
 20
73.152247242
 30
0.0
 10
40.0851230767
 20
72.948540315
 30
0.0
 10
40.0537410623
 20
72.8483270902
 30
0.0
  0
SPLINE
  5
2F6
100
AcDbEntity
  8
0
100
AcDbSpline
 62
7
  6
BYLAYER
 70
0
 71
3
 72
11
 73
7
 74
0
 42
0.0000001
 43
0.0000001
 44
0.0000000001
 40
0.0
 40
0.0
 40
0.0
 40
0.0
 40
0.2204213188
 40
0.4582510244
 40
0.7177348349
 40
1.0
 40
1.0
 40
1.0
 40
1.0
 10
40.0537410623
 20
72.8483270902
 30
0.0
 10
39.9982416415
 20
72.6710989537
 30
0.0
 10
39.8351758151
 20
72.3165030077
 30
0.0
 10
39.4673691596
 20
71.8317629325
 30
0.0
 10
38.9796883249
 20
71.3872760183
 30
0.0
 10
38.5980001373
 20
71.1338094307
 30
0.0
 10
38.3920407682
 20
71.0148994434
 30
0.0
  0
SPLINE
  5
2F7
100
AcDbEntity
  8
0
100
AcDbSpline
 62
7
  6
BYLAYER
 70
0
 71
3
 72
9
 73
5
 74
0
 42
0.0000001
 43
0.0000001
 44
0.0000000001
 40
0.0
 40
0.0
 40
0.0
 40
0.0
 40
0.2529300618
 40
1.0
 40
1.0
 40
1.0
 40
1.0
 10
41.2892035629
 20
76.4108753892
 30
0.0
 10
41.3205302961
 20
76.4533723405
 30
0.0
 10
41.4413376757
 20
76.6236064415
 30
0.0
 10
41.549514603
 20
76.8028829381
 30
0.0
 10
41.6217391497
 20
76.9410887069
 30
0.0
  0
SPLINE
  5
2F8
100
AcDbEntity
  8
0
100
AcDbSpline
 62
7
  6
BYLAYER
 70
0
 71
3
 72
10
 73
6
 74
0
 42
0.0000001
 43
0.0000001
 44
0.0000000001
 40
0.0
 40
0.0
 40
0.0
 40
0.0
 40
0.5033977729
 40
0.7519376808
 40
1.0
 40
1.0
 40
1.0
 40
1.0
 10
41.6217391497
 20
76.9410887069
 30
0.0
 10
41.7493301438
 20
77.1852413145
 30
0.0
 10
41.9009122351
 20
77.5731114616
 30
0.0
 10
42.0037790573
 20
78.1116091868
 30
0.0
 10
42.0210409662
 20
78.3837359218
 30
0.0
 10
42.0210409662
 20
78.5194864927
 30
0.0
  0
SPLINE
  5
2F9
100
AcDbEntity
  8
0
100
AcDbSpline
 62
7
  6
BYLAYER
 70
0
 71
3
 72
9
 73
5
 74
0
 42
0.0000001
 43
0.0000001
 44
0.0000000001
 40
0.0
 40
0.0
 40
0.0
 40
0.0
 40
0.4797506266
 40
1.0
 40
1.0
 40
1.0
 40
1.0
 10
29.664380708
 20
76.4471719718
 30
0.0
 10
29.8892766134
 20
76.3173311978
 30
0.0
 10
30.3767042791
 20
76.0784150046
 30
0.0
 10
30.8873212476
 20
75.8955682267
 30
0.0
 10
31.1567229838
 20
75.8135585746
 30
0.0
  0
SPLINE
  5
2FA
100
AcDbEntity
  8
0
100
AcDbSpline
 62
7
  6
BYLAYER
 70
0
 71
3
 72
15
 73
11
 74
0
 42
0.0000001
 43
0.0000001
 44
0.0000000001
 40
0.0
 40
0.0
 40
0.0
 40
0.0
 40
0.1165231618
 40
0.2338464446
 40
0.3527141611
 40
0.4740845166
 40
0.5987573551
 40
0.7276521334
 40
0.8613696365
 40
1.0
 40
1.0
 40
1.0
 40
1.0
 10
42.0210018776
 20
78.5174116142
 30
0.0
 10
42.0211857865
 20
78.696364337
 30
0.0
 10
41.9910271675
 20
79.0562038072
 30
0.0
 10
41.8578490791
 20
79.583562062
 30
0.0
 10
41.6407337004
 20
80.090281636
 30
0.0
 10
41.3469427709
 20
80.5696125114
 30
0.0
 10
40.982929738
 20
81.0177355424
 30
0.0
 10
40.5546368165
 20
81.4322783146
 30
0.0
 10
40.0678783811
 20
81.8117953009
 30
0.0
 10
39.7143536243
 20
82.0365893426
 30
0.0
 10
39.5299719606
 20
82.1430397375
 30
0.0
  0
SPLINE
  5
2FB
100
AcDbEntity
  8
0
100
AcDbSpline
 62
7
  6
BYLAYER
 70
0
 71
3
 72
23
 73
19
 74
0
 42
0.0000001
 43
0.0000001
 44
0.0000000001
 40
0.0
 40
0.0
 40
0.0
 40
0.0
 40
0.0619554227
 40
0.1270504435
 40
0.1947319797
 40
0.2643892934
 40
0.3351908869
 40
0.4062371222
 40
0.4766171918
 40
0.5454607426
 40
0.6120105598
 40
0.6756899711
 40
0.7361636093
 40
0.7934027546
 40
0.8477244878
 40
0.8997325444
 40
0.95022251
 40
1.0
 40
1.0
 40
1.0
 40
1.0
 10
39.5299719606
 20
82.1430397375
 30
0.0
 10
39.247615077
 20
82.3060548723
 30
0.0
 10
38.6463379581
 20
82.6027379686
 30
0.0
 10
37.6810962224
 20
82.9520695816
 30
0.0
 10
36.6464682696
 20
83.2127839882
 30
0.0
 10
35.5627235322
 20
83.3814301234
 30
0.0
 10
34.4507364368
 20
83.455240589
 30
0.0
 10
33.3327434804
 20
83.4330521477
 30
0.0
 10
32.231064886
 20
83.3152673669
 30
0.0
 10
31.1674923413
 20
83.1037107308
 30
0.0
 10
30.1625804402
 20
82.8015999253
 30
0.0
 10
29.2351185606
 20
82.4129311319
 30
0.0
 10
28.4020622296
 20
81.9417366453
 30
0.0
 10
27.6789879511
 20
81.3916445893
 30
0.0
 10
27.0818773807
 20
80.7658358493
 30
0.0
 10
26.6295475679
 20
80.0689238096
 30
0.0
 10
26.3436596301
 20
79.313265551
 30
0.0
 10
26.2780321622
 20
78.7835115696
 30
0.0
 10
26.2777629571
 20
78.5215613713
 30
0.0
  0
SPLINE
  5
2FC
100
AcDbEntity
  8
0
100
AcDbSpline
 62
7
  6
BYLAYER
 70
0
 71
3
 72
10
 73
6
 74
0
 42
0.0000001
 43
0.0000001
 44
0.0000000001
 40
0.0
 40
0.0
 40
0.0
 40
0.0
 40
0.2480624845
 40
0.496601387
 40
1.0
 40
1.0
 40
1.0
 40
1.0
 10
26.2777238685
 20
78.5194864927
 30
0.0
 10
26.2777238685
 20
78.3837364637
 30
0.0
 10
26.2949849108
 20
78.1116113812
 30
0.0
 10
26.3978523577
 20
77.5731163892
 30
0.0
 10
26.549431893
 20
77.18524758
 30
0.0
 10
26.6770219784
 20
76.9410954268
 30
0.0
  0
SPLINE
  5
2FD
100
AcDbEntity
  8
0
100
AcDbSpline
 62
7
  6
BYLAYER
 70
0
 71
3
 72
9
 73
5
 74
0
 42
0.0000001
 43
0.0000001
 44
0.0000000001
 40
0.0
 40
0.0
 40
0.0
 40
0.0
 40
0.2474467291
 40
1.0
 40
1.0
 40
1.0
 40
1.0
 10
26.6770219784
 20
76.9410954268
 30
0.0
 10
26.7009450201
 20
76.8953170883
 30
0.0
 10
26.8013717331
 20
76.7122868404
 30
0.0
 10
26.9163507769
 20
76.537322084
 30
0.0
 10
27.0095612718
 20
76.4108753892
 30
0.0
  0
SPLINE
  5
2FE
100
AcDbEntity
  8
0
100
AcDbSpline
 62
7
  6
BYLAYER
 70
0
 71
3
 72
14
 73
10
 74
0
 42
0.0000001
 43
0.0000001
 44
0.0000000001
 40
0.0
 40
0.0
 40
0.0
 40
0.0
 40
0.2892673064
 40
0.4225838261
 40
0.5485316447
 40
0.6679097459
 40
0.7818837796
 40
0.8919649018
 40
1.0
 40
1.0
 40
1.0
 40
1.0
 10
31.3209435168
 20
82.4458287427
 30
0.0
 10
31.1453718045
 20
82.3444629725
 30
0.0
 10
30.8994731134
 20
82.1751333441
 30
0.0
 10
30.6212497104
 20
81.9088842309
 30
0.0
 10
30.4519227334
 20
81.7036368246
 30
0.0
 10
30.3181207439
 20
81.4893715319
 30
0.0
 10
30.2212483906
 20
81.2679997135
 30
0.0
 10
30.1625216814
 20
81.0417582811
 30
0.0
 10
30.149401391
 20
80.8885819197
 30
0.0
 10
30.149396037
 20
80.8128657243
 30
0.0
  0
SPLINE
  5
2FF
100
AcDbEntity
  8
0
100
AcDbSpline
 62
7
  6
BYLAYER
 70
0
 71
3
 72
22
 73
18
 74
0
 42
0.0000001
 43
0.0000001
 44
0.0000000001
 40
0.0
 40
0.0
 40
0.0
 40
0.0
 40
0.0623812065
 40
0.1287697599
 40
0.198375321
 40
0.2703721814
 40
0.4173889886
 40
0.4904342126
 40
0.5617425967
 40
0.6303620052
 40
0.695468458
 40
0.7564347337
 40
0.8128897467
 40
0.8648045283
 40
0.9125938725
 40
0.9571816728
 40
1.0
 40
1.0
 40
1.0
 40
1.0
 10
36.9778213179
 20
76.94486027
 30
0.0
 10
36.8341563436
 20
76.8619157535
 30
0.0
 10
36.5261308528
 20
76.7101086252
 30
0.0
 10
36.0293640328
 20
76.5300171134
 30
0.0
 10
35.4923859657
 20
76.3937143586
 30
0.0
 10
34.7335665045
 20
76.2734923851
 30
0.0
 10
33.9526505347
 20
76.251924276
 30
0.0
 10
33.1809148646
 20
76.328652274
 30
0.0
 10
32.6236286781
 20
76.4341188792
 30
0.0
 10
32.0988827056
 20
76.5853301247
 30
0.0
 10
31.6177184482
 20
76.7792068195
 30
0.0
 10
31.1902311501
 20
77.0116959563
 30
0.0
 10
30.8253778176
 20
77.2782771205
 30
0.0
 10
30.5309721623
 20
77.5739713811
 30
0.0
 10
30.3137212591
 20
77.8934751072
 30
0.0
 10
30.1798356334
 20
78.2305266431
 30
0.0
 10
30.1494146457
 20
78.4639569025
 30
0.0
 10
30.1494119281
 20
78.5778232912
 30
0.0
  0
SPLINE
  5
300
100
AcDbEntity
  8
0
100
AcDbSpline
 62
7
  6
BYLAYER
 70
0
 71
3
 72
11
 73
7
 74
0
 42
0.0000001
 43
0.0000001
 44
0.0000000001
 40
0.0
 40
0.0
 40
0.0
 40
0.0
 40
0.237100044
 40
0.4889192556
 40
0.7464607696
 40
1.0
 40
1.0
 40
1.0
 40
1.0
 10
32.7281949675
 20
42.6666739655
 30
0.0
 10
32.7170463641
 20
42.7479948424
 30
0.0
 10
32.678806411
 20
42.9137672016
 30
0.0
 10
32.5842515175
 20
43.155116815
 30
0.0
 10
32.4548260786
 20
43.3862250515
 30
0.0
 10
32.348055709
 20
43.5281628879
 30
0.0
 10
32.2902208184
 20
43.5941867763
 30
0.0
  0
SPLINE
  5
301
100
AcDbEntity
  8
0
100
AcDbSpline
 62
7
  6
BYLAYER
 70
0
 71
3
 72
9
 73
5
 74
0
 42
0.0000001
 43
0.0000001
 44
0.0000000001
 40
0.0
 40
0.0
 40
0.0
 40
0.0
 40
0.2574269668
 40
1.0
 40
1.0
 40
1.0
 40
1.0
 10
15.9833540848
 20
54.2868563822
 30
0.0
 10
15.5867189317
 20
54.4411255414
 30
0.0
 10
14.0358168035
 20
55.013711116
 30
0.0
 10
12.4434244434
 20
55.4762851182
 30
0.0
 10
11.2453790372
 20
55.7441569747
 30
0.0
  0
SPLINE
  5
302
100
AcDbEntity
  8
0
100
AcDbSpline
 62
7
  6
BYLAYER
 70
0
 71
3
 72
11
 73
7
 74
0
 42
0.0000001
 43
0.0000001
 44
0.0000000001
 40
0.0
 40
0.0
 40
0.0
 40
0.0
 40
0.2269495202
 40
0.4678175914
 40
0.725076726
 40
1.0
 40
1.0
 40
1.0
 40
1.0
 10
28.5543290395
 20
72.2090247282
 30
0.0
 10
28.6065875575
 20
72.0817395451
 30
0.0
 10
28.7388613983
 20
71.8289607476
 30
0.0
 10
29.0039330571
 20
71.4762773295
 30
0.0
 10
29.3367461232
 20
71.1443335766
 30
0.0
 10
29.5924463157
 20
70.9461725623
 30
0.0
 10
29.7293858703
 20
70.8511457936
 30
0.0
  0
SPLINE
  5
303
100
AcDbEntity
  8
0
100
AcDbSpline
 62
7
  6
BYLAYER
 70
0
 71
3
 72
11
 73
7
 74
0
 42
0.0000001
 43
0.0000001
 44
0.0000000001
 40
0.0
 40
0.0
 40
0.0
 40
0.0
 40
0.2618537795
 40
0.5135218011
 40
0.7583174461
 40
1.0
 40
1.0
 40
1.0
 40
1.0
 10
21.2782059144
 20
56.2003108976
 30
0.0
 10
21.210201021
 20
56.2095871101
 30
0.0
 10
21.0752606237
 20
56.2182211567
 30
0.0
 10
20.8765343008
 20
56.1990285829
 30
0.0
 10
20.6889742931
 20
56.1479126249
 30
0.0
 10
20.5729978496
 20
56.0930166985
 30
0.0
 10
20.5184308733
 20
56.0608397363
 30
0.0
  0
SPLINE
  5
304
100
AcDbEntity
  8
0
100
AcDbSpline
 62
7
  6
BYLAYER
 70
0
 71
3
 72
11
 73
7
 74
0
 42
0.0000001
 43
0.0000001
 44
0.0000000001
 40
0.0
 40
0.0
 40
0.0
 40
0.0
 40
0.2799442851
 40
0.5414944602
 40
0.7817216338
 40
1.0
 40
1.0
 40
1.0
 40
1.0
 10
22.5548039027
 20
55.4633276468
 30
0.0
 10
22.4555075247
 20
55.5612631288
 30
0.0
 10
22.2528050047
 20
55.7403623695
 30
0.0
 10
21.930267326
 20
55.9606927629
 30
0.0
 10
21.6066902145
 20
56.1186799758
 30
0.0
 10
21.3854686805
 20
56.182231887
 30
0.0
 10
21.2782407577
 20
56.2003362365
 30
0.0
  0
SPLINE
  5
305
100
AcDbEntity
  8
0
100
AcDbSpline
 62
7
  6
BYLAYER
 70
0
 71
3
 72
15
 73
11
 74
0
 42
0.0000001
 43
0.0000001
 44
0.0000000001
 40
0.0
 40
0.0
 40
0.0
 40
0.0
 40
0.0940793389
 40
0.2012113141
 40
0.3209718215
 40
0.4510697281
 40
0.5880228739
 40
0.7278058441
 40
0.8664088737
 40
1.0
 40
1.0
 40
1.0
 40
1.0
 10
23.46552276
 20
51.6887242388
 30
0.0
 10
23.5303419668
 20
51.7995462764
 30
0.0
 10
23.6315989241
 20
52.0588348371
 30
0.0
 10
23.6964757952
 20
52.4944637551
 30
0.0
 10
23.6845741924
 20
52.9835283432
 30
0.0
 10
23.5965272717
 20
53.5055650465
 30
0.0
 10
23.4350226432
 20
54.0382252111
 30
0.0
 10
23.2050795383
 20
54.5578841023
 30
0.0
 10
22.9141917095
 20
55.0407068555
 30
0.0
 10
22.6800445044
 20
55.3311102561
 30
0.0
 10
22.5546426087
 20
55.4634357262
 30
0.0
  0
SPLINE
  5
306
100
AcDbEntity
  8
0
100
AcDbSpline
 62
7
  6
BYLAYER
 70
0
 71
3
 72
9
 73
5
 74
0
 42
0.0000001
 43
0.0000001
 44
0.0000000001
 40
0.0
 40
0.0
 40
0.0
 40
0.0
 40
0.2440902381
 40
1.0
 40
1.0
 40
1.0
 40
1.0
 10
23.3365807769
 20
51.5105516523
 30
0.0
 10
23.3485566423
 20
51.523871434
 30
0.0
 10
23.3959709762
 20
51.5799094031
 30
0.0
 10
23.4375152369
 20
51.6408435451
 30
0.0
 10
23.4655209913
 20
51.6887252599
 30
0.0
  0
SPLINE
  5
307
100
AcDbEntity
  8
0
100
AcDbSpline
 62
7
  6
BYLAYER
 70
0
 71
3
 72
15
 73
11
 74
0
 42
0.0000001
 43
0.0000001
 44
0.0000000001
 40
0.0
 40
0.0
 40
0.0
 40
0.0
 40
0.112216485
 40
0.2227190805
 40
0.3347306336
 40
0.4512649135
 40
0.574736219
 40
0.7068443925
 40
0.8485851744
 40
1.0
 40
1.0
 40
1.0
 40
1.0
 10
28.0622526692
 20
78.2143721827
 30
0.0
 10
28.0167187353
 20
78.3540415199
 30
0.0
 10
27.9531571383
 20
78.6410532663
 30
0.0
 10
27.95015188
 20
79.0824236567
 30
0.0
 10
28.0409437287
 20
79.5201639684
 30
0.0
 10
28.2233240233
 20
79.9463806832
 30
0.0
 10
28.4930284662
 20
80.3547958901
 30
0.0
 10
28.8454541631
 20
80.7398872698
 30
0.0
 10
29.2748986415
 20
81.0964330736
 30
0.0
 10
29.5978572679
 20
81.305452062
 30
0.0
 10
29.7695205542
 20
81.4045613149
 30
0.0
  0
SPLINE
  5
308
100
AcDbEntity
  8
0
100
AcDbSpline
 62
7
  6
BYLAYER
 70
0
 71
3
 72
14
 73
10
 74
0
 42
0.0000001
 43
0.0000001
 44
0.0000000001
 40
0.0
 40
0.0
 40
0.0
 40
0.0
 40
0.2953958043
 40
0.4340768081
 40
0.564788509
 40
0.6866642733
 40
0.7993962368
 40
0.903394165
 40
1.0
 40
1.0
 40
1.0
 40
1.0
 10
22.4978535264
 20
54.7644808248
 30
0.0
 10
22.3536050561
 20
54.952449108
 30
0.0
 10
22.1186116663
 20
55.2126895545
 30
0.0
 10
21.7693264493
 20
55.5021105766
 30
0.0
 10
21.507253702
 20
55.6760285105
 30
0.0
 10
21.2447006213
 20
55.8079374351
 30
0.0
 10
20.9863541956
 20
55.895119839
 30
0.0
 10
20.7370666584
 20
55.9356642663
 30
0.0
 10
20.5748513262
 20
55.9303290877
 30
0.0
 10
20.4982029352
 20
55.9189535142
 30
0.0
  0
SPLINE
  5
309
100
AcDbEntity
  8
0
100
AcDbSpline
 62
7
  6
BYLAYER
 70
0
 71
3
 72
9
 73
5
 74
0
 42
0.0000001
 43
0.0000001
 44
0.0000000001
 40
0.0
 40
0.0
 40
0.0
 40
0.0
 40
0.5051771292
 40
1.0
 40
1.0
 40
1.0
 40
1.0
 10
20.4597555914
 20
55.9124846309
 30
0.0
 10
20.4083580804
 20
55.9028021887
 30
0.0
 10
20.3079420965
 20
55.8755079775
 30
0.0
 10
20.2135582738
 20
55.8315509655
 30
0.0
 10
20.169192475
 20
55.8059356273
 30
0.0
  0
SPLINE
  5
30A
100
AcDbEntity
  8
0
100
AcDbSpline
 62
7
  6
BYLAYER
 70
0
 71
3
 72
9
 73
5
 74
0
 42
0.0000001
 43
0.0000001
 44
0.0000000001
 40
0.0
 40
0.0
 40
0.0
 40
0.0
 40
0.2485573473
 40
1.0
 40
1.0
 40
1.0
 40
1.0
 10
22.8268639866
 20
51.2027390928
 30
0.0
 10
22.8415885969
 20
51.2112405936
 30
0.0
 10
22.8998296659
 20
51.2471529346
 30
0.0
 10
22.9538589116
 20
51.2898425132
 30
0.0
 10
22.9914215979
 20
51.324932072
 30
0.0
  0
SPLINE
  5
30B
100
AcDbEntity
  8
0
100
AcDbSpline
 62
7
  6
BYLAYER
 70
0
 71
3
 72
14
 73
10
 74
0
 42
0.0000001
 43
0.0000001
 44
0.0000000001
 40
0.0
 40
0.0
 40
0.0
 40
0.0
 40
0.0948371263
 40
0.1965828734
 40
0.3074872356
 40
0.4284837314
 40
0.5594695693
 40
0.6995376841
 40
1.0
 40
1.0
 40
1.0
 40
1.0
 10
22.9914215979
 20
51.324932072
 30
0.0
 10
23.0511240842
 20
51.3807037464
 30
0.0
 10
23.1598484903
 20
51.5131831972
 30
0.0
 10
23.2773156797
 20
51.7526797027
 30
0.0
 10
23.3522003098
 20
52.0317655185
 30
0.0
 10
23.3835720827
 20
52.3439358511
 30
0.0
 10
23.3711705187
 20
52.6823927693
 30
0.0
 10
23.2950546535
 20
53.1696296974
 30
0.0
 10
23.1768413045
 20
53.5336403637
 30
0.0
 10
23.0759147296
 20
53.7719939731
 30
0.0
  0
SPLINE
  5
30C
100
AcDbEntity
  8
0
100
AcDbSpline
 62
7
  6
BYLAYER
 70
0
 71
3
 72
9
 73
5
 74
0
 42
0.0000001
 43
0.0000001
 44
0.0000000001
 40
0.0
 40
0.0
 40
0.0
 40
0.0
 40
0.2543022222
 40
1.0
 40
1.0
 40
1.0
 40
1.0
 10
38.2152633369
 20
70.6270581817
 30
0.0
 10
38.2460256032
 20
70.6448186784
 30
0.0
 10
38.3662976699
 20
70.7158531372
 30
0.0
 10
38.4837325459
 20
70.7917153143
 30
0.0
 10
38.5693078189
 20
70.8510964291
 30
0.0
  0
SPLINE
  5
30D
100
AcDbEntity
  8
0
100
AcDbSpline
 62
7
  6
BYLAYER
 70
0
 71
3
 72
15
 73
11
 74
0
 42
0.0000001
 43
0.0000001
 44
0.0000000001
 40
0.0
 40
0.0
 40
0.0
 40
0.0
 40
0.1141549974
 40
0.2373268943
 40
0.3669765742
 40
0.5000005394
 40
0.633024429
 40
0.7626738905
 40
0.8858454396
 40
1.0
 40
1.0
 40
1.0
 40
1.0
 10
30.0835353534
 20
70.6270386354
 30
0.0
 10
30.361877734
 20
70.4663412225
 30
0.0
 10
30.9705225725
 20
70.1829232324
 30
0.0
 10
31.9616638309
 20
69.8816816412
 30
0.0
 10
33.0347274798
 20
69.6962580557
 30
0.0
 10
34.1494063466
 20
69.6337002951
 30
0.0
 10
35.2640843026
 20
69.6962633736
 30
0.0
 10
36.3371452461
 20
69.8816920786
 30
0.0
 10
37.3282821446
 20
70.1829383668
 30
0.0
 10
37.9369231807
 20
70.4663593768
 30
0.0
 10
38.2152633369
 20
70.6270581817
 30
0.0
  0
SPLINE
  5
30E
100
AcDbEntity
  8
0
100
AcDbSpline
 62
7
  6
BYLAYER
 70
0
 71
3
 72
12
 73
8
 74
0
 42
0.0000001
 43
0.0000001
 44
0.0000000001
 40
0.0
 40
0.0
 40
0.0
 40
0.0
 40
0.1081711684
 40
0.2183745344
 40
0.4513260781
 40
0.710516265
 40
1.0
 40
1.0
 40
1.0
 40
1.0
 10
19.314477024
 20
58.7424664381
 30
0.0
 10
19.279225405
 20
58.7221140434
 30
0.0
 10
19.204354653
 20
58.6871113043
 30
0.0
 10
19.0400369857
 20
58.6415886962
 30
0.0
 10
18.8098023266
 20
58.6354398555
 30
0.0
 10
18.5215491032
 20
58.7052208626
 30
0.0
 10
18.3338266724
 20
58.7944686599
 30
0.0
 10
18.2394872007
 20
58.8489343471
 30
0.0
  0
SPLINE
  5
30F
100
AcDbEntity
  8
0
100
AcDbSpline
 62
7
  6
BYLAYER
 70
0
 71
3
 72
15
 73
11
 74
0
 42
0.0000001
 43
0.0000001
 44
0.0000000001
 40
0.0
 40
0.0
 40
0.0
 40
0.0
 40
0.1141511826
 40
0.2373301452
 40
0.3669785362
 40
0.5000021345
 40
0.6330258201
 40
0.7626766527
 40
0.8858475912
 40
1.0
 40
1.0
 40
1.0
 40
1.0
 10
37.9677749331
 20
70.7699424458
 30
0.0
 10
37.706382159
 20
70.6190281581
 30
0.0
 10
37.134769313
 20
70.352861297
 30
0.0
 10
36.2039503
 20
70.0699267422
 30
0.0
 10
35.1961735751
 20
69.8958120969
 30
0.0
 10
34.1493397278
 20
69.8370502633
 30
0.0
 10
33.1024986338
 20
69.8958231158
 30
0.0
 10
32.0947436784
 20
70.0699737887
 30
0.0
 10
31.1639342533
 20
70.3528993455
 30
0.0
 10
30.5923459166
 20
70.6190775552
 30
0.0
 10
30.3309523406
 20
70.769996939
 30
0.0
  0
SPLINE
  5
310
100
AcDbEntity
  8
0
100
AcDbSpline
 62
7
  6
BYLAYER
 70
0
 71
3
 72
15
 73
11
 74
0
 42
0.0000001
 43
0.0000001
 44
0.0000000001
 40
0.0
 40
0.0
 40
0.0
 40
0.0
 40
0.1080091018
 40
0.2180554733
 40
0.3319993252
 40
0.4513504205
 40
0.5772552088
 40
0.7104979391
 40
0.8514744006
 40
1.0
 40
1.0
 40
1.0
 40
1.0
 10
40.6493745305
 20
71.4230879271
 30
0.0
 10
40.6493750878
 20
71.3000392284
 30
0.0
 10
40.627965573
 20
71.0511275709
 30
0.0
 10
40.5326508997
 20
70.683438714
 30
0.0
 10
40.3751326534
 20
70.3237264295
 30
0.0
 10
40.1577092556
 20
69.9755155691
 30
0.0
 10
39.882566932
 20
69.6420617539
 30
0.0
 10
39.5526088404
 20
69.3261905609
 30
0.0
 10
39.1711002744
 20
69.0310133822
 30
0.0
 10
38.8921332949
 20
68.8541260781
 30
0.0
 10
38.7455956308
 20
68.7695230233
 30
0.0
  0
SPLINE
  5
311
100
AcDbEntity
  8
0
100
AcDbSpline
 62
7
  6
BYLAYER
 70
0
 71
3
 72
12
 73
8
 74
0
 42
0.0000001
 43
0.0000001
 44
0.0000000001
 40
0.0
 40
0.0
 40
0.0
 40
0.0
 40
0.1081711684
 40
0.2183745344
 40
0.4513260781
 40
0.710516265
 40
1.0
 40
1.0
 40
1.0
 40
1.0
 10
34.1637812521
 20
50.1694105932
 30
0.0
 10
34.128529633
 20
50.1490581985
 30
0.0
 10
34.0536588811
 20
50.1140554594
 30
0.0
 10
33.8893412138
 20
50.0685328512
 30
0.0
 10
33.6591065547
 20
50.0623840105
 30
0.0
 10
33.3708533313
 20
50.1321650177
 30
0.0
 10
33.1831309005
 20
50.2214128149
 30
0.0
 10
33.0887914288
 20
50.2758785022
 30
0.0
  0
SPLINE
  5
312
100
AcDbEntity
  8
0
100
AcDbSpline
 62
7
  6
BYLAYER
 70
0
 71
3
 72
12
 73
8
 74
0
 42
0.0000001
 43
0.0000001
 44
0.0000000001
 40
0.0
 40
0.0
 40
0.0
 40
0.0
 40
0.1078727335
 40
0.2189149127
 40
0.4545870394
 40
0.7141447909
 40
1.0
 40
1.0
 40
1.0
 40
1.0
 10
27.6811292942
 20
71.4610265174
 30
0.0
 10
27.6996544003
 20
71.3531648946
 30
0.0
 10
27.7534896121
 20
71.1367440757
 30
0.0
 10
27.9266955759
 20
70.7079775996
 30
0.0
 10
28.2690359019
 20
70.188959309
 30
0.0
 10
28.8411178173
 20
69.6339692394
 30
0.0
 10
29.3020494002
 20
69.322755038
 30
0.0
 10
29.5532074755
 20
69.1777521361
 30
0.0
  0
SPLINE
  5
313
100
AcDbEntity
  8
0
100
AcDbSpline
 62
7
  6
BYLAYER
 70
0
 71
3
 72
9
 73
5
 74
0
 42
0.0000001
 43
0.0000001
 44
0.0000000001
 40
0.0
 40
0.0
 40
0.0
 40
0.0
 40
0.2540032457
 40
1.0
 40
1.0
 40
1.0
 40
1.0
 10
20.4393671706
 20
52.0526579141
 30
0.0
 10
20.4607890323
 20
52.0275056111
 30
0.0
 10
20.5464166425
 20
51.9295924211
 30
0.0
 10
20.6372189319
 20
51.8361742642
 30
0.0
 10
20.7078507196
 20
51.7696429084
 30
0.0
  0
SPLINE
  5
314
100
AcDbEntity
  8
0
100
AcDbSpline
 62
7
  6
BYLAYER
 70
0
 71
3
 72
9
 73
5
 74
0
 42
0.0000001
 43
0.0000001
 44
0.0000000001
 40
0.0
 40
0.0
 40
0.0
 40
0.0
 40
0.2613458641
 40
1.0
 40
1.0
 40
1.0
 40
1.0
 10
20.7078507196
 20
51.7696429084
 30
0.0
 10
20.7473139407
 20
51.7324706707
 30
0.0
 10
20.9017715416
 20
51.5940242213
 30
0.0
 10
21.0704814473
 20
51.4709246689
 30
0.0
 10
21.2025559944
 20
51.3932412525
 30
0.0
  0
SPLINE
  5
315
100
AcDbEntity
  8
0
100
AcDbSpline
 62
7
  6
BYLAYER
 70
0
 71
3
 72
9
 73
5
 74
0
 42
0.0000001
 43
0.0000001
 44
0.0000000001
 40
0.0
 40
0.0
 40
0.0
 40
0.0
 40
0.2611251515
 40
1.0
 40
1.0
 40
1.0
 40
1.0
 10
21.2025559944
 20
51.3932412525
 30
0.0
 10
21.2327466799
 20
51.3754837388
 30
0.0
 10
21.3498794718
 20
51.3101419755
 30
0.0
 10
21.4733764584
 20
51.255797647
 30
0.0
 10
21.5673593574
 20
51.2243384593
 30
0.0
  0
SPLINE
  5
316
100
AcDbEntity
  8
0
100
AcDbSpline
 62
7
  6
BYLAYER
 70
0
 71
3
 72
11
 73
7
 74
0
 42
0.0000001
 43
0.0000001
 44
0.0000000001
 40
0.0
 40
0.0
 40
0.0
 40
0.0
 40
0.2785611962
 40
0.5315934581
 40
0.7678086545
 40
1.0
 40
1.0
 40
1.0
 40
1.0
 10
21.5673593574
 20
51.2243384593
 30
0.0
 10
21.6598733268
 20
51.1933709711
 30
0.0
 10
21.8425116018
 20
51.1498629051
 30
0.0
 10
22.1143374869
 20
51.149735826
 30
0.0
 10
22.3606939905
 20
51.22046888
 30
0.0
 10
22.499441917
 20
51.313593857
 30
0.0
 10
22.5595315488
 20
51.3683851017
 30
0.0
  0
SPLINE
  5
317
100
AcDbEntity
  8
0
100
AcDbSpline
 62
7
  6
BYLAYER
 70
0
 71
3
 72
14
 73
10
 74
0
 42
0.0000001
 43
0.0000001
 44
0.0000000001
 40
0.0
 40
0.0
 40
0.0
 40
0.0
 40
0.0950586386
 40
0.1968771027
 40
0.3076953091
 40
0.4285293555
 40
0.5593253406
 40
0.6992557724
 40
1.0
 40
1.0
 40
1.0
 40
1.0
 10
22.5595315488
 20
51.3683851017
 30
0.0
 10
22.6132973507
 20
51.4174101187
 30
0.0
 10
22.7115247104
 20
51.534042226
 30
0.0
 10
22.8189110665
 20
51.7455076539
 30
0.0
 10
22.8887153937
 20
51.99245648
 30
0.0
 10
22.9199845376
 20
52.269132193
 30
0.0
 10
22.9126295404
 20
52.5695951221
 30
0.0
 10
22.8500820914
 20
53.0032523593
 30
0.0
 10
22.7486788697
 20
53.3279461396
 30
0.0
 10
22.6614848592
 20
53.5409943018
 30
0.0
  0
SPLINE
  5
318
100
AcDbEntity
  8
0
100
AcDbSpline
 62
7
  6
BYLAYER
 70
0
 71
3
 72
22
 73
18
 74
0
 42
0.0000001
 43
0.0000001
 44
0.0000000001
 40
0.0
 40
0.0
 40
0.0
 40
0.0
 40
0.042818485
 40
0.087403137
 40
0.1351878628
 40
0.1870975763
 40
0.2435428541
 40
0.30449875
 40
0.369596129
 40
0.4382039417
 40
0.5095038015
 40
0.5825466271
 40
0.7295741334
 40
0.8015840347
 40
0.8712032591
 40
0.9376035104
 40
1.0
 40
1.0
 40
1.0
 40
1.0
 10
30.149396037
 20
80.8128657243
 30
0.0
 10
30.1493879852
 20
80.6989986269
 30
0.0
 10
30.1798527067
 20
80.4655805916
 30
0.0
 10
30.3136829352
 20
80.1285358441
 30
0.0
 10
30.5309041296
 20
79.809044674
 30
0.0
 10
30.8252952623
 20
79.5134098284
 30
0.0
 10
31.1900647536
 20
79.246831759
 30
0.0
 10
31.6174616677
 20
79.0143311746
 30
0.0
 10
32.098554855
 20
78.8204952905
 30
0.0
 10
32.6232112608
 20
78.6692569837
 30
0.0
 10
33.1804300268
 20
78.5637415105
 30
0.0
 10
33.9521643502
 20
78.4869888513
 30
0.0
 10
34.7331412002
 20
78.5084781953
 30
0.0
 10
35.4920661098
 20
78.6286903263
 30
0.0
 10
36.029150747
 20
78.7649923583
 30
0.0
 10
36.5260303746
 20
78.945096356
 30
0.0
 10
36.8341207807
 20
79.096937658
 30
0.0
 10
36.9778213179
 20
79.1799027066
 30
0.0
  0
SPLINE
  5
319
100
AcDbEntity
  8
0
100
AcDbSpline
 62
7
  6
BYLAYER
 70
0
 71
3
 72
14
 73
10
 74
0
 42
0.0000001
 43
0.0000001
 44
0.0000000001
 40
0.0
 40
0.0
 40
0.0
 40
0.0
 40
0.1083851247
 40
0.2183514477
 40
0.3319637607
 40
0.4509369137
 40
0.5766048908
 40
0.7098844211
 40
1.0
 40
1.0
 40
1.0
 40
1.0
 10
29.9234310627
 20
78.3042740721
 30
0.0
 10
29.9192155023
 20
78.2215063907
 30
0.0
 10
29.9254824789
 20
78.0536328201
 30
0.0
 10
29.97961181
 20
77.8044105662
 30
0.0
 10
30.0774388255
 20
77.560204059
 30
0.0
 10
30.2175648722
 20
77.3236995367
 30
0.0
 10
30.3983757448
 20
77.0971914008
 30
0.0
 10
30.6992916169
 20
76.8032967342
 30
0.0
 10
30.9677748952
 20
76.6173514066
 30
0.0
 10
31.1598883674
 20
76.5064371509
 30
0.0
  0
SPLINE
  5
31A
100
AcDbEntity
  8
0
100
AcDbSpline
 62
7
  6
BYLAYER
 70
0
 71
3
 72
11
 73
7
 74
0
 42
0.0000001
 43
0.0000001
 44
0.0000000001
 40
0.0
 40
0.0
 40
0.0
 40
0.0
 40
0.2373215703
 40
0.4830377395
 40
0.7372654432
 40
1.0
 40
1.0
 40
1.0
 40
1.0
 10
37.8925660226
 20
45.6483071864
 30
0.0
 10
38.6410009517
 20
43.0872144674
 30
0.0
 10
39.9754052227
 20
37.8176107845
 30
0.0
 10
41.47225002
 20
29.659296443
 30
0.0
 10
42.4939782179
 20
21.1405024657
 30
0.0
 10
42.8502129018
 20
15.3356361199
 30
0.0
 10
42.9521164219
 20
12.3834644891
 30
0.0
  0
SPLINE
  5
31B
100
AcDbEntity
  8
0
100
AcDbSpline
 62
7
  6
BYLAYER
 70
0
 71
3
 72
21
 73
17
 74
0
 42
0.0000001
 43
0.0000001
 44
0.0000000001
 40
0.0
 40
0.0
 40
0.0
 40
0.0
 40
0.1644041739
 40
0.3169796475
 40
0.3875681377
 40
0.4539016047
 40
0.5159002901
 40
0.573779432
 40
0.6280412842
 40
0.6795398408
 40
0.7294219045
 40
0.7790528871
 40
0.8298284449
 40
0.8829914816
 40
0.9395060357
 40
1.0
 40
1.0
 40
1.0
 40
1.0
 10
22.1114825693
 20
54.4936209239
 30
0.0
 10
21.999156908
 20
54.6387306053
 30
0.0
 10
21.7628550525
 20
54.9039466298
 30
0.0
 10
21.426248563
 20
55.1794729952
 30
0.0
 10
21.1485573302
 20
55.3457151979
 30
0.0
 10
20.9464443965
 20
55.4388260723
 30
0.0
 10
20.7478122526
 20
55.5020216154
 30
0.0
 10
20.5554079786
 20
55.5344534354
 30
0.0
 10
20.371846674
 20
55.5351404957
 30
0.0
 10
20.19984532
 20
55.503927364
 30
0.0
 10
20.0423080555
 20
55.4406719443
 30
0.0
 10
19.9019961251
 20
55.3465171292
 30
0.0
 10
19.7814710153
 20
55.2230392767
 30
0.0
 10
19.6823612678
 20
55.0726933783
 30
0.0
 10
19.6059584359
 20
54.8979438785
 30
0.0
 10
19.5718203141
 20
54.7713790712
 30
0.0
 10
19.5583317507
 20
54.7052179907
 30
0.0
  0
SPLINE
  5
31C
100
AcDbEntity
  8
0
100
AcDbSpline
 62
7
  6
BYLAYER
 70
0
 71
3
 72
9
 73
5
 74
0
 42
0.0000001
 43
0.0000001
 44
0.0000000001
 40
0.0
 40
0.0
 40
0.0
 40
0.0
 40
0.2392807513
 40
1.0
 40
1.0
 40
1.0
 40
1.0
 10
19.5583317507
 20
54.7052179907
 30
0.0
 10
19.5520271134
 20
54.6742938951
 30
0.0
 10
19.5294807018
 20
54.5442877134
 30
0.0
 10
19.5215066031
 20
54.4119418065
 30
0.0
 10
19.5219845997
 20
54.3116069398
 30
0.0
  0
SPLINE
  5
31D
100
AcDbEntity
  8
0
100
AcDbSpline
 62
7
  6
BYLAYER
 70
0
 71
3
 72
9
 73
5
 74
0
 42
0.0000001
 43
0.0000001
 44
0.0000000001
 40
0.0
 40
0.0
 40
0.0
 40
0.0
 40
0.2383511807
 40
1.0
 40
1.0
 40
1.0
 40
1.0
 10
19.5219845997
 20
54.3116069398
 30
0.0
 10
19.5222218486
 20
54.2618067329
 30
0.0
 10
19.5300521542
 20
54.0529168663
 30
0.0
 10
19.5635043864
 20
53.8453424431
 30
0.0
 10
19.5999323524
 20
53.6904300003
 30
0.0
  0
SPLINE
  5
31E
100
AcDbEntity
  8
0
100
AcDbSpline
 62
7
  6
BYLAYER
 70
0
 71
3
 72
9
 73
5
 74
0
 42
0.0000001
 43
0.0000001
 44
0.0000000001
 40
0.0
 40
0.0
 40
0.0
 40
0.0
 40
0.2456125877
 40
1.0
 40
1.0
 40
1.0
 40
1.0
 10
19.5999323524
 20
53.6904300003
 30
0.0
 10
19.6074737832
 20
53.658359545
 30
0.0
 10
19.6401461299
 20
53.5282539083
 30
0.0
 10
19.6804159957
 20
53.4000795705
 30
0.0
 10
19.7145532866
 20
53.3048220534
 30
0.0
  0
SPLINE
  5
31F
100
AcDbEntity
  8
0
100
AcDbSpline
 62
7
  6
BYLAYER
 70
0
 71
3
 72
15
 73
11
 74
0
 42
0.0000001
 43
0.0000001
 44
0.0000000001
 40
0.0
 40
0.0
 40
0.0
 40
0.0
 40
0.1514151278
 40
0.293156151
 40
0.4252644762
 40
0.5487358242
 40
0.6652700307
 40
0.7772814106
 40
0.8877837687
 40
1.0
 40
1.0
 40
1.0
 40
1.0
 10
38.5292078105
 20
81.4045823706
 30
0.0
 10
38.7008739903
 20
81.3054730976
 30
0.0
 10
39.0238381776
 20
81.0964538139
 30
0.0
 10
39.4532905041
 20
80.739906684
 30
0.0
 10
39.8057230566
 20
80.3548132247
 30
0.0
 10
40.0754331757
 20
79.9463952826
 30
0.0
 10
40.2578177941
 20
79.5201752844
 30
0.0
 10
40.3486124699
 20
79.0824312772
 30
0.0
 10
40.3456083844
 20
78.6410569779
 30
0.0
 10
40.2820464891
 20
78.3540426965
 30
0.0
 10
40.2365121663
 20
78.2143721827
 30
0.0
  0
SPLINE
  5
320
100
AcDbEntity
  8
0
100
AcDbSpline
 62
7
  6
BYLAYER
 70
0
 71
3
 72
9
 73
5
 74
0
 42
0.0000001
 43
0.0000001
 44
0.0000000001
 40
0.0
 40
0.0
 40
0.0
 40
0.0
 40
0.4939410017
 40
1.0
 40
1.0
 40
1.0
 40
1.0
 10
25.3970883003
 20
52.4609340013
 30
0.0
 10
25.1881526483
 20
53.4481337382
 30
0.0
 10
24.7213154752
 20
55.4377366574
 30
0.0
 10
24.1555729332
 20
57.4020385756
 30
0.0
 10
23.8388350822
 20
58.3861462168
 30
0.0
  0
SPLINE
  5
321
100
AcDbEntity
  8
0
100
AcDbSpline
 62
7
  6
BYLAYER
 70
0
 71
3
 72
11
 73
7
 74
0
 42
0.0000001
 43
0.0000001
 44
0.0000000001
 40
0.0
 40
0.0
 40
0.0
 40
0.0
 40
0.2595646124
 40
0.5152041373
 40
0.7635462724
 40
1.0
 40
1.0
 40
1.0
 40
1.0
 10
23.3991655038
 20
60.8092930206
 30
0.0
 10
23.2205795491
 20
60.8191319372
 30
0.0
 10
22.8646497114
 20
60.818489928
 30
0.0
 10
22.34100152
 20
60.754986604
 30
0.0
 10
21.8455010249
 20
60.6272624997
 30
0.0
 10
21.5371405161
 20
60.4927077597
 30
0.0
 10
21.3959922146
 20
60.4113200649
 30
0.0
  0
LINE
  5
322
100
AcDbEntity
  8
0
100
AcDbLine
 62
7
  6
BYLAYER
 10
23.42242015
 20
60.7958672481
 11
23.4201944917
 21
60.8080562715
  0
SPLINE
  5
323
100
AcDbEntity
  8
0
100
AcDbSpline
 62
7
  6
BYLAYER
 70
0
 71
3
 72
11
 73
7
 74
0
 42
0.0000001
 43
0.0000001
 44
0.0000000001
 40
0.0
 40
0.0
 40
0.0
 40
0.0
 40
0.2958192027
 40
0.5646750573
 40
0.8005320611
 40
1.0
 40
1.0
 40
1.0
 40
1.0
 10
23.721399918
 20
58.8339718627
 30
0.0
 10
23.6882933307
 20
59.0268459912
 30
0.0
 10
23.6312419145
 20
59.3960611653
 30
0.0
 10
23.557322582
 20
59.9204507293
 30
0.0
 10
23.491099981
 20
60.3815611175
 30
0.0
 10
23.4455011529
 20
60.6659464544
 30
0.0
 10
23.42242015
 20
60.7958672481
 30
0.0
  0
SPLINE
  5
324
100
AcDbEntity
  8
0
100
AcDbSpline
 62
7
  6
BYLAYER
 70
0
 71
3
 72
9
 73
5
 74
0
 42
0.0000001
 43
0.0000001
 44
0.0000000001
 40
0.0
 40
0.0
 40
0.0
 40
0.0
 40
0.2507375383
 40
1.0
 40
1.0
 40
1.0
 40
1.0
 10
23.8389904333
 20
58.3860565268
 30
0.0
 10
23.8264950531
 20
58.4227091841
 30
0.0
 10
23.7792037821
 20
58.5697398496
 30
0.0
 10
23.74244324
 20
58.72018482
 30
0.0
 10
23.721399918
 20
58.8339718627
 30
0.0
  0
SPLINE
  5
325
100
AcDbEntity
  8
0
100
AcDbSpline
 62
7
  6
BYLAYER
 70
0
 71
3
 72
15
 73
11
 74
0
 42
0.0000001
 43
0.0000001
 44
0.0000000001
 40
0.0
 40
0.0
 40
0.0
 40
0.0
 40
0.1141549974
 40
0.2373268943
 40
0.3669765742
 40
0.5000005394
 40
0.633024429
 40
0.7626738905
 40
0.8858454396
 40
1.0
 40
1.0
 40
1.0
 40
1.0
 10
29.7653386266
 20
69.5451761074
 30
0.0
 10
30.065464324
 20
69.3719023752
 30
0.0
 10
30.7217422368
 20
69.0663038466
 30
0.0
 10
31.790451072
 20
68.7414868266
 30
0.0
 10
32.9474936151
 20
68.54155183
 30
0.0
 10
34.1494082193
 20
68.4740982447
 30
0.0
 10
35.3513218415
 20
68.5415575642
 30
0.0
 10
36.5083614675
 20
68.7414980808
 30
0.0
 10
37.5770656015
 20
69.0663201655
 30
0.0
 10
38.2333394144
 20
69.3719219503
 30
0.0
 10
38.5334627133
 20
69.5451971833
 30
0.0
  0
SPLINE
  5
326
100
AcDbEntity
  8
0
100
AcDbSpline
 62
7
  6
BYLAYER
 70
0
 71
3
 72
23
 73
19
 74
0
 42
0.0000001
 43
0.0000001
 44
0.0000000001
 40
0.0
 40
0.0
 40
0.0
 40
0.0
 40
0.0635882459
 40
0.1314248289
 40
0.2026348906
 40
0.2762437159
 40
0.3511031554
 40
0.4260165257
 40
0.4997844185
 40
0.5712601354
 40
0.6394172273
 40
0.7034204328
 40
0.7627049105
 40
0.8170723039
 40
0.8668079348
 40
0.9127940478
 40
0.9565366462
 40
1.0
 40
1.0
 40
1.0
 40
1.0
 10
38.3920407682
 20
69.6268453342
 30
0.0
 10
38.1637660011
 20
69.4950516227
 30
0.0
 10
37.6726749744
 20
69.2553008966
 30
0.0
 10
36.8789277282
 20
68.9758582887
 30
0.0
 10
36.0201843452
 20
68.7703663859
 30
0.0
 10
35.1171329844
 20
68.6435336172
 30
0.0
 10
34.1910092204
 20
68.5984631079
 30
0.0
 10
33.263906135
 20
68.6361747049
 30
0.0
 10
32.3578590102
 20
68.7557415856
 30
0.0
 10
31.4943886286
 20
68.9543772571
 30
0.0
 10
30.6939256561
 20
69.2274485232
 30
0.0
 10
29.9752476115
 20
69.568642482
 30
0.0
 10
29.3550988522
 20
69.9703812706
 30
0.0
 10
28.8480400203
 20
70.4242558975
 30
0.0
 10
28.4667041689
 20
70.9212550097
 30
0.0
 10
28.2225394776
 20
71.4515177529
 30
0.0
 10
28.12564744
 20
72.0015707985
 30
0.0
 10
28.1626238522
 20
72.3663891803
 30
0.0
 10
28.2038108091
 20
72.5417843041
 30
0.0
  0
SPLINE
  5
327
100
AcDbEntity
  8
0
100
AcDbSpline
 62
7
  6
BYLAYER
 70
0
 71
3
 72
17
 73
13
 74
0
 42
0.0000001
 43
0.0000001
 44
0.0000000001
 40
0.0
 40
0.0
 40
0.0
 40
0.0
 40
0.0558319062
 40
0.1142202652
 40
0.2373707822
 40
0.3669986575
 40
0.5000005208
 40
0.6330023116
 40
0.7626299752
 40
0.8857801585
 40
0.9441683143
 40
1.0
 40
1.0
 40
1.0
 40
1.0
 10
28.6625883981
 20
74.9974210922
 30
0.0
 10
28.8463305791
 20
74.8913398944
 30
0.0
 10
29.2318299622
 20
74.6906166346
 30
0.0
 10
30.0621742123
 20
74.3364672064
 30
0.0
 10
31.197299101
 20
73.9915214669
 30
0.0
 10
32.6451099601
 20
73.7413562387
 30
0.0
 10
34.1494145142
 20
73.656911531
 30
0.0
 10
35.6537178676
 20
73.7413633788
 30
0.0
 10
37.1015251698
 20
73.9915354797
 30
0.0
 10
38.2366454555
 20
74.3364867022
 30
0.0
 10
39.0669848458
 20
74.6906402093
 30
0.0
 10
39.4524814338
 20
74.8913653658
 30
0.0
 10
39.6362221242
 20
74.9974474696
 30
0.0
  0
SPLINE
  5
328
100
AcDbEntity
  8
0
100
AcDbSpline
 62
7
  6
BYLAYER
 70
0
 71
3
 72
14
 73
10
 74
0
 42
0.0000001
 43
0.0000001
 44
0.0000000001
 40
0.0
 40
0.0
 40
0.0
 40
0.0
 40
0.1079111615
 40
0.218092385
 40
0.3322850412
 40
0.4518908316
 40
0.5779733575
 40
0.711257116
 40
1.0
 40
1.0
 40
1.0
 40
1.0
 10
39.8699360139
 20
77.4550703698
 30
0.0
 10
39.8668968304
 20
77.5612524578
 30
0.0
 10
39.8426527084
 20
77.7757336638
 30
0.0
 10
39.7531941724
 20
78.0917239509
 30
0.0
 10
39.6114708722
 20
78.4006248265
 30
0.0
 10
39.4194130014
 20
78.6995532907
 30
0.0
 10
39.1788168488
 20
78.9858822698
 30
0.0
 10
38.7862909899
 20
79.3573286023
 30
0.0
 10
38.4411130402
 20
79.5942060167
 30
0.0
 10
38.1949589283
 20
79.7363199444
 30
0.0
  0
SPLINE
  5
329
100
AcDbEntity
  8
0
100
AcDbSpline
 62
7
  6
BYLAYER
 70
0
 71
3
 72
15
 73
11
 74
0
 42
0.0000001
 43
0.0000001
 44
0.0000000001
 40
0.0
 40
0.0
 40
0.0
 40
0.0
 40
0.1485261037
 40
0.2895006267
 40
0.4227409769
 40
0.5486445957
 40
0.6679954349
 40
0.7819394878
 40
0.89198821
 40
1.0
 40
1.0
 40
1.0
 40
1.0
 10
38.7455956308
 20
69.1777742318
 30
0.0
 10
38.8921339591
 20
69.2623776701
 30
0.0
 10
39.171100671
 20
69.4392630695
 30
0.0
 10
39.5526059854
 20
69.73443824
 30
0.0
 10
39.882560828
 20
70.050304521
 30
0.0
 10
40.1577015661
 20
70.3837543896
 30
0.0
 10
40.3751311876
 20
70.7319600965
 30
0.0
 10
40.532653539
 20
71.0916745446
 30
0.0
 10
40.6279661616
 20
71.4593701888
 30
0.0
 10
40.6493824146
 20
71.708287235
 30
0.0
 10
40.6493824173
 20
71.8313391362
 30
0.0
  0
SPLINE
  5
32A
100
AcDbEntity
  8
0
100
AcDbSpline
 62
7
  6
BYLAYER
 70
0
 71
3
 72
11
 73
7
 74
0
 42
0.0000001
 43
0.0000001
 44
0.0000000001
 40
0.0
 40
0.0
 40
0.0
 40
0.0
 40
0.2274688269
 40
0.4754924874
 40
0.736192029
 40
1.0
 40
1.0
 40
1.0
 40
1.0
 10
45.4891160059
 20
14.4344164953
 30
0.0
 10
45.4475256678
 20
14.4105424735
 30
0.0
 10
45.3658406908
 20
14.3512840907
 30
0.0
 10
45.2562356041
 20
14.2406341953
 30
0.0
 10
45.1591018701
 20
14.1092701318
 30
0.0
 10
45.105623253
 20
14.0120338044
 30
0.0
 10
45.0822595608
 20
13.9615626466
 30
0.0
  0
SPLINE
  5
32B
100
AcDbEntity
  8
0
100
AcDbSpline
 62
7
  6
BYLAYER
 70
0
 71
3
 72
11
 73
7
 74
0
 42
0.0000001
 43
0.0000001
 44
0.0000000001
 40
0.0
 40
0.0
 40
0.0
 40
0.0
 40
0.2190562343
 40
0.4527372034
 40
0.7117090763
 40
1.0
 40
1.0
 40
1.0
 40
1.0
 10
46.365922326
 20
14.7658143337
 30
0.0
 10
46.3425222364
 20
14.7793175867
 30
0.0
 10
46.289044029
 20
14.7990843029
 30
0.0
 10
46.2001817205
 20
14.8025822822
 30
0.0
 10
46.1053419926
 20
14.7815170508
 30
0.0
 10
46.0434141782
 20
14.7535903885
 30
0.0
 10
46.0122613159
 20
14.736452778
 30
0.0
  0
SPLINE
  5
32C
100
AcDbEntity
  8
0
100
AcDbSpline
 62
7
  6
BYLAYER
 70
0
 71
3
 72
15
 73
11
 74
0
 42
0.0000001
 43
0.0000001
 44
0.0000000001
 40
0.0
 40
0.0
 40
0.0
 40
0.0
 40
0.1141543258
 40
0.2373258924
 40
0.3669759246
 40
0.5000005214
 40
0.6330250456
 40
0.762674866
 40
0.8858460989
 40
1.0
 40
1.0
 40
1.0
 40
1.0
 10
29.5532074755
 20
69.1777521361
 30
0.0
 10
29.8678536478
 20
68.9960951934
 30
0.0
 10
30.5558832931
 20
68.6757090243
 30
0.0
 10
31.6763014032
 20
68.3351725122
 30
0.0
 10
32.8893318921
 20
68.1255597717
 30
0.0
 10
34.1494093045
 20
68.0548411054
 30
0.0
 10
35.4094857097
 20
68.1255657522
 30
0.0
 10
36.6225132223
 20
68.3351842525
 30
0.0
 10
37.7429265092
 20
68.6757260905
 30
0.0
 10
38.4309519391
 20
68.9961156961
 30
0.0
 10
38.7455956308
 20
69.1777742318
 30
0.0
  0
SPLINE
  5
32D
100
AcDbEntity
  8
0
100
AcDbSpline
 62
7
  6
BYLAYER
 70
0
 71
3
 72
25
 73
21
 74
0
 42
0.0000001
 43
0.0000001
 44
0.0000000001
 40
0.0
 40
0.0
 40
0.0
 40
0.0
 40
0.0213662749
 40
0.0429042642
 40
0.0648380019
 40
0.0873733526
 40
0.1348528961
 40
0.1864277539
 40
0.2425695253
 40
0.3032892597
 40
0.3682372267
 40
0.4367904062
 40
0.5081241889
 40
0.5812747486
 40
0.6551935367
 40
0.7287997626
 40
0.8010275464
 40
0.8708611046
 40
0.9374408952
 40
1.0
 40
1.0
 40
1.0
 40
1.0
 10
27.4007289916
 20
71.5006700859
 30
0.0
 10
27.3973986165
 20
71.4042663117
 30
0.0
 10
27.4032491722
 20
71.2100205632
 30
0.0
 10
27.4495542067
 20
70.9202337038
 30
0.0
 10
27.5330570941
 20
70.6333713603
 30
0.0
 10
27.6960961263
 20
70.2506928091
 30
0.0
 10
27.996384338
 20
69.7858754821
 30
0.0
 10
28.4841730947
 20
69.2781638306
 30
0.0
 10
29.0940484374
 20
68.819306133
 30
0.0
 10
29.8126658134
 20
68.4182475076
 30
0.0
 10
30.6247500782
 20
68.0828684974
 30
0.0
 10
31.5129780081
 20
67.8201468259
 30
0.0
 10
32.4582764433
 20
67.6356560249
 30
0.0
 10
33.4402204321
 20
67.5333331515
 30
0.0
 10
34.43753986
 20
67.5153690631
 30
0.0
 10
35.4286271904
 20
67.5821772175
 30
0.0
 10
36.3919374481
 20
67.7323593365
 30
0.0
 10
37.3068241861
 20
67.9625818411
 30
0.0
 10
38.1532063045
 20
68.2680221836
 30
0.0
 10
38.6777789346
 20
68.5262471922
 30
0.0
 10
38.9223730621
 20
68.6674628346
 30
0.0
  0
SPLINE
  5
32E
100
AcDbEntity
  8
0
100
AcDbSpline
 62
7
  6
BYLAYER
 70
0
 71
3
 72
15
 73
11
 74
0
 42
0.0000001
 43
0.0000001
 44
0.0000000001
 40
0.0
 40
0.0
 40
0.0
 40
0.0
 40
0.1489422394
 40
0.2901071387
 40
0.4233254509
 40
0.5490460367
 40
0.6681285998
 40
0.7818227528
 40
0.8917787277
 40
1.0
 40
1.0
 40
1.0
 40
1.0
 10
38.9223730621
 20
68.6674628346
 30
0.0
 10
39.0782727872
 20
68.7574710456
 30
0.0
 10
39.3746875819
 20
68.94583587
 30
0.0
 10
39.7788965919
 20
69.2609101635
 30
0.0
 10
40.1266848258
 20
69.5984347016
 30
0.0
 10
40.4144291362
 20
69.9549545373
 30
0.0
 10
40.6389324403
 20
70.3272819364
 30
0.0
 10
40.7977241673
 20
70.7117773423
 30
0.0
 10
40.8883292395
 20
71.1044038448
 30
0.0
 10
40.9025384628
 20
71.3693065988
 30
0.0
 10
40.8980546799
 20
71.5000300508
 30
0.0
  0
SPLINE
  5
32F
100
AcDbEntity
  8
0
100
AcDbSpline
 62
7
  6
BYLAYER
 70
0
 71
3
 72
23
 73
19
 74
0
 42
0.0000001
 43
0.0000001
 44
0.0000000001
 40
0.0
 40
0.0
 40
0.0
 40
0.0
 40
0.0623833654
 40
0.1287491106
 40
0.19834663
 40
0.2703365242
 40
0.3437249503
 40
0.4174678543
 40
0.4905049665
 40
0.5618042782
 40
0.6304129539
 40
0.6955106129
 40
0.7564679521
 40
0.8129146031
 40
0.8648229163
 40
0.9126047368
 40
0.9571861818
 40
1.0
 40
1.0
 40
1.0
 40
1.0
 10
38.7455956308
 20
68.7695230233
 30
0.0
 10
38.5121003004
 20
68.6347152361
 30
0.0
 10
38.0115973563
 20
68.3879879119
 30
0.0
 10
37.2043113592
 20
68.0954069157
 30
0.0
 10
36.3318328955
 20
67.8739685345
 30
0.0
 10
35.4129989975
 20
67.7282360009
 30
0.0
 10
34.4671748146
 20
67.6613889948
 30
0.0
 10
33.5145818213
 20
67.6748066031
 30
0.0
 10
32.575520262
 20
67.7681796254
 30
0.0
 10
31.6700041013
 20
67.9395470743
 30
0.0
 10
30.8172895128
 20
68.1853141076
 30
0.0
 10
30.0353969553
 20
68.5003225829
 30
0.0
 10
29.3407405114
 20
68.8781322328
 30
0.0
 10
28.7478654564
 20
69.3113299283
 30
0.0
 10
28.2694277664
 20
69.791800937
 30
0.0
 10
27.9164377485
 20
70.3110241695
 30
0.0
 10
27.698884025
 20
70.8587260266
 30
0.0
 10
27.6493911422
 20
71.238049436
 30
0.0
 10
27.6493903042
 20
71.4230879282
 30
0.0
  0
SPLINE
  5
330
100
AcDbEntity
  8
0
100
AcDbSpline
 62
7
  6
BYLAYER
 70
0
 71
3
 72
11
 73
7
 74
0
 42
0.0000001
 43
0.0000001
 44
0.0000000001
 40
0.0
 40
0.0
 40
0.0
 40
0.0
 40
0.2771713716
 40
0.5357891496
 40
0.7760047029
 40
1.0
 40
1.0
 40
1.0
 40
1.0
 10
38.3920407682
 20
71.9947017645
 30
0.0
 10
38.5659662957
 20
72.0951171151
 30
0.0
 10
38.8922439727
 20
72.3073635335
 30
0.0
 10
39.3229950841
 20
72.6713610813
 30
0.0
 10
39.6712813209
 20
73.0651810883
 30
0.0
 10
39.849835491
 20
73.3528048542
 30
0.0
 10
39.9214245849
 20
73.498464677
 30
0.0
  0
SPLINE
  5
331
100
AcDbEntity
  8
0
100
AcDbSpline
 62
7
  6
BYLAYER
 70
0
 71
3
 72
10
 73
6
 74
0
 42
0.0000001
 43
0.0000001
 44
0.0000000001
 40
0.0
 40
0.0
 40
0.0
 40
0.0
 40
0.2394029917
 40
0.4833738011
 40
1.0
 40
1.0
 40
1.0
 40
1.0
 10
16.9714960512
 20
54.4738861774
 30
0.0
 10
16.9009780172
 20
54.4331764924
 30
0.0
 10
16.7510917673
 20
54.3632231289
 30
0.0
 10
16.4217757558
 20
54.2733920573
 30
0.0
 10
16.1580695864
 20
54.2681522146
 30
0.0
 10
15.9833540848
 20
54.2868563822
 30
0.0
  0
SPLINE
  5
332
100
AcDbEntity
  8
0
100
AcDbSpline
 62
7
  6
BYLAYER
 70
0
 71
3
 72
22
 73
18
 74
0
 42
0.0000001
 43
0.0000001
 44
0.0000000001
 40
0.0
 40
0.0
 40
0.0
 40
0.0
 40
0.0453027683
 40
0.0939635848
 40
0.1464005996
 40
0.2027222543
 40
0.2627751123
 40
0.3262092924
 40
0.3925125268
 40
0.4610559064
 40
0.5311276827
 40
0.6019578375
 40
0.7426258502
 40
0.8110026299
 40
0.8770805149
 40
0.940272731
 40
1.0
 40
1.0
 40
1.0
 40
1.0
 10
28.3773010798
 20
73.4984582602
 30
0.0
 10
28.4505168242
 20
73.3495267809
 30
0.0
 10
28.633992563
 20
73.055539901
 30
0.0
 10
28.992819099
 20
72.6541679744
 30
0.0
 10
29.4373512448
 20
72.283969852
 30
0.0
 10
29.9600205853
 20
71.9508126839
 30
0.0
 10
30.552150809
 20
71.6595953856
 30
0.0
 10
31.2040530322
 20
71.4150686907
 30
0.0
 10
31.9049601803
 20
71.221159942
 30
0.0
 10
32.6432217701
 20
71.0809864008
 30
0.0
 10
33.4066716357
 20
70.9969853978
 30
0.0
 10
34.4382046689
 20
70.9617477353
 30
0.0
 10
35.4651854883
 20
71.0408009055
 30
0.0
 10
36.4548985832
 20
71.2355267818
 30
0.0
 10
37.1522168715
 20
71.4339116481
 30
0.0
 10
37.799334994
 20
71.6826400812
 30
0.0
 10
38.2025578436
 20
71.8853043999
 30
0.0
 10
38.3920407682
 20
71.9947017645
 30
0.0
  0
SPLINE
  5
333
100
AcDbEntity
  8
0
100
AcDbSpline
 62
7
  6
BYLAYER
 70
0
 71
3
 72
14
 73
10
 74
0
 42
0.0000001
 43
0.0000001
 44
0.0000000001
 40
0.0
 40
0.0
 40
0.0
 40
0.0
 40
0.1485927878
 40
0.2896306089
 40
0.5484418953
 40
0.6678463185
 40
0.7818415189
 40
0.8919395448
 40
1.0
 40
1.0
 40
1.0
 40
1.0
 10
39.6294827872
 20
67.442719663
 30
0.0
 10
39.8042015602
 20
67.5435929915
 30
0.0
 10
40.1369127687
 20
67.7545780194
 30
0.0
 10
40.7262418341
 20
68.210504529
 30
0.0
 10
41.2173757982
 20
68.7272892614
 30
0.0
 10
41.572378652
 20
69.2957616012
 30
0.0
 10
41.7602081222
 20
69.724684333
 30
0.0
 10
41.8738488474
 20
70.1630816147
 30
0.0
 10
41.8993838937
 20
70.4598695527
 30
0.0
 10
41.8993824175
 20
70.6065855105
 30
0.0
  0
SPLINE
  5
334
100
AcDbEntity
  8
0
100
AcDbSpline
 62
7
  6
BYLAYER
 70
0
 71
3
 72
14
 73
10
 74
0
 42
0.0000001
 43
0.0000001
 44
0.0000000001
 40
0.0
 40
0.0
 40
0.0
 40
0.0
 40
0.2785225821
 40
0.409171222
 40
0.534483272
 40
0.6552172688
 40
0.7722973299
 40
0.8868107299
 40
1.0
 40
1.0
 40
1.0
 40
1.0
 10
39.6294827872
 20
66.1739592855
 30
0.0
 10
39.972930793
 20
66.3722479004
 30
0.0
 10
40.4531941633
 20
66.7123642388
 30
0.0
 10
40.988882528
 20
67.2549864926
 30
0.0
 10
41.3165631748
 20
67.681574969
 30
0.0
 10
41.574830617
 20
68.1313532402
 30
0.0
 10
41.7614794558
 20
68.5989434573
 30
0.0
 10
41.8741462391
 20
69.0786007294
 30
0.0
 10
41.8993797319
 20
69.4033576247
 30
0.0
 10
41.8993822729
 20
69.5645240473
 30
0.0
  0
SPLINE
  5
335
100
AcDbEntity
  8
0
100
AcDbSpline
 62
7
  6
BYLAYER
 70
0
 71
3
 72
15
 73
11
 74
0
 42
0.0000001
 43
0.0000001
 44
0.0000000001
 40
0.0
 40
0.0
 40
0.0
 40
0.0
 40
0.1393258044
 40
0.2750396895
 40
0.4067841104
 40
0.5343366814
 40
0.6575112085
 40
0.7761869651
 40
0.890346796
 40
1.0
 40
1.0
 40
1.0
 40
1.0
 10
35.9459561131
 20
56.8185348797
 30
0.0
 10
35.0935432377
 20
57.5933050826
 30
0.0
 10
33.3743508071
 20
59.083283764
 30
0.0
 10
30.724485488
 20
61.1566083532
 30
0.0
 10
28.047827688
 20
63.0306060296
 30
0.0
 10
25.3576334954
 20
64.6959608281
 30
0.0
 10
22.6668238161
 20
66.1448217997
 30
0.0
 10
19.9880565714
 20
67.3700119597
 30
0.0
 10
17.3346227841
 20
68.3652346128
 30
0.0
 10
15.555593602
 20
68.8825639019
 30
0.0
 10
14.6752127912
 20
69.0989264429
 30
0.0
  0
SPLINE
  5
336
100
AcDbEntity
  8
0
100
AcDbSpline
 62
7
  6
BYLAYER
 70
0
 71
3
 72
10
 73
6
 74
0
 42
0.0000001
 43
0.0000001
 44
0.0000000001
 40
0.0
 40
0.0
 40
0.0
 40
0.0
 40
0.2773603333
 40
0.5375804775
 40
1.0
 40
1.0
 40
1.0
 40
1.0
 10
22.5548039027
 20
55.4633276468
 30
0.0
 10
22.4594066358
 20
55.56350339
 30
0.0
 10
22.2621055955
 20
55.7467951729
 30
0.0
 10
21.85282716
 20
56.032328714
 30
0.0
 10
21.5066190446
 20
56.1681890861
 30
0.0
 10
21.2782407577
 20
56.2003362365
 30
0.0
  0
SPLINE
  5
337
100
AcDbEntity
  8
0
100
AcDbSpline
 62
7
  6
BYLAYER
 70
0
 71
3
 72
11
 73
7
 74
0
 42
0.0000001
 43
0.0000001
 44
0.0000000001
 40
0.0
 40
0.0
 40
0.0
 40
0.0
 40
0.2314468158
 40
0.487168596
 40
0.7497032115
 40
1.0
 40
1.0
 40
1.0
 40
1.0
 10
36.270785192
 20
56.1547429487
 30
0.0
 10
36.270785192
 20
56.2132332276
 30
0.0
 10
36.2521811067
 20
56.3364735209
 30
0.0
 10
36.1846075903
 20
56.5146420723
 30
0.0
 10
36.0824589187
 20
56.6811072392
 30
0.0
 10
35.9940157945
 20
56.7774090824
 30
0.0
 10
35.9459561131
 20
56.8185348797
 30
0.0
  0
SPLINE
  5
338
100
AcDbEntity
  8
0
100
AcDbSpline
 62
7
  6
BYLAYER
 70
0
 71
3
 72
14
 73
10
 74
0
 42
0.0000001
 43
0.0000001
 44
0.0000000001
 40
0.0
 40
0.0
 40
0.0
 40
0.0
 40
0.2892673064
 40
0.4225838261
 40
0.5485316447
 40
0.6679097459
 40
0.7818837796
 40
0.8919649018
 40
1.0
 40
1.0
 40
1.0
 40
1.0
 10
36.9778213179
 20
79.1799027066
 30
0.0
 10
37.1533930302
 20
79.2812684768
 30
0.0
 10
37.3992917213
 20
79.4505981052
 30
0.0
 10
37.6775151243
 20
79.7168472184
 30
0.0
 10
37.8468421013
 20
79.9220946247
 30
0.0
 10
37.9806440908
 20
80.1363599174
 30
0.0
 10
38.0775164441
 20
80.3577317358
 30
0.0
 10
38.1362431533
 20
80.5839731682
 30
0.0
 10
38.1493634437
 20
80.7371495296
 30
0.0
 10
38.1493687977
 20
80.812865725
 30
0.0
  0
SPLINE
  5
339
100
AcDbEntity
  8
0
100
AcDbSpline
 62
7
  6
BYLAYER
 70
0
 71
3
 72
12
 73
8
 74
0
 42
0.0000001
 43
0.0000001
 44
0.0000000001
 40
0.0
 40
0.0
 40
0.0
 40
0.0
 40
0.2894941049
 40
0.5486496671
 40
0.781581992
 40
0.8917812395
 40
1.0
 40
1.0
 40
1.0
 40
1.0
 10
30.8613957946
 20
53.3173170757
 30
0.0
 10
30.8613957946
 20
53.4262578901
 30
0.0
 10
30.8779417504
 20
53.6334559501
 30
0.0
 10
30.9616717516
 20
53.9179655414
 30
0.0
 10
31.0820792823
 20
54.1142728101
 30
0.0
 10
31.2036321346
 20
54.2338703863
 30
0.0
 10
31.2714182508
 20
54.28119471
 30
0.0
 10
31.3066954853
 20
54.3015413061
 30
0.0
  0
SPLINE
  5
33A
100
AcDbEntity
  8
0
100
AcDbSpline
 62
7
  6
BYLAYER
 70
0
 71
3
 72
15
 73
11
 74
0
 42
0.0000001
 43
0.0000001
 44
0.0000000001
 40
0.0
 40
0.0
 40
0.0
 40
0.0
 40
0.1141232787
 40
0.2373467935
 40
0.3669716251
 40
0.4999988493
 40
0.6330262331
 40
0.7626515288
 40
0.885875802
 40
1.0
 40
1.0
 40
1.0
 40
1.0
 10
32.3816817036
 20
50.6841192567
 30
0.0
 10
32.2776350193
 20
50.7441892789
 30
0.0
 10
32.0720780534
 20
50.8883377198
 30
0.0
 10
31.789183789
 20
51.1529093361
 30
0.0
 10
31.5285397562
 20
51.4657753281
 30
0.0
 10
31.2998597505
 20
51.8149914326
 30
0.0
 10
31.1117677055
 20
52.1876416983
 30
0.0
 10
30.9711372732
 20
52.5697996509
 30
0.0
 10
30.8834557676
 20
52.9470807039
 30
0.0
 10
30.8613957946
 20
53.197174025
 30
0.0
 10
30.8613957946
 20
53.3173170757
 30
0.0
  0
SPLINE
  5
33B
100
AcDbEntity
  8
0
100
AcDbSpline
 62
7
  6
BYLAYER
 70
0
 71
3
 72
12
 73
8
 74
0
 42
0.0000001
 43
0.0000001
 44
0.0000000001
 40
0.0
 40
0.0
 40
0.0
 40
0.0
 40
0.2894832083
 40
0.5486755374
 40
0.7816290778
 40
0.8918324007
 40
1.0
 40
1.0
 40
1.0
 40
1.0
 10
31.5685055197
 20
54.5420811555
 30
0.0
 10
31.5685055197
 20
54.6510172822
 30
0.0
 10
31.5850740755
 20
54.8582201034
 30
0.0
 10
31.6687647357
 20
55.142756454
 30
0.0
 10
31.7892114592
 20
55.3390793775
 30
0.0
 10
31.9108019646
 20
55.458619311
 30
0.0
 10
31.978549994
 20
55.5059596074
 30
0.0
 10
32.0137999091
 20
55.5263145855
 30
0.0
  0
SPLINE
  5
33C
100
AcDbEntity
  8
0
100
AcDbSpline
 62
7
  6
BYLAYER
 70
0
 71
3
 72
12
 73
8
 74
0
 42
0.0000001
 43
0.0000001
 44
0.0000000001
 40
0.0
 40
0.0
 40
0.0
 40
0.0
 40
0.2894832083
 40
0.5486755374
 40
0.7816290778
 40
0.8918324007
 40
1.0
 40
1.0
 40
1.0
 40
1.0
 10
16.0120915665
 20
63.5233777549
 30
0.0
 10
16.0120915665
 20
63.6323138817
 30
0.0
 10
16.0286601222
 20
63.8395167029
 30
0.0
 10
16.1123507824
 20
64.1240530535
 30
0.0
 10
16.232797506
 20
64.3203759769
 30
0.0
 10
16.3543880113
 20
64.4399159105
 30
0.0
 10
16.4221360408
 20
64.4872562069
 30
0.0
 10
16.4573859559
 20
64.507611185
 30
0.0
  0
SPLINE
  5
33D
100
AcDbEntity
  8
0
100
AcDbSpline
 62
7
  6
BYLAYER
 70
0
 71
3
 72
15
 73
11
 74
0
 42
0.0000001
 43
0.0000001
 44
0.0000000001
 40
0.0
 40
0.0
 40
0.0
 40
0.0
 40
0.1141232787
 40
0.2373467935
 40
0.3669716251
 40
0.4999988493
 40
0.6330262331
 40
0.7626515288
 40
0.885875802
 40
1.0
 40
1.0
 40
1.0
 40
1.0
 10
17.5323774756
 20
59.2571751016
 30
0.0
 10
17.4283307912
 20
59.3172451239
 30
0.0
 10
17.2227738253
 20
59.4613935648
 30
0.0
 10
16.9398795609
 20
59.725965181
 30
0.0
 10
16.6792355281
 20
60.0388311731
 30
0.0
 10
16.4505555224
 20
60.3880472776
 30
0.0
 10
16.2624634774
 20
60.7606975432
 30
0.0
 10
16.1218330451
 20
61.1428554958
 30
0.0
 10
16.0341515395
 20
61.5201365489
 30
0.0
 10
16.0120915665
 20
61.7702298699
 30
0.0
 10
16.0120915665
 20
61.8903729206
 30
0.0
  0
SPLINE
  5
33E
100
AcDbEntity
  8
0
100
AcDbSpline
 62
7
  6
BYLAYER
 70
0
 71
3
 72
15
 73
11
 74
0
 42
0.0000001
 43
0.0000001
 44
0.0000000001
 40
0.0
 40
0.0
 40
0.0
 40
0.0
 40
0.1141447985
 40
0.2373324971
 40
0.3669747555
 40
0.5000005214
 40
0.6330262147
 40
0.7626682613
 40
0.8858556261
 40
1.0
 40
1.0
 40
1.0
 40
1.0
 10
31.1598883674
 20
76.5064371509
 30
0.0
 10
31.3645265472
 20
76.3882919155
 30
0.0
 10
31.812062567
 20
76.1799196774
 30
0.0
 10
32.5408014359
 20
75.958381441
 30
0.0
 10
33.3298218567
 20
75.822094919
 30
0.0
 10
34.1493999055
 20
75.7760594969
 30
0.0
 10
34.968977299
 20
75.8220988089
 30
0.0
 10
35.7579957842
 20
75.9583890773
 30
0.0
 10
36.4867315158
 20
76.1799307778
 30
0.0
 10
36.9342647938
 20
76.3883052512
 30
0.0
 10
37.1389013603
 20
76.5064515227
 30
0.0
  0
SPLINE
  5
33F
100
AcDbEntity
  8
0
100
AcDbSpline
 62
7
  6
BYLAYER
 70
0
 71
3
 72
11
 73
7
 74
0
 42
0.0000001
 43
0.0000001
 44
0.0000000001
 40
0.0
 40
0.0
 40
0.0
 40
0.0
 40
0.2788254748
 40
0.5378225874
 40
0.7772947596
 40
1.0
 40
1.0
 40
1.0
 40
1.0
 10
37.1389013603
 20
76.5064515227
 30
0.0
 10
37.2687396442
 20
76.5814132434
 30
0.0
 10
37.5113696677
 20
76.7403379406
 30
0.0
 10
37.8284728531
 20
77.0148117577
 30
0.0
 10
38.0795493627
 20
77.3126075526
 30
0.0
 10
38.2032514701
 20
77.5303600167
 30
0.0
 10
38.2508395168
 20
77.6402465074
 30
0.0
  0
SPLINE
  5
340
100
AcDbEntity
  8
0
100
AcDbSpline
 62
7
  6
BYLAYER
 70
0
 71
3
 72
9
 73
5
 74
0
 42
0.0000001
 43
0.0000001
 44
0.0000000001
 40
0.0
 40
0.0
 40
0.0
 40
0.0
 40
0.5071047187
 40
1.0
 40
1.0
 40
1.0
 40
1.0
 10
38.2508395168
 20
77.6402465074
 30
0.0
 10
38.2965291227
 20
77.7457492711
 30
0.0
 10
38.3653152951
 20
77.9640274433
 30
0.0
 10
38.3810180852
 20
78.192669127
 30
0.0
 10
38.3753337703
 20
78.3042740721
 30
0.0
  0
SPLINE
  5
341
100
AcDbEntity
  8
0
100
AcDbSpline
 62
7
  6
BYLAYER
 70
0
 71
3
 72
14
 73
10
 74
0
 42
0.0000001
 43
0.0000001
 44
0.0000000001
 40
0.0
 40
0.0
 40
0.0
 40
0.0
 40
0.1101855423
 40
0.2207940873
 40
0.334220978
 40
0.4525390869
 40
0.577403124
 40
0.7099950222
 40
1.0
 40
1.0
 40
1.0
 40
1.0
 10
38.2551761399
 20
78.5783351751
 30
0.0
 10
38.2678306965
 20
78.4952023821
 30
0.0
 10
38.2781230727
 20
78.3258941963
 30
0.0
 10
38.2463660301
 20
78.0714321598
 30
0.0
 10
38.1677458295
 20
77.820869296
 30
0.0
 10
38.0438867868
 20
77.5772633491
 30
0.0
 10
37.8762923752
 20
77.3433172834
 30
0.0
 10
37.5891453525
 20
77.0385377318
 30
0.0
 10
37.3264786559
 20
76.8457941026
 30
0.0
 10
37.1373512977
 20
76.7308380315
 30
0.0
  0
SPLINE
  5
342
100
AcDbEntity
  8
0
100
AcDbSpline
 62
7
  6
BYLAYER
 70
0
 71
3
 72
15
 73
11
 74
0
 42
0.0000001
 43
0.0000001
 44
0.0000000001
 40
0.0
 40
0.0
 40
0.0
 40
0.0
 40
0.1141443739
 40
0.2373317387
 40
0.3669737853
 40
0.4999994786
 40
0.6330252445
 40
0.7626675029
 40
0.8858552015
 40
1.0
 40
1.0
 40
1.0
 40
1.0
 10
37.0638313866
 20
76.6872851035
 30
0.0
 10
36.8643334601
 20
76.5721056095
 30
0.0
 10
36.4280382147
 20
76.368963639
 30
0.0
 10
35.717601806
 20
76.1529850842
 30
0.0
 10
34.9483964071
 20
76.0201172082
 30
0.0
 10
34.1493994663
 20
75.9752339919
 30
0.0
 10
33.3504018868
 20
76.020113416
 30
0.0
 10
32.5811946009
 20
76.1529776397
 30
0.0
 10
31.8707551336
 20
76.3689528173
 30
0.0
 10
31.4344572153
 20
76.5720926087
 30
0.0
 10
31.234957716
 20
76.6872710926
 30
0.0
  0
SPLINE
  5
343
100
AcDbEntity
  8
0
100
AcDbSpline
 62
7
  6
BYLAYER
 70
0
 71
3
 72
15
 73
11
 74
0
 42
0.0000001
 43
0.0000001
 44
0.0000000001
 40
0.0
 40
0.0
 40
0.0
 40
0.0
 40
0.1501409113
 40
0.2917973779
 40
0.4247917311
 40
0.5497408033
 40
0.6678232167
 40
0.7807325999
 40
0.8906205538
 40
1.0
 40
1.0
 40
1.0
 40
1.0
 10
31.234957716
 20
76.6872710926
 30
0.0
 10
31.1319873007
 20
76.7467197447
 30
0.0
 10
30.9370231465
 20
76.8715850122
 30
0.0
 10
30.6737508757
 20
77.0820835662
 30
0.0
 10
30.4513785342
 20
77.3084355734
 30
0.0
 10
30.2726622423
 20
77.5479179249
 30
0.0
 10
30.1400797131
 20
77.7980555061
 30
0.0
 10
30.0553989487
 20
78.0558997057
 30
0.0
 10
30.0204201432
 20
78.3181290942
 30
0.0
 10
30.0305533908
 20
78.4927004984
 30
0.0
 10
30.043588462
 20
78.5783336562
 30
0.0
  0
SPLINE
  5
344
100
AcDbEntity
  8
0
100
AcDbSpline
 62
7
  6
BYLAYER
 70
0
 71
3
 72
11
 73
7
 74
0
 42
0.0000001
 43
0.0000001
 44
0.0000000001
 40
0.0
 40
0.0
 40
0.0
 40
0.0
 40
0.2308081517
 40
0.4771078743
 40
0.7350956649
 40
1.0
 40
1.0
 40
1.0
 40
1.0
 10
22.8167564906
 20
61.1816366155
 30
0.0
 10
22.484356785
 20
61.3878669432
 30
0.0
 10
21.8282751679
 20
61.8653908594
 30
0.0
 10
20.9165158378
 20
62.7181889343
 30
0.0
 10
20.0661011381
 20
63.7093842234
 30
0.0
 10
19.5597157357
 20
64.4387918917
 30
0.0
 10
19.3221511756
 20
64.8197550059
 30
0.0
  0
SPLINE
  5
345
100
AcDbEntity
  8
0
100
AcDbSpline
 62
7
  6
BYLAYER
 70
0
 71
3
 72
14
 73
10
 74
0
 42
0.0000001
 43
0.0000001
 44
0.0000000001
 40
0.0
 40
0.0
 40
0.0
 40
0.0
 40
0.2887291546
 40
0.4220126183
 40
0.5480983162
 40
0.667709345
 40
0.7819073428
 40
0.8920913933
 40
1.0
 40
1.0
 40
1.0
 40
1.0
 10
30.1037722195
 20
79.7363004956
 30
0.0
 10
29.8577437586
 20
79.5942567453
 30
0.0
 10
29.5127317116
 20
79.3575082636
 30
0.0
 10
29.1203460251
 20
78.9862918566
 30
0.0
 10
28.8797958278
 20
78.7001396806
 30
0.0
 10
28.6877282032
 20
78.4013970277
 30
0.0
 10
28.5459370753
 20
78.0926864441
 30
0.0
 10
28.4563496467
 20
77.7768855428
 30
0.0
 10
28.4319783707
 20
77.5625196034
 30
0.0
 10
28.4288670766
 20
77.4563908725
 30
0.0
  0
SPLINE
  5
346
100
AcDbEntity
  8
0
100
AcDbSpline
 62
7
  6
BYLAYER
 70
0
 71
3
 72
14
 73
10
 74
0
 42
0.0000001
 43
0.0000001
 44
0.0000000001
 40
0.0
 40
0.0
 40
0.0
 40
0.0
 40
0.107318906
 40
0.2175843559
 40
0.3321626882
 40
0.4522355467
 40
0.7117431792
 40
0.8523741622
 40
1.0
 40
1.0
 40
1.0
 40
1.0
 10
31.2990177288
 20
57.9050643086
 30
0.0
 10
31.1697742765
 20
57.8470411216
 30
0.0
 10
30.8977840079
 20
57.7504493946
 30
0.0
 10
30.4654929958
 20
57.6683485761
 30
0.0
 10
30.0091005563
 20
57.648524733
 30
0.0
 10
29.3577806492
 20
57.7060646755
 30
0.0
 10
28.6898218621
 20
57.8910944323
 30
0.0
 10
28.0262867165
 20
58.1795152598
 30
0.0
 10
27.6911417424
 20
58.3609985282
 30
0.0
 10
27.5234898111
 20
58.4603504386
 30
0.0
  0
SPLINE
  5
347
100
AcDbEntity
  8
0
100
AcDbSpline
 62
7
  6
BYLAYER
 70
0
 71
3
 72
9
 73
5
 74
0
 42
0.0000001
 43
0.0000001
 44
0.0000000001
 40
0.0
 40
0.0
 40
0.0
 40
0.0
 40
0.2606626216
 40
1.0
 40
1.0
 40
1.0
 40
1.0
 10
31.1308706311
 20
75.6849357121
 30
0.0
 10
31.0781665002
 20
75.7153637679
 30
0.0
 10
30.8787085697
 20
75.836687874
 30
0.0
 10
30.6903716456
 20
75.9769249925
 30
0.0
 10
30.5617500267
 20
76.0920423134
 30
0.0
  0
SPLINE
  5
348
100
AcDbEntity
  8
0
100
AcDbSpline
 62
7
  6
BYLAYER
 70
0
 71
3
 72
11
 73
7
 74
0
 42
0.0000001
 43
0.0000001
 44
0.0000000001
 40
0.0
 40
0.0
 40
0.0
 40
0.0
 40
0.2764628527
 40
0.5315091287
 40
0.7702224259
 40
1.0
 40
1.0
 40
1.0
 40
1.0
 10
30.5617500267
 20
76.0920423134
 30
0.0
 10
30.4554450156
 20
76.1871861017
 30
0.0
 10
30.2642609895
 20
76.3859686631
 30
0.0
 10
30.0446096259
 20
76.7203412977
 30
0.0
 10
29.9099544756
 20
77.0719759378
 30
0.0
 10
29.8800969819
 20
77.314849326
 30
0.0
 10
29.8805759085
 20
77.4334214369
 30
0.0
  0
SPLINE
  5
349
100
AcDbEntity
  8
0
100
AcDbSpline
 62
7
  6
BYLAYER
 70
0
 71
3
 72
11
 73
7
 74
0
 42
0.0000001
 43
0.0000001
 44
0.0000000001
 40
0.0
 40
0.0
 40
0.0
 40
0.0
 40
0.2292639398
 40
0.4676850539
 40
0.7228748806
 40
1.0
 40
1.0
 40
1.0
 40
1.0
 10
38.4181728665
 20
77.4365483283
 30
0.0
 10
38.4189254174
 20
77.3158080283
 30
0.0
 10
38.3884473657
 20
77.0682576179
 30
0.0
 10
38.2494779656
 20
76.710244285
 30
0.0
 10
38.0225034623
 20
76.370440686
 30
0.0
 10
37.8251293943
 20
76.169125851
 30
0.0
 10
37.7154005994
 20
76.0728934594
 30
0.0
  0
SPLINE
  5
34A
100
AcDbEntity
  8
0
100
AcDbSpline
 62
7
  6
BYLAYER
 70
0
 71
3
 72
25
 73
21
 74
0
 42
0.0000001
 43
0.0000001
 44
0.0000000001
 40
0.0
 40
0.0
 40
0.0
 40
0.0
 40
0.0213317797
 40
0.042892043
 40
0.0648969414
 40
0.0875419536
 40
0.1353163243
 40
0.1872166937
 40
0.2436548455
 40
0.3046029226
 40
0.3696903377
 40
0.4382877458
 40
0.5095749599
 40
0.5825996089
 40
0.6563309761
 40
0.7297087932
 40
0.8016867703
 40
0.8712723804
 40
0.9376269365
 40
1.0
 40
1.0
 40
1.0
 40
1.0
 10
26.3993824172
 20
70.6065855105
 30
0.0
 10
26.3993835234
 20
70.4966434707
 30
0.0
 10
26.4136157111
 20
70.2753295473
 30
0.0
 10
26.4771710344
 20
69.9461140552
 30
0.0
 10
26.5826380927
 20
69.6206900068
 30
0.0
 10
26.7816637988
 20
69.1868966516
 30
0.0
 10
27.1386978268
 20
68.6614496103
 30
0.0
 10
27.7090968205
 20
68.0887473893
 30
0.0
 10
28.4160101147
 20
67.5721868988
 30
0.0
 10
29.2442581769
 20
67.121736536
 30
0.0
 10
30.1765204222
 20
66.7461460006
 30
0.0
 10
31.1932169046
 20
66.4531214323
 30
0.0
 10
32.2728642504
 20
66.2488023715
 30
0.0
 10
33.3925103524
 20
66.1374738876
 30
0.0
 10
34.5282994899
 20
66.1214803396
 30
0.0
 10
35.6560199689
 20
66.2011830146
 30
0.0
 10
36.7515539314
 20
66.374944623
 30
0.0
 10
37.7918088695
 20
66.638968778
 30
0.0
 10
38.7543354066
 20
66.9878138468
 30
0.0
 10
39.3510854643
 20
67.2819878531
 30
0.0
 10
39.6294827872
 20
67.442719663
 30
0.0
  0
SPLINE
  5
34B
100
AcDbEntity
  8
0
100
AcDbSpline
 62
7
  6
BYLAYER
 70
0
 71
3
 72
14
 73
10
 74
0
 42
0.0000001
 43
0.0000001
 44
0.0000000001
 40
0.0
 40
0.0
 40
0.0
 40
0.0
 40
0.1476258378
 40
0.2882568208
 40
0.5477644533
 40
0.6678373118
 40
0.7824156441
 40
0.892681094
 40
1.0
 40
1.0
 40
1.0
 40
1.0
 10
27.8770417297
 20
58.6644725155
 30
0.0
 10
28.044693661
 20
58.5651206052
 30
0.0
 10
28.3798386351
 20
58.3836373367
 30
0.0
 10
29.0433737807
 20
58.0952165092
 30
0.0
 10
29.7113325678
 20
57.9101867524
 30
0.0
 10
30.3626524749
 20
57.8526468099
 30
0.0
 10
30.8190449144
 20
57.872470653
 30
0.0
 10
31.2513359265
 20
57.9545714715
 30
0.0
 10
31.5233261951
 20
58.0511631985
 30
0.0
 10
31.6525696474
 20
58.1091863855
 30
0.0
  0
SPLINE
  5
34C
100
AcDbEntity
  8
0
100
AcDbSpline
 62
7
  6
BYLAYER
 70
0
 71
3
 72
11
 73
7
 74
0
 42
0.0000001
 43
0.0000001
 44
0.0000000001
 40
0.0
 40
0.0
 40
0.0
 40
0.0
 40
0.2649043351
 40
0.5228921257
 40
0.7691918483
 40
1.0
 40
1.0
 40
1.0
 40
1.0
 10
19.6757030942
 20
65.0238770828
 30
0.0
 10
19.9132676543
 20
64.6429139687
 30
0.0
 10
20.4196530567
 20
63.9135063003
 30
0.0
 10
21.2700677564
 20
62.9223110112
 30
0.0
 10
22.1818270865
 20
62.0695129364
 30
0.0
 10
22.8379087036
 20
61.5919890201
 30
0.0
 10
23.1703084092
 20
61.3857586924
 30
0.0
  0
SPLINE
  5
34D
100
AcDbEntity
  8
0
100
AcDbSpline
 62
7
  6
BYLAYER
 70
0
 71
3
 72
25
 73
21
 74
0
 42
0.0000001
 43
0.0000001
 44
0.0000000001
 40
0.0
 40
0.0
 40
0.0
 40
0.0
 40
0.0193979553
 40
0.0391137291
 40
0.0594420761
 40
0.0806391874
 40
0.1263443631
 40
0.1773293647
 40
0.2338839394
 40
0.2957423327
 40
0.3622442776
 40
0.4324659175
 40
0.5053261854
 40
0.5796778031
 40
0.6543890241
 40
0.7283903482
 40
0.800706506
 40
0.8704835416
 40
0.937080888
 40
1.0
 40
1.0
 40
1.0
 40
1.0
 10
26.3993825618
 20
69.5645233238
 30
0.0
 10
26.3993806542
 20
69.4657399364
 30
0.0
 10
26.4136635465
 20
69.266276946
 30
0.0
 10
26.477389707
 20
68.9694384795
 30
0.0
 10
26.5830299451
 20
68.6750702059
 30
0.0
 10
26.7837748062
 20
68.2777250537
 30
0.0
 10
27.1442987982
 20
67.7920469598
 30
0.0
 10
27.7144721479
 20
67.2549125006
 30
0.0
 10
28.4205592147
 20
66.7552899484
 30
0.0
 10
29.2478551799
 20
66.301919152
 30
0.0
 10
30.1791485167
 20
65.9041239294
 30
0.0
 10
31.1946763288
 20
65.5716954677
 30
0.0
 10
32.2727977906
 20
65.3140874779
 30
0.0
 10
33.3906933071
 20
65.1400798218
 30
0.0
 10
34.5249319479
 20
65.0572581571
 30
0.0
 10
35.6519044171
 20
65.0716512718
 30
0.0
 10
36.7479595981
 20
65.1874495892
 30
0.0
 10
37.7900909887
 20
65.4061835308
 30
0.0
 10
38.7554586233
 20
65.7266434958
 30
0.0
 10
39.3519963089
 20
66.0137533488
 30
0.0
 10
39.6294827872
 20
66.1739592855
 30
0.0
  0
SPLINE
  5
34E
100
AcDbEntity
  8
0
100
AcDbSpline
 62
7
  6
BYLAYER
 70
0
 71
3
 72
15
 73
11
 74
0
 42
0.0000001
 43
0.0000001
 44
0.0000000001
 40
0.0
 40
0.0
 40
0.0
 40
0.0
 40
0.1141507837
 40
0.2373288842
 40
0.3669765289
 40
0.5000026608
 40
0.6330268694
 40
0.7626765013
 40
0.885847036
 40
1.0
 40
1.0
 40
1.0
 40
1.0
 10
38.3920407682
 20
71.0148994434
 30
0.0
 10
38.1016050105
 20
70.8472172814
 30
0.0
 10
37.4664825697
 20
70.5514768219
 30
0.0
 10
36.4322441232
 20
70.2371051598
 30
0.0
 10
35.3124889048
 20
70.0436389143
 30
0.0
 10
34.1493317538
 20
69.9783495076
 30
0.0
 10
32.9861680191
 20
70.04365005
 30
0.0
 10
31.8664420529
 20
70.237150993
 30
0.0
 10
30.8322108585
 20
70.5515111204
 30
0.0
 10
30.1971109998
 20
70.8472644503
 30
0.0
 10
29.9066721973
 20
71.0149541495
 30
0.0
  0
SPLINE
  5
34F
100
AcDbEntity
  8
0
100
AcDbSpline
 62
7
  6
BYLAYER
 70
0
 71
3
 72
9
 73
5
 74
0
 42
0.0000001
 43
0.0000001
 44
0.0000000001
 40
0.0
 40
0.0
 40
0.0
 40
0.0
 40
0.5040962457
 40
1.0
 40
1.0
 40
1.0
 40
1.0
 10
23.3364993207
 20
51.51059868
 30
0.0
 10
23.3039873678
 20
51.4747501571
 30
0.0
 10
23.2341943541
 20
51.4082183371
 30
0.0
 10
23.1547617168
 20
51.3534809182
 30
0.0
 10
23.1135312524
 20
51.3296758178
 30
0.0
  0
SPLINE
  5
350
100
AcDbEntity
  8
0
100
AcDbSpline
 62
7
  6
BYLAYER
 70
0
 71
3
 72
9
 73
5
 74
0
 42
0.0000001
 43
0.0000001
 44
0.0000000001
 40
0.0
 40
0.0
 40
0.0
 40
0.0
 40
0.4936416985
 40
1.0
 40
1.0
 40
1.0
 40
1.0
 10
27.5528936089
 20
47.6072086798
 30
0.0
 10
27.3268863817
 20
47.8441405906
 30
0.0
 10
26.9057208885
 20
48.3599648896
 30
0.0
 10
26.5593167145
 20
48.9282960752
 30
0.0
 10
26.4044135256
 20
49.2263163573
 30
0.0
  0
SPLINE
  5
351
100
AcDbEntity
  8
0
100
AcDbSpline
 62
7
  6
BYLAYER
 70
0
 71
3
 72
9
 73
5
 74
0
 42
0.0000001
 43
0.0000001
 44
0.0000000001
 40
0.0
 40
0.0
 40
0.0
 40
0.0
 40
0.2546229755
 40
1.0
 40
1.0
 40
1.0
 40
1.0
 10
32.2902208184
 20
43.5941867763
 30
0.0
 10
31.9044762201
 20
43.9533472757
 30
0.0
 10
30.3735063933
 20
45.3465648247
 30
0.0
 10
28.7778984576
 20
46.6691595871
 30
0.0
 10
27.5528936089
 20
47.6072086798
 30
0.0
  0
ELLIPSE
  5
352
100
AcDbEntity
  8
0
100
AcDbEllipse
 62
7
  6
BYLAYER
 10
41.2514941109
 20
68.9119874637
 30
0.0
 11
25.4331273566
 21
24.0595574677
 31
0.0
 40
0.2821882068
 41
-3.8431290138
 42
-3.8338977385
  0
ELLIPSE
  5
353
100
AcDbEntity
  8
0
100
AcDbEllipse
 62
7
  6
BYLAYER
 10
49.8992024549
 20
63.9193436721
 30
0.0
 11
-3.0218355144
 21
36.5850515415
 31
0.0
 40
0.7147285717
 41
-4.3868786138
 42
-4.3776473385
  0
ENDSEC
  0
SECTION
  2
OBJECTS
  0
DICTIONARY
  5
C
100
AcDbDictionary
280
0
281
1
  3
ACAD_GROUP
350
D
  3
ACAD_MLINESTYLE
350
17
  3
ACAD_LAYOUT
350
1A
  3
ACAD_PLOTSETTINGS
350
19
  3
ACAD_PLOTSTYLENAME
350
E
  0
DICTIONARY
  5
D
102
{ACAD_REACTORS
330
C
102
}
100
AcDbDictionary
280
0
281
1
  0
ACDBDICTIONARYWDFLT
  5
E
102
{ACAD_REACTORS
330
C
102
}
100
AcDbDictionary
281
1
  3
Normal
350
F
100
AcDbDictionaryWithDefault
340
F
  0
DICTIONARY
  5
17
102
{ACAD_REACTORS
330
C
102
}
100
AcDbDictionary
280
0
281
1
  3
Standard
350
18
  0
DICTIONARY
  5
19
102
{ACAD_REACTORS
330
C
102
}
100
AcDbDictionary
281
1
  0
DICTIONARY
  5
1A
102
{ACAD_REACTORS
330
C
102
}
100
AcDbDictionary
281
1
  3
Model
350
354
  3
Layout1
350
355
  0
ACDBPLACEHOLDER
  5
F
102
{ACAD_REACTORS
330
E
102
}
  0
MLINESTYLE
  5
18
102
{ACAD_REACTORS
330
17
102
}
100
AcDbMlineStyle
  2
STANDARD
 70
0
  3

 62
256
 51
90.0
 52
90.0
 71
2
 49
0.5
 62
256
  6
BYLAYER
 49
-0.5
 62
256
  6
BYLAYER
  0
LAYOUT
  5
354
102
{ACAD_REACTORS
330
1A
102
}
100
AcDbPlotSettings
  1

  2
none_device
  4

  6

 40
0.0
 41
0.0
 42
0.0
 43
0.0
 44
210.0
 45
297.0
 46
0.0
 47
0.0
 48
0.0
 49
0.0
140
0.0
141
0.0
142
1.0
143
1.0
 70
1024
 72
1
 73
0
 74
0
  7

 75
0
147
1.0
148
0.0
149
0.0
100
AcDbLayout
  1
Model
 70
0
 71
0
 10
0.0
 20
0.0
 11
210.0
 21
297.0
 12
0.0
 22
0.0
 32
0.0
 14
0.0
 24
0.0
 34
0.0
 15
0.0
 25
0.0
 35
0.0
146
0.0
 13
0.0
 23
0.0
 33
0.0
 16
1.0
 26
0.0
 36
0.0
 17
0.0
 27
1.0
 37
0.0
 76
0
330
210
345
0
346
0
  0
LAYOUT
  5
355
102
{ACAD_REACTORS
330
1A
102
}
100
AcDbPlotSettings
  1

  2
none_device
  4

  6

 40
0.0
 41
0.0
 42
0.0
 43
0.0
 44
210.0
 45
297.0
 46
0.0
 47
0.0
 48
0.0
 49
0.0
140
0.0
141
0.0
142
1.0
143
1.0
 70
0
 72
1
 73
0
 74
0
  7

 75
0
147
1.0
148
0.0
149
0.0
100
AcDbLayout
  1
Layout1
 70
0
 71
1
 10
0.0
 20
0.0
 11
210.0
 21
297.0
 12
0.0
 22
0.0
 32
0.0
 14
0.0
 24
0.0
 34
0.0
 15
0.0
 25
0.0
 35
0.0
146
0.0
 13
0.0
 23
0.0
 33
0.0
 16
1.0
 26
0.0
 36
0.0
 17
0.0
 27
1.0
 37
0.0
 76
0
330
211
345
0
346
0
  0
ENDSEC
  0
EOF
