999
DXF file: C:\Users\sesa63760\Dev\_Creo\CAD\MCADID0000940_3D-CAD\drw0001_1.dxf
999
Pro/ENGINEER 2019471 by Parametric Technology Corporation
  0
SECTION
  2
HEADER
  9
$ACADVER
  1
AC1024
  9
$DWGCODEPAGE
  3
ANSI_1252
  9
$EXTMAX
 10
219.7554237287
 20
310.7969564163
 30
0.0
  9
$EXTMIN
 10
0.0
 20
0.0
 30
0.0
  9
$LIMMIN
 10
0.0
 20
0.0
  9
$LIMMAX
 10
219.7554237287
 20
310.7969564163
  9
$VIEWCTR
 10
109.8777118644
 20
155.3984782082
  9
$VIEWSIZE
 40
310.7969564163
  9
$CLAYER
  8
0
  9
$LTSCALE
 40
20.259357159
  9
$CELTYPE
  6
BYLAYER
  9
$DIMSCALE
 40
1.0
  9
$DIMASZ
 40
2.6161359968
  9
$DIMEXO
 40
1.0
  9
$DIMDLI
 40
13.9973740371
  9
$DIMEXE
 40
1.0
  9
$DIMCEN
 40
3.3151675351
  9
$DIMLFAC
 40
1.0
  9
$DIMBLK
  1
_FILLED
  9
$DIMALT
 70
0
  9
$DIMALTF
 40
0.0393700787
  9
$DIMTXT
 40
3.6625903955
  9
$DIMTOL
 70
1
  9
$DIMLIM
 70
0
  9
$DIMTFAC
 40
1.0
  9
$DIMTP
 40
0.01
  9
$DIMTM
 40
0.01
  9
$DIMGAP
 40
0.625
  9
$DIMDSEP
 70
46
  9
$AUNITS
 70
0
  9
$PDMODE
 70
3
  9
$PDSIZE
 40
0.3125
  9
$HANDSEED
  5
587
  9
$TILEMODE
 70
1
  9
$MEASUREMENT
 70
1
  9
$INSUNITS
 70
4
  0
ENDSEC
  0
SECTION
  2
CLASSES
  0
CLASS
  1
ACDBDICTIONARYWDFLT
  2
AcDbDictionaryWithDefault
  3
AutoCAD 2000
 90
0
 91
1
280
0
281
0
  0
CLASS
  1
ACDBPLACEHOLDER
  2
AcDbPlaceHolder
  3
AutoCAD 2000
 90
0
 91
1
280
0
281
0
  0
CLASS
  1
LAYOUT
  2
AcDbLayout
  3
AutoCAD 2000
 90
0
 91
0
280
0
281
0
  0
ENDSEC
  0
SECTION
  2
TABLES
  0
TABLE
  2
VPORT
  5
8
100
AcDbSymbolTable
 70
2
  0
VPORT
  5
1F4
100
AcDbSymbolTableRecord
100
AcDbViewportTableRecord
  2
*ACTIVE
 70
0
 10
0.0
 20
0.0
 11
1.0
 21
1.0
 12
109.8777118644
 22
155.3984782082
 13
0.0
 23
0.0
 14
1.0
 24
1.0
 15
0.0
 25
0.0
 16
0.0
 26
0.0
 36
1.0
 17
0.0
 27
0.0
 37
0.0
 40
310.7969564163
 41
0.7070707071
 42
50.0
 43
0.0
 44
0.0
 50
0.0
 51
0.0
 71
0
 72
100
 73
1
 74
1
 75
0
 76
0
 77
0
 78
0
  0
ENDTAB
  0
TABLE
  2
LTYPE
  5
5
100
AcDbSymbolTable
 70
6
  0
LTYPE
  5
14
100
AcDbSymbolTableRecord
100
AcDbLinetypeTableRecord
  2
BYBLOCK
 70
0
  3

 72
65
 73
0
 40
0.0
  0
LTYPE
  5
15
100
AcDbSymbolTableRecord
100
AcDbLinetypeTableRecord
  2
BYLAYER
 70
0
  3

 72
65
 73
0
 40
0.0
  0
LTYPE
  5
16
100
AcDbSymbolTableRecord
100
AcDbLinetypeTableRecord
  2
CONTINUOUS
 70
64
  3
Solid line
 72
65
 73
0
 40
0.0
  0
LTYPE
  5
1F5
100
AcDbSymbolTableRecord
100
AcDbLinetypeTableRecord
  2
CENTER
 70
64
  3
____ _ ____ _ ____ _ ____ _ ____ _ ____ _ ____
 72
65
 73
4
 40
0.6
 49
0.375
 74
0
 49
-0.075
 74
0
 49
0.075
 74
0
 49
-0.075
 74
0
  0
LTYPE
  5
1F6
100
AcDbSymbolTableRecord
100
AcDbLinetypeTableRecord
  2
HIDDEN
 70
64
  3
- - - - - - - - - - - - - - - - - - - -
 72
65
 73
2
 40
0.2
 49
0.1
 74
0
 49
-0.1
 74
0
  0
LTYPE
  5
1F7
100
AcDbSymbolTableRecord
100
AcDbLinetypeTableRecord
  2
PHANTOM
 70
64
  3
_____ _ _ _____ _ _ _____ _ _ _____
 72
65
 73
6
 40
0.8
 49
0.45
 74
0
 49
-0.05
 74
0
 49
0.1
 74
0
 49
-0.05
 74
0
 49
0.1
 74
0
 49
-0.05
 74
0
  0
LTYPE
  5
1F8
100
AcDbSymbolTableRecord
100
AcDbLinetypeTableRecord
  2
DOT
 70
64
  3
. . . . . . . . . . . . . . . . . . . .
 72
65
 73
2
 40
0.2
 49
0.1
 74
0
 49
-0.1
 74
0
  0
LTYPE
  5
1F9
100
AcDbSymbolTableRecord
100
AcDbLinetypeTableRecord
  2
DASHED
 70
64
  3
- - - - - - - - - - - - - - - - - - - -
 72
65
 73
2
 40
0.2
 49
0.1
 74
0
 49
-0.1
 74
0
  0
ENDTAB
  0
TABLE
  2
LAYER
  5
2
100
AcDbSymbolTable
 70
36
  0
LAYER
  5
10
100
AcDbSymbolTableRecord
100
AcDbLayerTableRecord
  2
0
 70
0
 62
7
  6
CONTINUOUS
370
-3
390
F
  0
LAYER
  5
1FA
100
AcDbSymbolTableRecord
100
AcDbLayerTableRecord
  2
DEFAULT_1
 70
0
 62
7
  6
CENTER
370
-3
390
F
  0
LAYER
  5
1FB
100
AcDbSymbolTableRecord
100
AcDbLayerTableRecord
  2
DEFAULT_2
 70
0
 62
8
  6
HIDDEN
370
-3
390
F
  0
LAYER
  5
1FC
100
AcDbSymbolTableRecord
100
AcDbLayerTableRecord
  2
DEFAULT_3
 70
0
 62
7
  6
PHANTOM
370
-3
390
F
  0
LAYER
  5
1FD
100
AcDbSymbolTableRecord
100
AcDbLayerTableRecord
  2
00_COMPONENTS
 70
0
 62
7
  6
CONTINUOUS
370
-3
390
F
  0
LAYER
  5
1FE
100
AcDbSymbolTableRecord
100
AcDbLayerTableRecord
  2
01_1_DEFAULT_DATUMS
 70
0
 62
7
  6
CONTINUOUS
370
-3
390
F
  0
LAYER
  5
1FF
100
AcDbSymbolTableRecord
100
AcDbLayerTableRecord
  2
01_PLANES
 70
0
 62
7
  6
CONTINUOUS
370
-3
390
F
  0
LAYER
  5
200
100
AcDbSymbolTableRecord
100
AcDbLayerTableRecord
  2
02_COORD_SYS
 70
0
 62
7
  6
CONTINUOUS
370
-3
390
F
  0
LAYER
  5
201
100
AcDbSymbolTableRecord
100
AcDbLayerTableRecord
  2
03_AXES
 70
0
 62
7
  6
CONTINUOUS
370
-3
390
F
  0
LAYER
  5
202
100
AcDbSymbolTableRecord
100
AcDbLayerTableRecord
  2
04_POINTS
 70
0
 62
7
  6
CONTINUOUS
370
-3
390
F
  0
LAYER
  5
203
100
AcDbSymbolTableRecord
100
AcDbLayerTableRecord
  2
05_CURVES
 70
0
 62
7
  6
CONTINUOUS
370
-3
390
F
  0
LAYER
  5
204
100
AcDbSymbolTableRecord
100
AcDbLayerTableRecord
  2
06_SURFS
 70
0
 62
7
  6
CONTINUOUS
370
-3
390
F
  0
LAYER
  5
205
100
AcDbSymbolTableRecord
100
AcDbLayerTableRecord
  2
07_COSMETICS
 70
0
 62
7
  6
CONTINUOUS
370
-3
390
F
  0
LAYER
  5
206
100
AcDbSymbolTableRecord
100
AcDbLayerTableRecord
  2
10_NOTES
 70
0
 62
7
  6
CONTINUOUS
370
-3
390
F
  0
LAYER
  5
207
100
AcDbSymbolTableRecord
100
AcDbLayerTableRecord
  2
11_NOTES_PUB
 70
0
 62
7
  6
CONTINUOUS
370
-3
390
F
  0
LAYER
  5
208
100
AcDbSymbolTableRecord
100
AcDbLayerTableRecord
  2
13_REF_GTOL
 70
0
 62
7
  6
CONTINUOUS
370
-3
390
F
  0
LAYER
  5
209
100
AcDbSymbolTableRecord
100
AcDbLayerTableRecord
  2
16_MISC
 70
0
 62
7
  6
CONTINUOUS
370
-3
390
F
  0
LAYER
  5
20A
100
AcDbSymbolTableRecord
100
AcDbLayerTableRecord
  2
17_NO_PRINT
 70
0
 62
7
  6
CONTINUOUS
370
-3
390
F
  0
LAYER
  5
20B
100
AcDbSymbolTableRecord
100
AcDbLayerTableRecord
  2
18_DATUM_CAMS_JOINTS
 70
0
 62
7
  6
CONTINUOUS
370
-3
390
F
  0
LAYER
  5
20C
100
AcDbSymbolTableRecord
100
AcDbLayerTableRecord
  2
19_DATUM_FUNCTIONAL
 70
0
 62
7
  6
CONTINUOUS
370
-3
390
F
  0
LAYER
  5
20D
100
AcDbSymbolTableRecord
100
AcDbLayerTableRecord
  2
20_DATUM_KINEMATIC_SCHEME
 70
0
 62
7
  6
CONTINUOUS
370
-3
390
F
  0
ENDTAB
  0
TABLE
  2
STYLE
  5
3
100
AcDbSymbolTable
 70
1
  0
STYLE
  5
11
100
AcDbSymbolTableRecord
100
AcDbTextStyleTableRecord
  2
STANDARD
 70
0
 40
0.0
 41
0.8
 50
0.0
 71
0
 42
0.2
  3
txt
  4

  0
STYLE
  5
20E
100
AcDbSymbolTableRecord
100
AcDbTextStyleTableRecord
  2
TEXTSTYLE_1
 70
0
 40
0.0
 41
0.8
 50
0.0
 71
0
 42
0.2
  3
gdt
  4

  0
ENDTAB
  0
TABLE
  2
VIEW
  5
6
100
AcDbSymbolTable
 70
0
  0
ENDTAB
  0
TABLE
  2
UCS
  5
7
100
AcDbSymbolTable
 70
0
  0
ENDTAB
  0
TABLE
  2
APPID
  5
9
100
AcDbSymbolTable
 70
1
  0
APPID
  5
20F
100
AcDbSymbolTableRecord
100
AcDbRegAppTableRecord
  2
ACAD
 70
0
  0
ENDTAB
  0
TABLE
  2
BLOCK_RECORD
  5
1
100
AcDbSymbolTable
 70
0
  0
BLOCK_RECORD
  5
210
100
AcDbSymbolTableRecord
100
AcDbBlockTableRecord
  2
*Model_Space
  0
BLOCK_RECORD
  5
211
100
AcDbSymbolTableRecord
100
AcDbBlockTableRecord
  2
*Paper_Space
  0
BLOCK_RECORD
  5
212
100
AcDbSymbolTableRecord
100
AcDbBlockTableRecord
  2
_FILLED
  0
ENDTAB
  0
TABLE
  2
DIMSTYLE
  5
A
100
AcDbSymbolTable
 70
1
100
AcDbDimStyleTable
 71
0
  0
DIMSTYLE
105
213
100
AcDbSymbolTableRecord
100
AcDbDimStyleTableRecord
  2
STANDARD
 70
0
  3

  4

 40
1.0
 41
2.6161359968
 42
1.0
 43
0.38
 44
1.0
 45
0.0
 46
0.0
 47
0.01
 48
0.01
140
3.6625903955
141
0.09
142
0.0
143
25.4
144
1.0
145
0.0
146
1.0
147
0.625
 71
1
 72
0
 73
0
 74
0
 75
0
 76
0
 77
1
 78
8
 79
2
170
0
171
1
172
0
173
0
174
0
175
0
176
0
177
0
178
0
270
2
179
2
271
2
272
2
273
2
274
2
275
0
280
0
281
0
282
0
283
1
284
8
285
0
286
0
287
3
288
0
340
11
278
46
341
212
342
212
343
212
344
212
  0
ENDTAB
  0
ENDSEC
  0
SECTION
  2
BLOCKS
  0
BLOCK
  5
20
100
AcDbEntity
  8
0
100
AcDbBlockBegin
  2
*Model_Space
 70
0
 10
0.0
 20
0.0
 30
0.0
  3
*Model_Space
  1

  0
ENDBLK
  5
21
100
AcDbEntity
  8
0
100
AcDbBlockEnd
  0
BLOCK
  5
1C
100
AcDbEntity
  8
0
100
AcDbBlockBegin
  2
*Paper_Space
 70
0
 10
0.0
 20
0.0
 30
0.0
  3
*Paper_Space
  1

  0
ENDBLK
  5
1D
100
AcDbEntity
  8
0
100
AcDbBlockEnd
  0
BLOCK
  5
214
100
AcDbEntity
  8
0
100
AcDbBlockBegin
  2
_FILLED
 70
64
 10
0.0
 20
0.0
  3
_FILLED
  1

  0
SOLID
  5
215
100
AcDbEntity
  8
0
  6
BYBLOCK
 62
0
100
AcDbTrace
 10
0.0
 20
0.0
 11
-1.0
 21
0.25
 12
-1.0
 22
-0.25
 13
-1.0
 23
-0.25
  0
ENDBLK
  5
216
100
AcDbEntity
  8
0
  6
BYBLOCK
 62
0
100
AcDbBlockEnd
  0
ENDSEC
  0
SECTION
  2
ENTITIES
  0
LINE
  5
217
100
AcDbEntity
  8
0
100
AcDbLine
 62
7
  6
CONTINUOUS
 10
25.4941574987
 20
133.5279152513
 11
25.4941574987
 21
140.8764370055
  0
LINE
  5
218
100
AcDbEntity
  8
0
100
AcDbLine
 62
7
  6
CONTINUOUS
 10
105.7510347598
 20
60.656033443
 11
103.2761507218
 21
62.0848760838
  0
LINE
  5
219
100
AcDbEntity
  8
0
100
AcDbLine
 62
7
  6
CONTINUOUS
 10
31.5045136193
 20
103.5213126676
 11
99.740602096
 21
64.1260798564
  0
LINE
  5
21A
100
AcDbEntity
  8
0
100
AcDbLine
 62
7
  6
CONTINUOUS
 10
31.5045136193
 20
195.1298241648
 11
31.5045136193
 21
144.3464970162
  0
LINE
  5
21B
100
AcDbEntity
  8
0
100
AcDbLine
 62
7
  6
CONTINUOUS
 10
31.5045136193
 20
113.7275928817
 11
31.5045136193
 21
103.5213126676
  0
LINE
  5
21C
100
AcDbEntity
  8
0
100
AcDbLine
 62
7
  6
CONTINUOUS
 10
32.8078777735
 20
142.9177552606
 11
32.8078777735
 21
139.2434943835
  0
LINE
  5
21D
100
AcDbEntity
  8
0
100
AcDbLine
 62
7
  6
CONTINUOUS
 10
33.6258427948
 20
193.9051019013
 11
33.6258427948
 21
155.3692475175
  0
LINE
  5
21E
100
AcDbEntity
  8
0
100
AcDbLine
 62
7
  6
CONTINUOUS
 10
33.9793976574
 20
193.700981524
 11
33.9793976574
 21
156.3082305242
  0
LINE
  5
21F
100
AcDbEntity
  8
0
100
AcDbLine
 62
7
  6
CONTINUOUS
 10
35.2522051721
 20
154.1853728218
 11
35.2522051721
 21
160.9215177631
  0
LINE
  5
220
100
AcDbEntity
  8
0
100
AcDbLine
 62
7
  6
CONTINUOUS
 10
33.7580328228
 20
194.0026515295
 11
33.6258427948
 21
193.9051019013
  0
LINE
  5
221
100
AcDbEntity
  8
0
100
AcDbLine
 62
7
  6
CONTINUOUS
 10
99.740602096
 20
70.6580991934
 11
97.6192729206
 21
71.882821457
  0
LINE
  5
222
100
AcDbEntity
  8
0
100
AcDbLine
 62
7
  6
CONTINUOUS
 10
103.2761507218
 20
68.6168954208
 11
105.7510347598
 21
67.18805278
  0
LINE
  5
223
100
AcDbEntity
  8
0
100
AcDbLine
 62
7
  6
CONTINUOUS
 10
31.5045136193
 20
113.7275928817
 11
38.8584547609
 21
109.4818890347
  0
LINE
  5
224
100
AcDbEntity
  8
0
100
AcDbLine
 62
7
  6
CONTINUOUS
 10
91.3259963668
 20
79.1904250493
 11
97.6192729206
 21
75.5570823341
  0
LINE
  5
225
100
AcDbEntity
  8
0
100
AcDbLine
 62
7
  6
CONTINUOUS
 10
36.1360923285
 20
156.9410815471
 11
36.1360923285
 21
153.6750718786
  0
LINE
  5
226
100
AcDbEntity
  8
0
100
AcDbLine
 62
7
  6
CONTINUOUS
 10
37.1613914205
 20
165.9021809687
 11
37.1613914205
 21
168.35168822
  0
LINE
  5
227
100
AcDbEntity
  8
0
100
AcDbLine
 62
7
  6
CONTINUOUS
 10
37.1613914205
 20
174.8020573154
 11
37.1613914205
 21
177.2515645668
  0
LINE
  5
228
100
AcDbEntity
  8
0
100
AcDbLine
 62
7
  6
CONTINUOUS
 10
37.1613914205
 20
179.2928206096
 11
37.1613914205
 21
181.742327861
  0
LINE
  5
229
100
AcDbEntity
  8
0
100
AcDbLine
 62
7
  6
CONTINUOUS
 10
37.1613914205
 20
183.7835839038
 11
37.1613914205
 21
186.2330911552
  0
LINE
  5
22A
100
AcDbEntity
  8
0
100
AcDbLine
 62
7
  6
CONTINUOUS
 10
37.3381688518
 20
156.410342983
 11
37.3381688518
 21
155.1855893573
  0
LINE
  5
22B
100
AcDbEntity
  8
0
100
AcDbLine
 62
7
  6
CONTINUOUS
 10
37.5148962357
 20
126.5876237051
 11
37.5148962357
 21
117.1976681896
  0
LINE
  5
22C
100
AcDbEntity
  8
0
100
AcDbLine
 62
7
  6
CONTINUOUS
 10
38.045278577
 20
157.2268558542
 11
38.045278577
 21
156.0021022285
  0
LINE
  5
22D
100
AcDbEntity
  8
0
100
AcDbLine
 62
7
  6
CONTINUOUS
 10
38.045278577
 20
154.7773486028
 11
38.045278577
 21
153.9608461857
  0
LINE
  5
22E
100
AcDbEntity
  8
0
100
AcDbLine
 62
7
  6
CONTINUOUS
 10
38.8584547609
 20
125.8119373773
 11
38.8584547609
 21
109.4818890347
  0
LINE
  5
22F
100
AcDbEntity
  8
0
100
AcDbLine
 62
7
  6
CONTINUOUS
 10
38.9291510136
 20
153.4505537408
 11
38.9291510136
 21
153.2930280783
  0
LINE
  5
230
100
AcDbEntity
  8
0
100
AcDbLine
 62
7
  6
CONTINUOUS
 10
40.2931944752
 20
138.8353686235
 11
40.2931944752
 21
134.3446053293
  0
LINE
  5
231
100
AcDbEntity
  8
0
100
AcDbLine
 62
7
  6
CONTINUOUS
 10
40.8078777735
 20
142.9177552606
 11
40.8078777735
 21
139.9255277701
  0
LINE
  5
232
100
AcDbEntity
  8
0
100
AcDbLine
 62
7
  6
CONTINUOUS
 10
41.7575663624
 20
151.8176043201
 11
41.7575663624
 21
151.4908674508
  0
LINE
  5
233
100
AcDbEntity
  8
0
100
AcDbLine
 62
7
  6
CONTINUOUS
 10
42.1465249923
 20
150.2050254652
 11
42.1465249923
 21
153.4710351337
  0
LINE
  5
234
100
AcDbEntity
  8
0
100
AcDbLine
 62
7
  6
CONTINUOUS
 10
43.9142993052
 20
152.4504332474
 11
43.9142993052
 21
149.1844235789
  0
LINE
  5
235
100
AcDbEntity
  8
0
100
AcDbLine
 62
7
  6
CONTINUOUS
 10
114.8355600025
 20
72.4329745664
 11
109.8037378873
 21
75.0487005369
  0
LINE
  5
236
100
AcDbEntity
  8
0
100
AcDbLine
 62
7
  6
CONTINUOUS
 10
37.5148962357
 20
117.1976681896
 11
38.8584547609
 21
116.4219818618
  0
LINE
  5
237
100
AcDbEntity
  8
0
100
AcDbLine
 62
7
  6
CONTINUOUS
 10
97.3363789831
 20
82.6605003572
 11
103.7010881251
 21
78.9859169509
  0
LINE
  5
238
100
AcDbEntity
  8
0
100
AcDbLine
 62
7
  6
CONTINUOUS
 10
68.9339616822
 20
99.7524774374
 11
72.1233216064
 21
97.9111412833
  0
LINE
  5
239
100
AcDbEntity
  8
0
100
AcDbLine
 62
7
  6
CONTINUOUS
 10
73.1932887894
 20
97.293409417
 11
75.6789559343
 21
95.8583412874
  0
LINE
  5
23A
100
AcDbEntity
  8
0
100
AcDbLine
 62
7
  6
CONTINUOUS
 10
76.7422241566
 20
95.2444769805
 11
79.2211534626
 21
93.813298856
  0
LINE
  5
23B
100
AcDbEntity
  8
0
100
AcDbLine
 62
7
  6
CONTINUOUS
 10
80.2830254156
 20
93.2002406673
 11
82.7600214637
 21
91.7701786845
  0
LINE
  5
23C
100
AcDbEntity
  8
0
100
AcDbLine
 62
7
  6
CONTINUOUS
 10
82.7600214637
 20
92.9949323102
 11
80.2830254156
 21
94.424994293
  0
LINE
  5
23D
100
AcDbEntity
  8
0
100
AcDbLine
 62
7
  6
CONTINUOUS
 10
79.2211534626
 20
95.0380524817
 11
76.7422241566
 21
96.4692306062
  0
LINE
  5
23E
100
AcDbEntity
  8
0
100
AcDbLine
 62
7
  6
CONTINUOUS
 10
75.6789559343
 20
97.0830949131
 11
73.1932887894
 21
98.5181630427
  0
LINE
  5
23F
100
AcDbEntity
  8
0
100
AcDbLine
 62
7
  6
CONTINUOUS
 10
72.1233216064
 20
99.1358949089
 11
68.9339616822
 21
100.9772310631
  0
LINE
  5
240
100
AcDbEntity
  8
0
100
AcDbLine
 62
7
  6
CONTINUOUS
 10
45.2930561088
 20
201.9363172997
 11
45.2930561088
 21
202.3952777528
  0
LINE
  5
241
100
AcDbEntity
  8
0
100
AcDbLine
 62
7
  6
CONTINUOUS
 10
45.6467081223
 20
152.8382677431
 11
45.6467081223
 21
149.5722580746
  0
LINE
  5
242
100
AcDbEntity
  8
0
100
AcDbLine
 62
7
  6
CONTINUOUS
 10
46.0002600409
 20
161.2074139913
 11
46.0002600409
 21
163.2486804882
  0
LINE
  5
243
100
AcDbEntity
  8
0
100
AcDbLine
 62
7
  6
CONTINUOUS
 10
46.7073579902
 20
148.9599054411
 11
46.7073579902
 21
148.8023797786
  0
LINE
  5
244
100
AcDbEntity
  8
0
100
AcDbLine
 62
7
  6
CONTINUOUS
 10
46.8841457253
 20
148.8578393037
 11
46.8841457253
 21
147.5105946344
  0
LINE
  5
245
100
AcDbEntity
  8
0
100
AcDbLine
 62
7
  6
CONTINUOUS
 10
47.7680343538
 20
162.2280786019
 11
47.7680343538
 21
160.186812105
  0
LINE
  5
246
100
AcDbEntity
  8
0
100
AcDbLine
 62
7
  6
CONTINUOUS
 10
47.7680328818
 20
148.3475383605
 11
47.7680328818
 21
147.0002936912
  0
LINE
  5
247
100
AcDbEntity
  8
0
100
AcDbLine
 62
7
  6
CONTINUOUS
 10
48.6519126783
 20
147.8372416665
 11
48.6519126783
 21
147.5105988836
  0
LINE
  5
248
100
AcDbEntity
  8
0
100
AcDbLine
 62
7
  6
CONTINUOUS
 10
49.5358071946
 20
147.3269364742
 11
49.5358071946
 21
145.9796918049
  0
LINE
  5
249
100
AcDbEntity
  8
0
100
AcDbLine
 62
7
  6
CONTINUOUS
 10
49.9247319689
 20
145.7143771655
 11
49.9247319689
 21
148.980386834
  0
LINE
  5
24A
100
AcDbEntity
  8
0
100
AcDbLine
 62
7
  6
CONTINUOUS
 10
50.2931944752
 20
138.8353686235
 11
50.2931944752
 21
134.3446053293
  0
LINE
  5
24B
100
AcDbEntity
  8
0
100
AcDbLine
 62
7
  6
CONTINUOUS
 10
51.3035859235
 20
178.0682760648
 11
51.3035859235
 21
175.6187688134
  0
LINE
  5
24C
100
AcDbEntity
  8
0
100
AcDbLine
 62
7
  6
CONTINUOUS
 10
51.3035859235
 20
173.5775127706
 11
51.3035859235
 21
171.1280055192
  0
LINE
  5
24D
100
AcDbEntity
  8
0
100
AcDbLine
 62
7
  6
CONTINUOUS
 10
51.3035859235
 20
169.0867494763
 11
51.3035859235
 21
166.637242225
  0
LINE
  5
24E
100
AcDbEntity
  8
0
100
AcDbLine
 62
7
  6
CONTINUOUS
 10
51.6925062818
 20
147.9597849477
 11
51.6925062818
 21
144.6937752792
  0
LINE
  5
24F
100
AcDbEntity
  8
0
100
AcDbLine
 62
7
  6
CONTINUOUS
 10
52.7178053738
 20
142.0605403774
 11
52.7178053738
 21
144.3467471454
  0
LINE
  5
250
100
AcDbEntity
  8
0
100
AcDbLine
 62
7
  6
CONTINUOUS
 10
66.5063478632
 20
204.5637153684
 11
146.762633387
 21
250.8994268328
  0
LINE
  5
251
100
AcDbEntity
  8
0
100
AcDbLine
 62
7
  6
CONTINUOUS
 10
100.1291512202
 20
221.7712156323
 11
112.362047604
 21
228.8338394943
  0
LINE
  5
252
100
AcDbEntity
  8
0
100
AcDbLine
 62
7
  6
CONTINUOUS
 10
100.411994227
 20
221.7303920668
 11
112.4327594597
 21
228.6705426826
  0
LINE
  5
253
100
AcDbEntity
  8
0
100
AcDbLine
 62
7
  6
CONTINUOUS
 10
39.2827029322
 20
185.0083163654
 11
37.1613914205
 21
183.7835839038
  0
LINE
  5
254
100
AcDbEntity
  8
0
100
AcDbLine
 62
7
  6
CONTINUOUS
 10
82.4043369273
 20
95.6497267546
 11
82.4838139754
 21
95.6038416975
  0
LINE
  5
255
100
AcDbEntity
  8
0
100
AcDbLine
 62
7
  6
CONTINUOUS
 10
97.6192729206
 20
91.8871306766
 11
91.3259963668
 21
95.5204733919
  0
LINE
  5
256
100
AcDbEntity
  8
0
100
AcDbLine
 62
7
  6
CONTINUOUS
 10
86.3055938614
 20
98.4192103626
 11
25.4941574987
 21
133.5279152513
  0
LINE
  5
257
100
AcDbEntity
  8
0
100
AcDbLine
 62
7
  6
CONTINUOUS
 10
63.9735883997
 20
111.3123080465
 11
64.1112679671
 21
110.957460553
  0
LINE
  5
258
100
AcDbEntity
  8
0
100
AcDbLine
 62
7
  6
CONTINUOUS
 10
64.6429020782
 20
109.587257004
 11
65.8857356507
 21
106.3840483759
  0
LINE
  5
259
100
AcDbEntity
  8
0
100
AcDbLine
 62
7
  6
CONTINUOUS
 10
66.4207192422
 20
105.0052120664
 11
68.0153992043
 21
100.8951745467
  0
LINE
  5
25A
100
AcDbEntity
  8
0
100
AcDbLine
 62
7
  6
CONTINUOUS
 10
68.9339616822
 20
100.9772310631
 11
67.3392817201
 21
105.0872685829
  0
LINE
  5
25B
100
AcDbEntity
  8
0
100
AcDbLine
 62
7
  6
CONTINUOUS
 10
66.8042981286
 20
106.4661048923
 11
65.5614645561
 21
109.6693135204
  0
LINE
  5
25C
100
AcDbEntity
  8
0
100
AcDbLine
 62
7
  6
CONTINUOUS
 10
52.894582805
 20
147.4290463836
 11
52.894582805
 21
146.2042927579
  0
LINE
  5
25D
100
AcDbEntity
  8
0
100
AcDbLine
 62
7
  6
CONTINUOUS
 10
53.2481332517
 20
143.0199254266
 11
53.2481332517
 21
143.8364278437
  0
LINE
  5
25E
100
AcDbEntity
  8
0
100
AcDbLine
 62
7
  6
CONTINUOUS
 10
53.6016925302
 20
148.2455592548
 11
53.6016925302
 21
147.0208056291
  0
LINE
  5
25F
100
AcDbEntity
  8
0
100
AcDbLine
 62
7
  6
CONTINUOUS
 10
53.6016925302
 20
145.7960520034
 11
53.6016925302
 21
144.9795495862
  0
LINE
  5
260
100
AcDbEntity
  8
0
100
AcDbLine
 62
7
  6
CONTINUOUS
 10
53.7784699615
 20
142.9178835965
 11
53.7784699615
 21
141.4481792457
  0
LINE
  5
261
100
AcDbEntity
  8
0
100
AcDbLine
 62
7
  6
CONTINUOUS
 10
54.1320130482
 20
144.346733036
 11
54.1320130482
 21
144.673375819
  0
LINE
  5
262
100
AcDbEntity
  8
0
100
AcDbLine
 62
7
  6
CONTINUOUS
 10
54.4855649668
 20
144.4692571414
 11
54.4855649668
 21
144.1426143584
  0
LINE
  5
263
100
AcDbEntity
  8
0
100
AcDbLine
 62
7
  6
CONTINUOUS
 10
54.4855796866
 20
181.8619996429
 11
54.4855796866
 21
174.7542785798
  0
LINE
  5
264
100
AcDbEntity
  8
0
100
AcDbLine
 62
7
  6
CONTINUOUS
 10
56.6069088621
 20
167.6579486517
 11
56.6069088621
 21
161.9424317318
  0
LINE
  5
265
100
AcDbEntity
  8
0
100
AcDbLine
 62
7
  6
CONTINUOUS
 10
56.9604607807
 20
154.8796822963
 11
56.9604607807
 21
156.9209487931
  0
LINE
  5
266
100
AcDbEntity
  8
0
100
AcDbLine
 62
7
  6
CONTINUOUS
 10
57.3139803156
 20
142.8363077206
 11
57.3139803156
 21
142.5095708514
  0
LINE
  5
267
100
AcDbEntity
  8
0
100
AcDbLine
 62
7
  6
CONTINUOUS
 10
57.7029389455
 20
141.2237288658
 11
57.7029389455
 21
144.4897385343
  0
LINE
  5
268
100
AcDbEntity
  8
0
100
AcDbLine
 62
7
  6
CONTINUOUS
 10
58.0211283124
 20
140.4684390694
 11
58.0211283124
 21
138.9987347185
  0
LINE
  5
269
100
AcDbEntity
  8
0
100
AcDbLine
 62
7
  6
CONTINUOUS
 10
58.5514561903
 20
140.7338482887
 11
58.5514561903
 21
139.9581197677
  0
LINE
  5
26A
100
AcDbEntity
  8
0
100
AcDbLine
 62
7
  6
CONTINUOUS
 10
58.7282203737
 20
168.8826811133
 11
58.7282203737
 21
163.1671641934
  0
LINE
  5
26B
100
AcDbEntity
  8
0
100
AcDbLine
 62
7
  6
CONTINUOUS
 10
58.7282350935
 20
155.9003469068
 11
58.7282350935
 21
153.85908041
  0
LINE
  5
26C
100
AcDbEntity
  8
0
100
AcDbLine
 62
7
  6
CONTINUOUS
 10
59.0817752363
 20
162.9630438162
 11
59.0817752363
 21
161.7383215525
  0
LINE
  5
26D
100
AcDbEntity
  8
0
100
AcDbLine
 62
7
  6
CONTINUOUS
 10
59.0817929001
 20
140.4276651733
 11
59.0817929001
 21
138.3863735868
  0
LINE
  5
26E
100
AcDbEntity
  8
0
100
AcDbLine
 62
7
  6
CONTINUOUS
 10
59.4707132584
 20
143.469136648
 11
59.4707132584
 21
140.2031269795
  0
LINE
  5
26F
100
AcDbEntity
  8
0
100
AcDbLine
 62
7
  6
CONTINUOUS
 10
60.4960123504
 20
137.5698920777
 11
60.4960123504
 21
139.8560988457
  0
LINE
  5
270
100
AcDbEntity
  8
0
100
AcDbLine
 62
7
  6
CONTINUOUS
 10
60.6727897817
 20
142.9383980839
 11
60.6727897817
 21
141.7136444582
  0
LINE
  5
271
100
AcDbEntity
  8
0
100
AcDbLine
 62
7
  6
CONTINUOUS
 10
61.0263402283
 20
138.5292771268
 11
61.0263402283
 21
139.345779544
  0
LINE
  5
272
100
AcDbEntity
  8
0
100
AcDbLine
 62
7
  6
CONTINUOUS
 10
61.3798995068
 20
143.754910955
 11
61.3798995068
 21
142.5301573293
  0
LINE
  5
273
100
AcDbEntity
  8
0
100
AcDbLine
 62
7
  6
CONTINUOUS
 10
61.3798995068
 20
141.3054037036
 11
61.3798995068
 21
140.4889012865
  0
LINE
  5
274
100
AcDbEntity
  8
0
100
AcDbLine
 62
7
  6
CONTINUOUS
 10
66.5055029902
 20
190.6050806632
 11
66.1527930006
 21
190.3521754944
  0
LINE
  5
275
100
AcDbEntity
  8
0
100
AcDbLine
 62
7
  6
CONTINUOUS
 10
66.5063478632
 20
190.5974857896
 11
66.1527930006
 21
190.3521754944
  0
LINE
  5
276
100
AcDbEntity
  8
0
100
AcDbLine
 62
7
  6
CONTINUOUS
 10
121.6605060452
 20
228.2419102865
 11
130.1457520918
 21
233.1408401329
  0
LINE
  5
277
100
AcDbEntity
  8
0
100
AcDbLine
 62
7
  6
CONTINUOUS
 10
39.2827029322
 20
180.5175530712
 11
37.1613914205
 21
179.2928206096
  0
LINE
  5
278
100
AcDbEntity
  8
0
100
AcDbLine
 62
7
  6
CONTINUOUS
 10
140.6108977145
 20
237.9581262476
 11
152.5963077552
 21
244.8778646558
  0
LINE
  5
279
100
AcDbEntity
  8
0
100
AcDbLine
 62
7
  6
CONTINUOUS
 10
71.5975308188
 20
198.1134005317
 11
70.7490062141
 21
197.6235075471
  0
LINE
  5
27A
100
AcDbEntity
  8
0
100
AcDbLine
 62
7
  6
CONTINUOUS
 10
123.074749934
 20
227.4254146682
 11
130.1457520918
 21
231.5078352987
  0
LINE
  5
27B
100
AcDbEntity
  8
0
100
AcDbLine
 62
7
  6
CONTINUOUS
 10
130.1457609237
 20
230.5280586612
 11
123.9232779384
 21
226.9355278791
  0
LINE
  5
27C
100
AcDbEntity
  8
0
100
AcDbLine
 62
7
  6
CONTINUOUS
 10
142.0251416032
 20
237.1416306294
 11
152.5963077552
 21
243.2448598215
  0
LINE
  5
27D
100
AcDbEntity
  8
0
100
AcDbLine
 62
7
  6
CONTINUOUS
 10
39.2827029322
 20
176.026789777
 11
37.1613914205
 21
174.8020573154
  0
LINE
  5
27E
100
AcDbEntity
  8
0
100
AcDbLine
 62
7
  6
CONTINUOUS
 10
86.3055938614
 20
105.7677321167
 11
25.4941574987
 21
140.8764370055
  0
LINE
  5
27F
100
AcDbEntity
  8
0
100
AcDbLine
 62
7
  6
CONTINUOUS
 10
68.5443684904
 20
108.6734266303
 11
68.9256096402
 21
107.690837354
  0
LINE
  5
280
100
AcDbEntity
  8
0
100
AcDbLine
 62
7
  6
CONTINUOUS
 10
61.5566769381
 20
138.4272352968
 11
61.5566769381
 21
136.9575309459
  0
LINE
  5
281
100
AcDbEntity
  8
0
100
AcDbLine
 62
7
  6
CONTINUOUS
 10
61.9102200248
 20
139.8560847363
 11
61.9102200248
 21
140.1827275193
  0
LINE
  5
282
100
AcDbEntity
  8
0
100
AcDbLine
 62
7
  6
CONTINUOUS
 10
62.2637719434
 20
139.9786088417
 11
62.2637719434
 21
139.6519660587
  0
LINE
  5
283
100
AcDbEntity
  8
0
100
AcDbLine
 62
7
  6
CONTINUOUS
 10
62.9708963884
 20
163.983781861
 11
62.9708963884
 21
158.2682649411
  0
LINE
  5
284
100
AcDbEntity
  8
0
100
AcDbLine
 62
7
  6
CONTINUOUS
 10
64.3851158387
 20
163.167300352
 11
64.3851158387
 21
157.4517834321
  0
LINE
  5
285
100
AcDbEntity
  8
0
100
AcDbLine
 62
7
  6
CONTINUOUS
 10
65.0921872923
 20
138.3456594209
 11
65.0921872923
 21
138.0189225516
  0
LINE
  5
286
100
AcDbEntity
  8
0
100
AcDbLine
 62
7
  6
CONTINUOUS
 10
65.4811459221
 20
136.733080566
 11
65.4811459221
 21
139.9990902346
  0
LINE
  5
287
100
AcDbEntity
  8
0
100
AcDbLine
 62
7
  6
CONTINUOUS
 10
65.799335289
 20
135.9777907697
 11
65.799335289
 21
134.5080864188
  0
LINE
  5
288
100
AcDbEntity
  8
0
100
AcDbLine
 62
7
  6
CONTINUOUS
 10
66.1527930006
 20
190.3521754944
 11
66.1527930007
 21
182.9907062584
  0
LINE
  5
289
100
AcDbEntity
  8
0
100
AcDbLine
 62
7
  6
CONTINUOUS
 10
66.3296631669
 20
136.2431999889
 11
66.3296631669
 21
135.4674714679
  0
LINE
  5
28A
100
AcDbEntity
  8
0
100
AcDbLine
 62
7
  6
CONTINUOUS
 10
66.5063478632
 20
182.7865858811
 11
66.5063478632
 21
204.5637153684
  0
LINE
  5
28B
100
AcDbEntity
  8
0
100
AcDbLine
 62
7
  6
CONTINUOUS
 10
66.5064273503
 20
164.3920328136
 11
66.5064273503
 21
158.6765158937
  0
LINE
  5
28C
100
AcDbEntity
  8
0
100
AcDbLine
 62
7
  6
CONTINUOUS
 10
66.8599998767
 20
135.9370168736
 11
66.8599998767
 21
133.895725287
  0
LINE
  5
28D
100
AcDbEntity
  8
0
100
AcDbLine
 62
7
  6
CONTINUOUS
 10
67.036774364
 20
149.0622515444
 11
67.036774364
 21
151.1035180412
  0
LINE
  5
28E
100
AcDbEntity
  8
0
100
AcDbLine
 62
7
  6
CONTINUOUS
 10
67.248920235
 20
138.9784883483
 11
67.248920235
 21
135.7124786797
  0
LINE
  5
28F
100
AcDbEntity
  8
0
100
AcDbLine
 62
7
  6
CONTINUOUS
 10
67.9205673135
 20
199.2564705652
 11
67.9205716569
 21
181.9701018645
  0
LINE
  5
290
100
AcDbEntity
  8
0
100
AcDbLine
 62
7
  6
CONTINUOUS
 10
68.274219327
 20
133.079243778
 11
68.274219327
 21
135.365450546
  0
LINE
  5
291
100
AcDbEntity
  8
0
100
AcDbLine
 62
7
  6
CONTINUOUS
 10
68.8045472049
 20
134.0386288271
 11
68.8045472049
 21
134.8551312442
  0
LINE
  5
292
100
AcDbEntity
  8
0
100
AcDbLine
 62
7
  6
CONTINUOUS
 10
68.8045486769
 20
150.0829161549
 11
68.8045486769
 21
148.0416496581
  0
LINE
  5
293
100
AcDbEntity
  8
0
100
AcDbLine
 62
7
  6
CONTINUOUS
 10
69.3348839147
 20
133.9365869971
 11
69.3348839147
 21
132.4668826462
  0
LINE
  5
294
100
AcDbEntity
  8
0
100
AcDbLine
 62
7
  6
CONTINUOUS
 10
69.6884270014
 20
135.3654364366
 11
69.6884270014
 21
136.1819388537
  0
LINE
  5
295
100
AcDbEntity
  8
0
100
AcDbLine
 62
7
  6
CONTINUOUS
 10
69.8652044327
 20
137.2229820491
 11
69.8652044327
 21
139.9175173854
  0
LINE
  5
296
100
AcDbEntity
  8
0
100
AcDbLine
 62
7
  6
CONTINUOUS
 10
57.8140055024
 20
138.5409675636
 11
58.0211283124
 21
138.9987347185
  0
LINE
  5
297
100
AcDbEntity
  8
0
100
AcDbLine
 62
7
  6
CONTINUOUS
 10
79.3157986908
 20
189.2443624382
 11
79.4463598601
 21
189.3334926826
  0
LINE
  5
298
100
AcDbEntity
  8
0
100
AcDbLine
 62
7
  6
CONTINUOUS
 10
136.7575220107
 20
227.1602647961
 11
130.145822747
 21
223.3430212322
  0
LINE
  5
299
100
AcDbEntity
  8
0
100
AcDbLine
 62
7
  6
CONTINUOUS
 10
154.7176722583
 20
237.1212281076
 11
148.3891291296
 21
233.4674638387
  0
LINE
  5
29A
100
AcDbEntity
  8
0
100
AcDbLine
 62
7
  6
CONTINUOUS
 10
148.5305535184
 20
233.3858142768
 11
154.7176722583
 21
236.9579276242
  0
LINE
  5
29B
100
AcDbEntity
  8
0
100
AcDbLine
 62
7
  6
CONTINUOUS
 10
79.976692154
 20
193.6837344173
 11
80.4999520552
 21
193.9858368588
  0
LINE
  5
29C
100
AcDbEntity
  8
0
100
AcDbLine
 62
7
  6
CONTINUOUS
 10
81.4263013044
 20
191.5404172502
 11
79.4463598601
 21
190.3973043478
  0
LINE
  5
29D
100
AcDbEntity
  8
0
100
AcDbLine
 62
7
  6
CONTINUOUS
 10
39.2827029322
 20
167.1269134303
 11
37.1613914205
 21
165.9021809687
  0
LINE
  5
29E
100
AcDbEntity
  8
0
100
AcDbLine
 62
7
  6
CONTINUOUS
 10
76.8223271125
 20
187.2493253654
 11
72.4247504294
 21
184.710398439
  0
LINE
  5
29F
100
AcDbEntity
  8
0
100
AcDbLine
 62
7
  6
CONTINUOUS
 10
35.2522051721
 20
160.9215177631
 11
36.4542816954
 21
161.6155328247
  0
LINE
  5
2A0
100
AcDbEntity
  8
0
100
AcDbLine
 62
7
  6
CONTINUOUS
 10
95.4979437451
 20
111.0749061171
 11
86.770009908
 21
116.1138670709
  0
LINE
  5
2A1
100
AcDbEntity
  8
0
100
AcDbLine
 62
7
  6
CONTINUOUS
 10
82.4509283788
 20
118.6074335424
 11
50.2931944752
 21
137.1732898524
  0
LINE
  5
2A2
100
AcDbEntity
  8
0
100
AcDbLine
 62
7
  6
CONTINUOUS
 10
43.1050121925
 20
141.3232949427
 11
40.8078777735
 21
142.6495161147
  0
LINE
  5
2A3
100
AcDbEntity
  8
0
100
AcDbLine
 62
7
  6
CONTINUOUS
 10
36.4887962443
 20
145.1430825862
 11
34.6865073825
 21
146.1836110058
  0
LINE
  5
2A4
100
AcDbEntity
  8
0
100
AcDbLine
 62
7
  6
CONTINUOUS
 10
88.7804013563
 20
119.6072570627
 11
85.2448527305
 21
121.6484608353
  0
LINE
  5
2A5
100
AcDbEntity
  8
0
100
AcDbLine
 62
7
  6
CONTINUOUS
 10
81.0021943796
 20
124.0979053624
 11
77.4666457539
 21
126.139109135
  0
LINE
  5
2A6
100
AcDbEntity
  8
0
100
AcDbLine
 62
7
  6
CONTINUOUS
 10
73.223987403
 20
128.5885536621
 11
69.6884387773
 21
130.6297574347
  0
LINE
  5
2A7
100
AcDbEntity
  8
0
100
AcDbLine
 62
7
  6
CONTINUOUS
 10
65.4457804264
 20
133.0792019618
 11
61.9102318007
 21
135.1204057344
  0
LINE
  5
2A8
100
AcDbEntity
  8
0
100
AcDbLine
 62
7
  6
CONTINUOUS
 10
57.6675734498
 20
137.5698502615
 11
54.1320248241
 21
139.6110540341
  0
LINE
  5
2A9
100
AcDbEntity
  8
0
100
AcDbLine
 62
7
  6
CONTINUOUS
 10
88.4268464937
 20
120.627879857
 11
85.5984075931
 21
122.2608428751
  0
LINE
  5
2AA
100
AcDbEntity
  8
0
100
AcDbLine
 62
7
  6
CONTINUOUS
 10
80.6486395171
 20
125.1185281568
 11
77.8202006165
 21
126.7514911748
  0
LINE
  5
2AB
100
AcDbEntity
  8
0
100
AcDbLine
 62
7
  6
CONTINUOUS
 10
72.8704325404
 20
129.6091764565
 11
70.0419936399
 21
131.2421394746
  0
LINE
  5
2AC
100
AcDbEntity
  8
0
100
AcDbLine
 62
7
  6
CONTINUOUS
 10
65.0922255638
 20
134.0998247562
 11
62.2637866632
 21
135.7327877743
  0
LINE
  5
2AD
100
AcDbEntity
  8
0
100
AcDbLine
 62
7
  6
CONTINUOUS
 10
57.3140185872
 20
138.5904730559
 11
54.4855796866
 21
140.223436074
  0
LINE
  5
2AE
100
AcDbEntity
  8
0
100
AcDbLine
 62
7
  6
CONTINUOUS
 10
70.04197892
 20
139.8154588964
 11
70.04197892
 21
135.161317759
  0
LINE
  5
2AF
100
AcDbEntity
  8
0
100
AcDbLine
 62
7
  6
CONTINUOUS
 10
70.7490062141
 20
199.6647635899
 11
70.7490062141
 21
197.6235075471
  0
LINE
  5
2B0
100
AcDbEntity
  8
0
100
AcDbLine
 62
7
  6
CONTINUOUS
 10
70.749103365
 20
159.4931335613
 11
70.749103365
 21
153.7776166414
  0
LINE
  5
2B1
100
AcDbEntity
  8
0
100
AcDbLine
 62
7
  6
CONTINUOUS
 10
71.5975308188
 20
199.1748787637
 11
71.5975308188
 21
198.1134005317
  0
LINE
  5
2B2
100
AcDbEntity
  8
0
100
AcDbLine
 62
7
  6
CONTINUOUS
 10
72.1633228153
 20
158.6766520523
 11
72.1633228153
 21
152.9611351323
  0
LINE
  5
2B3
100
AcDbEntity
  8
0
100
AcDbLine
 62
7
  6
CONTINUOUS
 10
72.8703942689
 20
137.0829566967
 11
72.8703942689
 21
133.5282742519
  0
LINE
  5
2B4
100
AcDbEntity
  8
0
100
AcDbLine
 62
7
  6
CONTINUOUS
 10
73.2593528988
 20
132.2424322663
 11
73.2593528988
 21
135.5084419348
  0
LINE
  5
2B5
100
AcDbEntity
  8
0
100
AcDbLine
 62
7
  6
CONTINUOUS
 10
73.5775422656
 20
131.4871424699
 11
73.5775422656
 21
130.0174381191
  0
LINE
  5
2B6
100
AcDbEntity
  8
0
100
AcDbLine
 62
7
  6
CONTINUOUS
 10
74.1078701435
 20
131.7525516892
 11
74.1078701435
 21
130.9768231682
  0
LINE
  5
2B7
100
AcDbEntity
  8
0
100
AcDbLine
 62
7
  6
CONTINUOUS
 10
74.2846343269
 20
159.9013845139
 11
74.2846343269
 21
154.185867594
  0
LINE
  5
2B8
100
AcDbEntity
  8
0
100
AcDbLine
 62
7
  6
CONTINUOUS
 10
74.6382068533
 20
131.4463685738
 11
74.6382068533
 21
129.4050769873
  0
LINE
  5
2B9
100
AcDbEntity
  8
0
100
AcDbLine
 62
7
  6
CONTINUOUS
 10
74.8149813406
 20
144.5716032446
 11
74.8149813406
 21
146.6128697415
  0
LINE
  5
2BA
100
AcDbEntity
  8
0
100
AcDbLine
 62
7
  6
CONTINUOUS
 10
75.0271272116
 20
134.4878400485
 11
75.0271272116
 21
131.22183038
  0
LINE
  5
2BB
100
AcDbEntity
  8
0
100
AcDbLine
 62
7
  6
CONTINUOUS
 10
76.0524263036
 20
128.5885954783
 11
76.0524263036
 21
130.8748022462
  0
LINE
  5
2BC
100
AcDbEntity
  8
0
100
AcDbLine
 62
7
  6
CONTINUOUS
 10
76.5827556535
 20
145.5922678552
 11
76.5827556535
 21
143.5510013583
  0
LINE
  5
2BD
100
AcDbEntity
  8
0
100
AcDbLine
 62
7
  6
CONTINUOUS
 10
76.5827541815
 20
129.5479805274
 11
76.5827541815
 21
130.3644829445
  0
LINE
  5
2BE
100
AcDbEntity
  8
0
100
AcDbLine
 62
7
  6
CONTINUOUS
 10
77.1130908913
 20
129.4459386973
 11
77.1130908913
 21
127.9762343465
  0
LINE
  5
2BF
100
AcDbEntity
  8
0
100
AcDbLine
 62
7
  6
CONTINUOUS
 10
77.466633978
 20
130.8747881369
 11
77.466633978
 21
131.691290554
  0
LINE
  5
2C0
100
AcDbEntity
  8
0
100
AcDbLine
 62
7
  6
CONTINUOUS
 10
77.6434114093
 20
132.7323337493
 11
77.6434114093
 21
135.4268690857
  0
LINE
  5
2C1
100
AcDbEntity
  8
0
100
AcDbLine
 62
7
  6
CONTINUOUS
 10
77.8201858966
 20
135.3248105967
 11
77.8201858966
 21
130.6706694593
  0
LINE
  5
2C2
100
AcDbEntity
  8
0
100
AcDbLine
 62
7
  6
CONTINUOUS
 10
67.5670801622
 20
161.7383806215
 11
68.4510172973
 21
163.2694131491
  0
LINE
  5
2C3
100
AcDbEntity
  8
0
100
AcDbLine
 62
7
  6
CONTINUOUS
 10
36.1360923285
 20
156.9410815471
 11
38.2574398325
 21
158.1658347888
  0
LINE
  5
2C4
100
AcDbEntity
  8
0
100
AcDbLine
 62
7
  6
CONTINUOUS
 10
33.6258427948
 20
155.3692475175
 11
34.6158135169
 21
155.9408039686
  0
LINE
  5
2C5
100
AcDbEntity
  8
0
100
AcDbLine
 62
7
  6
CONTINUOUS
 10
56.6069088621
 20
167.6579486517
 11
58.7282203737
 21
168.8826811133
  0
LINE
  5
2C6
100
AcDbEntity
  8
0
100
AcDbLine
 62
7
  6
CONTINUOUS
 10
37.3381688518
 20
156.410342983
 11
38.045278577
 21
156.8185905363
  0
LINE
  5
2C7
100
AcDbEntity
  8
0
100
AcDbLine
 62
7
  6
CONTINUOUS
 10
36.1360923285
 20
153.6750718786
 11
38.0452846865
 21
154.7773380208
  0
LINE
  5
2C8
100
AcDbEntity
  8
0
100
AcDbLine
 62
7
  6
CONTINUOUS
 10
47.7680343538
 20
160.186812105
 11
49.5357939468
 21
161.2074224897
  0
LINE
  5
2C9
100
AcDbEntity
  8
0
100
AcDbLine
 62
7
  6
CONTINUOUS
 10
38.1513621427
 20
153.899600196
 11
37.1613914205
 21
153.3280437449
  0
LINE
  5
2CA
100
AcDbEntity
  8
0
100
AcDbLine
 62
7
  6
CONTINUOUS
 10
37.8685011457
 20
152.1033005732
 11
39.2827088201
 21
152.9197888809
  0
LINE
  5
2CB
100
AcDbEntity
  8
0
100
AcDbLine
 62
7
  6
CONTINUOUS
 10
95.5403599343
 20
185.3517926486
 11
92.3956813594
 21
183.5362224644
  0
LINE
  5
2CC
100
AcDbEntity
  8
0
100
AcDbLine
 62
7
  6
CONTINUOUS
 10
88.4268464937
 20
120.627879857
 11
88.9268334088
 21
120.5783743647
  0
LINE
  5
2CD
100
AcDbEntity
  8
0
100
AcDbLine
 62
7
  6
CONTINUOUS
 10
80.6486395171
 20
125.1185281568
 11
81.1486264322
 21
125.0690226644
  0
LINE
  5
2CE
100
AcDbEntity
  8
0
100
AcDbLine
 62
7
  6
CONTINUOUS
 10
58.3139951766
 20
138.8296099647
 11
59.0817811242
 21
138.3863385693
  0
LINE
  5
2CF
100
AcDbEntity
  8
0
100
AcDbLine
 62
7
  6
CONTINUOUS
 10
66.0922021532
 20
134.338961665
 11
66.8599881008
 21
133.8956902696
  0
LINE
  5
2D0
100
AcDbEntity
  8
0
100
AcDbLine
 62
7
  6
CONTINUOUS
 10
73.8704091298
 20
129.8483133652
 11
74.6381950774
 21
129.4050419698
  0
LINE
  5
2D1
100
AcDbEntity
  8
0
100
AcDbLine
 62
7
  6
CONTINUOUS
 10
81.6486161065
 20
125.3576650655
 11
82.4164020541
 21
124.9143936701
  0
LINE
  5
2D2
100
AcDbEntity
  8
0
100
AcDbLine
 62
7
  6
CONTINUOUS
 10
89.4268230831
 20
120.8670167658
 11
90.1946090307
 21
120.4237453704
  0
LINE
  5
2D3
100
AcDbEntity
  8
0
100
AcDbLine
 62
7
  6
CONTINUOUS
 10
84.8912978679
 20
124.7511491123
 11
84.3609611581
 21
125.0573322277
  0
LINE
  5
2D4
100
AcDbEntity
  8
0
100
AcDbLine
 62
7
  6
CONTINUOUS
 10
77.1130908913
 20
129.241797412
 11
76.5827541815
 21
129.5479805274
  0
LINE
  5
2D5
100
AcDbEntity
  8
0
100
AcDbLine
 62
7
  6
CONTINUOUS
 10
69.3348839147
 20
133.7324457117
 11
68.8045472049
 21
134.0386288271
  0
LINE
  5
2D6
100
AcDbEntity
  8
0
100
AcDbLine
 62
7
  6
CONTINUOUS
 10
61.5566769381
 20
138.2230940114
 11
61.0263402283
 21
138.5292771268
  0
LINE
  5
2D7
100
AcDbEntity
  8
0
100
AcDbLine
 62
7
  6
CONTINUOUS
 10
53.7784699615
 20
142.7137423112
 11
53.2481332517
 21
143.0199254266
  0
LINE
  5
2D8
100
AcDbEntity
  8
0
100
AcDbLine
 62
7
  6
CONTINUOUS
 10
58.5514561903
 20
139.9581197677
 11
59.0817929001
 21
139.6519366523
  0
LINE
  5
2D9
100
AcDbEntity
  8
0
100
AcDbLine
 62
7
  6
CONTINUOUS
 10
66.3296631669
 20
135.4674714679
 11
66.8599998767
 21
135.1612883525
  0
LINE
  5
2DA
100
AcDbEntity
  8
0
100
AcDbLine
 62
7
  6
CONTINUOUS
 10
74.1078701435
 20
130.9768231682
 11
74.6382068533
 21
130.6706400528
  0
LINE
  5
2DB
100
AcDbEntity
  8
0
100
AcDbLine
 62
7
  6
CONTINUOUS
 10
81.8860771201
 20
126.4861748685
 11
82.4164138299
 21
126.1799917531
  0
LINE
  5
2DC
100
AcDbEntity
  8
0
100
AcDbLine
 62
7
  6
CONTINUOUS
 10
89.6642840967
 20
121.9955265688
 11
90.1946208065
 21
121.6893434534
  0
LINE
  5
2DD
100
AcDbEntity
  8
0
100
AcDbLine
 62
7
  6
CONTINUOUS
 10
50.5964761983
 20
144.7549669918
 11
45.6467081223
 21
147.6126522735
  0
LINE
  5
2DE
100
AcDbEntity
  8
0
100
AcDbLine
 62
7
  6
CONTINUOUS
 10
42.8182692217
 20
149.2456152916
 11
37.8685011457
 21
152.1033005732
  0
LINE
  5
2DF
100
AcDbEntity
  8
0
100
AcDbLine
 62
7
  6
CONTINUOUS
 10
53.7784699615
 20
142.9178835965
 11
58.0211283124
 21
140.4684390694
  0
LINE
  5
2E0
100
AcDbEntity
  8
0
100
AcDbLine
 62
7
  6
CONTINUOUS
 10
61.5566769381
 20
138.4272352968
 11
65.799335289
 21
135.9777907697
  0
LINE
  5
2E1
100
AcDbEntity
  8
0
100
AcDbLine
 62
7
  6
CONTINUOUS
 10
69.3348839147
 20
133.9365869971
 11
73.5775422656
 21
131.4871424699
  0
LINE
  5
2E2
100
AcDbEntity
  8
0
100
AcDbLine
 62
7
  6
CONTINUOUS
 10
77.1130908913
 20
129.4459386973
 11
81.3557492422
 21
126.9964941702
  0
LINE
  5
2E3
100
AcDbEntity
  8
0
100
AcDbLine
 62
7
  6
CONTINUOUS
 10
84.8912978679
 20
124.9552903976
 11
89.1339562188
 21
122.5058458705
  0
LINE
  5
2E4
100
AcDbEntity
  8
0
100
AcDbLine
 62
7
  6
CONTINUOUS
 10
89.6996540084
 20
122.7508347237
 11
88.815766852
 21
123.2611356669
  0
LINE
  5
2E5
100
AcDbEntity
  8
0
100
AcDbLine
 62
7
  6
CONTINUOUS
 10
82.8053341882
 20
126.7311820803
 11
81.0375598754
 21
127.7517839666
  0
LINE
  5
2E6
100
AcDbEntity
  8
0
100
AcDbLine
 62
7
  6
CONTINUOUS
 10
75.0271272116
 20
131.22183038
 11
73.2593528988
 21
132.2424322663
  0
LINE
  5
2E7
100
AcDbEntity
  8
0
100
AcDbLine
 62
7
  6
CONTINUOUS
 10
67.248920235
 20
135.7124786797
 11
65.4811459221
 21
136.733080566
  0
LINE
  5
2E8
100
AcDbEntity
  8
0
100
AcDbLine
 62
7
  6
CONTINUOUS
 10
59.4707132584
 20
140.2031269795
 11
57.7029389455
 21
141.2237288658
  0
LINE
  5
2E9
100
AcDbEntity
  8
0
100
AcDbLine
 62
7
  6
CONTINUOUS
 10
51.6925062818
 20
144.6937752792
 11
49.9247319689
 21
145.7143771655
  0
LINE
  5
2EA
100
AcDbEntity
  8
0
100
AcDbLine
 62
7
  6
CONTINUOUS
 10
43.9142993052
 20
149.1844235789
 11
42.1465249923
 21
150.2050254652
  0
LINE
  5
2EB
100
AcDbEntity
  8
0
100
AcDbLine
 62
7
  6
CONTINUOUS
 10
36.1360923285
 20
153.6750718786
 11
35.2522051721
 21
154.1853728218
  0
LINE
  5
2EC
100
AcDbEntity
  8
0
100
AcDbLine
 62
7
  6
CONTINUOUS
 10
90.1946208065
 20
122.5058458705
 11
89.7173094236
 21
122.7814154917
  0
LINE
  5
2ED
100
AcDbEntity
  8
0
100
AcDbLine
 62
7
  6
CONTINUOUS
 10
85.4216257459
 20
125.261473513
 11
84.3609611581
 21
125.8738346448
  0
LINE
  5
2EE
100
AcDbEntity
  8
0
100
AcDbLine
 62
7
  6
CONTINUOUS
 10
77.6434187692
 20
129.7521218127
 11
76.5827541815
 21
130.3644829445
  0
LINE
  5
2EF
100
AcDbEntity
  8
0
100
AcDbLine
 62
7
  6
CONTINUOUS
 10
69.8652117926
 20
134.2427701125
 11
68.8045472049
 21
134.8551312442
  0
LINE
  5
2F0
100
AcDbEntity
  8
0
100
AcDbLine
 62
7
  6
CONTINUOUS
 10
62.087004816
 20
138.7334184122
 11
61.0263402283
 21
139.345779544
  0
LINE
  5
2F1
100
AcDbEntity
  8
0
100
AcDbLine
 62
7
  6
CONTINUOUS
 10
54.3087978394
 20
143.2240667119
 11
53.2481332517
 21
143.8364278437
  0
LINE
  5
2F2
100
AcDbEntity
  8
0
100
AcDbLine
 62
7
  6
CONTINUOUS
 10
49.9423873841
 20
145.7449579335
 11
49.5358071946
 21
145.9796918049
  0
LINE
  5
2F3
100
AcDbEntity
  8
0
100
AcDbLine
 62
7
  6
CONTINUOUS
 10
47.7680328818
 20
147.0002936912
 11
46.8841457253
 21
147.5105946344
  0
LINE
  5
2F4
100
AcDbEntity
  8
0
100
AcDbLine
 62
7
  6
CONTINUOUS
 10
33.6258427948
 20
155.3692475175
 11
35.2522051721
 21
154.4302880032
  0
LINE
  5
2F5
100
AcDbEntity
  8
0
100
AcDbLine
 62
7
  6
CONTINUOUS
 10
36.3481981297
 20
153.797530489
 11
37.1613914205
 21
153.3280437449
  0
LINE
  5
2F6
100
AcDbEntity
  8
0
100
AcDbLine
 62
7
  6
CONTINUOUS
 10
44.1264051063
 20
149.3068821893
 11
44.9395983971
 21
148.8373954451
  0
LINE
  5
2F7
100
AcDbEntity
  8
0
100
AcDbLine
 62
7
  6
CONTINUOUS
 10
51.9046120829
 20
144.8162338896
 11
52.7178053738
 21
144.3467471454
  0
LINE
  5
2F8
100
AcDbEntity
  8
0
100
AcDbLine
 62
7
  6
CONTINUOUS
 10
59.6828190595
 20
140.3255855899
 11
60.4960123504
 21
139.8560988457
  0
LINE
  5
2F9
100
AcDbEntity
  8
0
100
AcDbLine
 62
7
  6
CONTINUOUS
 10
67.4610260361
 20
135.8349372901
 11
68.274219327
 21
135.365450546
  0
LINE
  5
2FA
100
AcDbEntity
  8
0
100
AcDbLine
 62
7
  6
CONTINUOUS
 10
75.2392330128
 20
131.3442889904
 11
76.0524263036
 21
130.8748022462
  0
LINE
  5
2FB
100
AcDbEntity
  8
0
100
AcDbLine
 62
7
  6
CONTINUOUS
 10
83.0174399894
 20
126.8536406907
 11
83.8306332802
 21
126.3841539465
  0
LINE
  5
2FC
100
AcDbEntity
  8
0
100
AcDbLine
 62
7
  6
CONTINUOUS
 10
90.1946208066
 20
122.7099871558
 11
95.4979437451
 21
119.6481814969
  0
LINE
  5
2FD
100
AcDbEntity
  8
0
100
AcDbLine
 62
7
  6
CONTINUOUS
 10
49.5358071946
 20
147.0002936913
 11
48.6519126783
 21
147.5105988836
  0
LINE
  5
2FE
100
AcDbEntity
  8
0
100
AcDbLine
 62
7
  6
CONTINUOUS
 10
39.2827088201
 20
152.9197888809
 11
42.1465249923
 21
151.2664012476
  0
LINE
  5
2FF
100
AcDbEntity
  8
0
100
AcDbLine
 62
7
  6
CONTINUOUS
 10
54.1320130482
 20
144.346733036
 11
57.7029389455
 21
142.2851046482
  0
LINE
  5
300
100
AcDbEntity
  8
0
100
AcDbLine
 62
7
  6
CONTINUOUS
 10
61.9102200248
 20
139.8560847363
 11
65.4811459221
 21
137.7944563485
  0
LINE
  5
301
100
AcDbEntity
  8
0
100
AcDbLine
 62
7
  6
CONTINUOUS
 10
69.6884270014
 20
135.3654364366
 11
73.2593528988
 21
133.3038080488
  0
LINE
  5
302
100
AcDbEntity
  8
0
100
AcDbLine
 62
7
  6
CONTINUOUS
 10
77.466633978
 20
130.8747881369
 11
81.0375598754
 21
128.813159749
  0
LINE
  5
303
100
AcDbEntity
  8
0
100
AcDbLine
 62
7
  6
CONTINUOUS
 10
85.2448409547
 20
126.3841398371
 11
88.815766852
 21
124.3225114493
  0
LINE
  5
304
100
AcDbEntity
  8
0
100
AcDbLine
 62
7
  6
CONTINUOUS
 10
90.6188455396
 20
123.2815270339
 11
90.9017065366
 21
123.1182208556
  0
LINE
  5
305
100
AcDbEntity
  8
0
100
AcDbLine
 62
7
  6
CONTINUOUS
 10
49.9247319689
 20
147.1023957309
 11
45.6467081223
 21
149.5722580746
  0
LINE
  5
306
100
AcDbEntity
  8
0
100
AcDbLine
 62
7
  6
CONTINUOUS
 10
33.9793976574
 20
156.3082305242
 11
35.2522051721
 21
155.5733913872
  0
LINE
  5
307
100
AcDbEntity
  8
0
100
AcDbLine
 62
7
  6
CONTINUOUS
 10
38.045278577
 20
153.9608461857
 11
42.1465249923
 21
151.5930440306
  0
LINE
  5
308
100
AcDbEntity
  8
0
100
AcDbLine
 62
7
  6
CONTINUOUS
 10
53.6016925302
 20
144.9795495862
 11
57.7029389455
 21
142.6117474312
  0
LINE
  5
309
100
AcDbEntity
  8
0
100
AcDbLine
 62
7
  6
CONTINUOUS
 10
61.3798995068
 20
140.4889012865
 11
65.4811459221
 21
138.1210991315
  0
LINE
  5
30A
100
AcDbEntity
  8
0
100
AcDbLine
 62
7
  6
CONTINUOUS
 10
90.9017305317
 20
123.4448497853
 11
95.1443888826
 21
120.9954052582
  0
LINE
  5
30B
100
AcDbEntity
  8
0
100
AcDbLine
 62
7
  6
CONTINUOUS
 10
85.2448409547
 20
127.2006422543
 11
84.4316476638
 21
127.6701289984
  0
LINE
  5
30C
100
AcDbEntity
  8
0
100
AcDbLine
 62
7
  6
CONTINUOUS
 10
77.466633978
 20
131.691290554
 11
76.6534406872
 21
132.1607772981
  0
LINE
  5
30D
100
AcDbEntity
  8
0
100
AcDbLine
 62
7
  6
CONTINUOUS
 10
69.6884270014
 20
136.1819388537
 11
68.8752337106
 21
136.6514255979
  0
LINE
  5
30E
100
AcDbEntity
  8
0
100
AcDbLine
 62
7
  6
CONTINUOUS
 10
61.3798995068
 20
140.9787609207
 11
61.0970267339
 21
141.1420738976
  0
LINE
  5
30F
100
AcDbEntity
  8
0
100
AcDbLine
 62
7
  6
CONTINUOUS
 10
53.6016925302
 20
145.4694092204
 11
53.3188197573
 21
145.6327221973
  0
LINE
  5
310
100
AcDbEntity
  8
0
100
AcDbLine
 62
7
  6
CONTINUOUS
 10
45.6467081223
 20
150.0621177088
 11
45.5406127807
 21
150.123370497
  0
LINE
  5
311
100
AcDbEntity
  8
0
100
AcDbLine
 62
7
  6
CONTINUOUS
 10
38.045278577
 20
154.4507058198
 11
37.7624058041
 21
154.6140187968
  0
LINE
  5
312
100
AcDbEntity
  8
0
100
AcDbLine
 62
7
  6
CONTINUOUS
 10
61.3798995068
 20
141.3054037036
 11
60.6727897817
 21
141.7136444582
  0
LINE
  5
313
100
AcDbEntity
  8
0
100
AcDbLine
 62
7
  6
CONTINUOUS
 10
53.6016925302
 20
145.7960520034
 11
52.894582805
 21
146.2042927579
  0
LINE
  5
314
100
AcDbEntity
  8
0
100
AcDbLine
 62
7
  6
CONTINUOUS
 10
38.045278577
 20
154.7773486028
 11
37.3381688518
 21
155.1855893573
  0
LINE
  5
315
100
AcDbEntity
  8
0
100
AcDbLine
 62
7
  6
CONTINUOUS
 10
37.3381688518
 20
156.410342983
 11
38.045278577
 21
156.0021022285
  0
LINE
  5
316
100
AcDbEntity
  8
0
100
AcDbLine
 62
7
  6
CONTINUOUS
 10
52.894582805
 20
147.4290463836
 11
53.6016925302
 21
147.0208056291
  0
LINE
  5
317
100
AcDbEntity
  8
0
100
AcDbLine
 62
7
  6
CONTINUOUS
 10
60.6727897817
 20
142.9383980839
 11
61.3798995068
 21
142.5301573293
  0
LINE
  5
318
100
AcDbEntity
  8
0
100
AcDbLine
 62
7
  6
CONTINUOUS
 10
86.6944376766
 20
130.2013748503
 11
84.9266633637
 21
131.2219767366
  0
LINE
  5
319
100
AcDbEntity
  8
0
100
AcDbLine
 62
7
  6
CONTINUOUS
 10
78.9162306999
 20
134.6920231501
 11
77.1484563871
 21
135.7126250364
  0
LINE
  5
31A
100
AcDbEntity
  8
0
100
AcDbLine
 62
7
  6
CONTINUOUS
 10
71.1380237233
 20
139.1826714498
 11
69.3702494105
 21
140.2032733361
  0
LINE
  5
31B
100
AcDbEntity
  8
0
100
AcDbLine
 62
7
  6
CONTINUOUS
 10
63.3598167467
 20
143.6733197495
 11
61.5920424338
 21
144.6939216358
  0
LINE
  5
31C
100
AcDbEntity
  8
0
100
AcDbLine
 62
7
  6
CONTINUOUS
 10
55.5816097701
 20
148.1639680492
 11
53.8138354572
 21
149.1845699355
  0
LINE
  5
31D
100
AcDbEntity
  8
0
100
AcDbLine
 62
7
  6
CONTINUOUS
 10
47.8034027935
 20
152.6546163489
 11
46.0356284806
 21
153.6752182352
  0
LINE
  5
31E
100
AcDbEntity
  8
0
100
AcDbLine
 62
7
  6
CONTINUOUS
 10
40.0251958169
 20
157.1452646487
 11
38.257421504
 21
158.165866535
  0
LINE
  5
31F
100
AcDbEntity
  8
0
100
AcDbLine
 62
7
  6
CONTINUOUS
 10
35.2522051721
 20
160.9215177631
 11
89.6996540084
 21
129.486979665
  0
LINE
  5
320
100
AcDbEntity
  8
0
100
AcDbLine
 62
7
  6
CONTINUOUS
 10
79.791058486
 20
189.1344853403
 11
79.7911398123
 21
188.7285457019
  0
LINE
  5
321
100
AcDbEntity
  8
0
100
AcDbLine
 62
7
  6
CONTINUOUS
 10
78.5273103416
 20
155.0024852616
 11
78.5273103416
 21
149.2869683417
  0
LINE
  5
322
100
AcDbEntity
  8
0
100
AcDbLine
 62
7
  6
CONTINUOUS
 10
78.770009908
 20
116.3821062168
 11
78.770009908
 21
112.7078453397
  0
LINE
  5
323
100
AcDbEntity
  8
0
100
AcDbLine
 62
7
  6
CONTINUOUS
 10
79.4463598601
 20
190.3973043478
 11
79.4463598601
 21
189.3334926826
  0
LINE
  5
324
100
AcDbEntity
  8
0
100
AcDbLine
 62
7
  6
CONTINUOUS
 10
79.976692154
 20
193.6837344173
 11
79.976692154
 21
192.3773305499
  0
LINE
  5
325
100
AcDbEntity
  8
0
100
AcDbLine
 62
7
  6
CONTINUOUS
 10
80.4999520552
 20
194.0351797419
 11
80.4999520552
 21
193.5612629388
  0
LINE
  5
326
100
AcDbEntity
  8
0
100
AcDbLine
 62
7
  6
CONTINUOUS
 10
80.6486012455
 20
132.592308397
 11
80.6486012455
 21
129.0376259522
  0
LINE
  5
327
100
AcDbEntity
  8
0
100
AcDbLine
 62
7
  6
CONTINUOUS
 10
81.0375598754
 20
127.7517839666
 11
81.0375598754
 21
131.0177936351
  0
LINE
  5
328
100
AcDbEntity
  8
0
100
AcDbLine
 62
7
  6
CONTINUOUS
 10
81.3557492422
 20
126.9964941702
 11
81.3557492422
 21
125.5267898194
  0
LINE
  5
329
100
AcDbEntity
  8
0
100
AcDbLine
 62
7
  6
CONTINUOUS
 10
81.3557492422
 20
149.2870101578
 11
81.3557492422
 21
151.7365174092
  0
LINE
  5
32A
100
AcDbEntity
  8
0
100
AcDbLine
 62
7
  6
CONTINUOUS
 10
81.8860771201
 20
127.2619033895
 11
81.8860771201
 21
126.4861748685
  0
LINE
  5
32B
100
AcDbEntity
  8
0
100
AcDbLine
 62
7
  6
CONTINUOUS
 10
82.4164138299
 20
126.9557202741
 11
82.4164138299
 21
124.9144286876
  0
LINE
  5
32C
100
AcDbEntity
  8
0
100
AcDbLine
 62
7
  6
CONTINUOUS
 10
82.5931883173
 20
140.0809549449
 11
82.5931883173
 21
142.1222214418
  0
LINE
  5
32D
100
AcDbEntity
  8
0
100
AcDbLine
 62
7
  6
CONTINUOUS
 10
82.8053341882
 20
129.9971917488
 11
82.8053341882
 21
126.7311820803
  0
LINE
  5
32E
100
AcDbEntity
  8
0
100
AcDbLine
 62
7
  6
CONTINUOUS
 10
83.8306332802
 20
124.0979471786
 11
83.8306332802
 21
126.3841539465
  0
LINE
  5
32F
100
AcDbEntity
  8
0
100
AcDbLine
 62
7
  6
CONTINUOUS
 10
84.3609611581
 20
125.0573322277
 11
84.3609611581
 21
125.8738346448
  0
LINE
  5
330
100
AcDbEntity
  8
0
100
AcDbLine
 62
7
  6
CONTINUOUS
 10
84.3609626301
 20
141.1016195555
 11
84.3609626301
 21
139.0603530586
  0
LINE
  5
331
100
AcDbEntity
  8
0
100
AcDbLine
 62
7
  6
CONTINUOUS
 10
84.8912978679
 20
124.9552903976
 11
84.8912978679
 21
123.4855860468
  0
LINE
  5
332
100
AcDbEntity
  8
0
100
AcDbLine
 62
7
  6
CONTINUOUS
 10
85.2448409547
 20
126.3841398371
 11
85.2448409547
 21
127.2006422543
  0
LINE
  5
333
100
AcDbEntity
  8
0
100
AcDbLine
 62
7
  6
CONTINUOUS
 10
85.4216183859
 20
128.2416854496
 11
85.4216183859
 21
130.936220786
  0
LINE
  5
334
100
AcDbEntity
  8
0
100
AcDbLine
 62
7
  6
CONTINUOUS
 10
85.5983928733
 20
130.834162297
 11
85.5983928733
 21
126.1800211595
  0
LINE
  5
335
100
AcDbEntity
  8
0
100
AcDbLine
 62
7
  6
CONTINUOUS
 10
86.3055938614
 20
105.7677321167
 11
86.3055938614
 21
98.4192103626
  0
LINE
  5
336
100
AcDbEntity
  8
0
100
AcDbLine
 62
7
  6
CONTINUOUS
 10
86.770009908
 20
116.3821062168
 11
86.770009908
 21
112.7078453397
  0
LINE
  5
337
100
AcDbEntity
  8
0
100
AcDbLine
 62
7
  6
CONTINUOUS
 10
65.592212479
 20
134.0503192639
 11
65.799335289
 21
134.5080864188
  0
LINE
  5
338
100
AcDbEntity
  8
0
100
AcDbLine
 62
7
  6
CONTINUOUS
 10
75.3452871388
 20
157.2477323218
 11
76.2292242739
 21
158.7787648494
  0
LINE
  5
339
100
AcDbEntity
  8
0
100
AcDbLine
 62
7
  6
CONTINUOUS
 10
58.7282203737
 20
163.1671641934
 11
56.6069088621
 21
161.9424317318
  0
LINE
  5
33A
100
AcDbEntity
  8
0
100
AcDbLine
 62
7
  6
CONTINUOUS
 10
59.0817752363
 20
162.9630438162
 11
58.0211194805
 21
162.3506775853
  0
LINE
  5
33B
100
AcDbEntity
  8
0
100
AcDbLine
 62
7
  6
CONTINUOUS
 10
142.838477641
 20
211.1161902382
 11
130.8177124084
 21
204.1760396224
  0
LINE
  5
33C
100
AcDbEntity
  8
0
100
AcDbLine
 62
7
  6
CONTINUOUS
 10
143.1213206479
 20
211.0753666727
 11
130.8884242641
 21
204.0127428107
  0
LINE
  5
33D
100
AcDbEntity
  8
0
100
AcDbLine
 62
7
  6
CONTINUOUS
 10
43.9142993052
 20
152.4504332474
 11
45.9022736719
 21
153.5981839321
  0
LINE
  5
33E
100
AcDbEntity
  8
0
100
AcDbLine
 62
7
  6
CONTINUOUS
 10
62.9708963884
 20
163.1671595143
 11
59.7889243414
 21
161.3300580625
  0
LINE
  5
33F
100
AcDbEntity
  8
0
100
AcDbLine
 62
7
  6
CONTINUOUS
 10
91.8632914199
 20
179.7423835031
 11
91.2268979664
 21
179.3749637646
  0
LINE
  5
340
100
AcDbEntity
  8
0
100
AcDbLine
 62
7
  6
CONTINUOUS
 10
25.4941574987
 20
140.8764370055
 11
34.6865073825
 21
146.1836110058
  0
LINE
  5
341
100
AcDbEntity
  8
0
100
AcDbLine
 62
7
  6
CONTINUOUS
 10
64.3851158387
 20
163.167300352
 11
66.5064273503
 21
164.3920328136
  0
LINE
  5
342
100
AcDbEntity
  8
0
100
AcDbLine
 62
7
  6
CONTINUOUS
 10
43.313285365
 20
149.5314112892
 11
42.8182692217
 21
149.2456152916
  0
LINE
  5
343
100
AcDbEntity
  8
0
100
AcDbLine
 62
7
  6
CONTINUOUS
 10
43.9142993052
 20
149.1844235789
 11
45.6467081223
 21
150.1846243054
  0
LINE
  5
344
100
AcDbEntity
  8
0
100
AcDbLine
 62
7
  6
CONTINUOUS
 10
45.9295691193
 20
149.4089518963
 11
44.9395983971
 21
148.8373954451
  0
LINE
  5
345
100
AcDbEntity
  8
0
100
AcDbLine
 62
7
  6
CONTINUOUS
 10
67.5670801622
 20
161.7383806215
 11
66.5064273503
 21
161.1260160904
  0
LINE
  5
346
100
AcDbEntity
  8
0
100
AcDbLine
 62
7
  6
CONTINUOUS
 10
93.2598283579
 20
176.3641112169
 11
92.0506807962
 21
175.6660137138
  0
LINE
  5
347
100
AcDbEntity
  8
0
100
AcDbLine
 62
7
  6
CONTINUOUS
 10
170.3095306091
 20
220.8120004485
 11
176.6380737378
 21
224.4657647175
  0
LINE
  5
348
100
AcDbEntity
  8
0
100
AcDbLine
 62
7
  6
CONTINUOUS
 10
91.2268979664
 20
174.8678674591
 11
90.9369841567
 21
174.7004866421
  0
LINE
  5
349
100
AcDbEntity
  8
0
100
AcDbLine
 62
7
  6
CONTINUOUS
 10
45.6467081223
 20
147.6126522735
 11
46.8841457253
 21
148.3270829421
  0
LINE
  5
34A
100
AcDbEntity
  8
0
100
AcDbLine
 62
7
  6
CONTINUOUS
 10
66.5064273503
 20
158.6765158937
 11
64.3851158387
 21
157.4517834321
  0
LINE
  5
34B
100
AcDbEntity
  8
0
100
AcDbLine
 62
7
  6
CONTINUOUS
 10
58.7282350935
 20
153.85908041
 11
60.4959946866
 21
154.8796907947
  0
LINE
  5
34C
100
AcDbEntity
  8
0
100
AcDbLine
 62
7
  6
CONTINUOUS
 10
72.8704325405
 20
129.6091764565
 11
73.3704194556
 21
129.5596709641
  0
LINE
  5
34D
100
AcDbEntity
  8
0
100
AcDbLine
 62
7
  6
CONTINUOUS
 10
65.0922255638
 20
134.0998247562
 11
65.592212479
 21
134.0503192639
  0
LINE
  5
34E
100
AcDbEntity
  8
0
100
AcDbLine
 62
7
  6
CONTINUOUS
 10
36.4542816954
 20
161.6155328247
 11
90.9017305317
 21
130.1809947266
  0
LINE
  5
34F
100
AcDbEntity
  8
0
100
AcDbLine
 62
7
  6
CONTINUOUS
 10
91.9623951194
 20
134.2635224933
 11
37.1613914205
 21
165.9021809687
  0
LINE
  5
350
100
AcDbEntity
  8
0
100
AcDbLine
 62
7
  6
CONTINUOUS
 10
84.3609626301
 20
139.0603530586
 11
82.5931883173
 21
140.0809549449
  0
LINE
  5
351
100
AcDbEntity
  8
0
100
AcDbLine
 62
7
  6
CONTINUOUS
 10
76.5827556535
 20
143.5510013583
 11
74.8149813406
 21
144.5716032446
  0
LINE
  5
352
100
AcDbEntity
  8
0
100
AcDbLine
 62
7
  6
CONTINUOUS
 10
68.8045486769
 20
148.0416496581
 11
67.036774364
 21
149.0622515444
  0
LINE
  5
353
100
AcDbEntity
  8
0
100
AcDbLine
 62
7
  6
CONTINUOUS
 10
58.7282350935
 20
153.85908041
 11
56.9604607807
 21
154.8796822963
  0
LINE
  5
354
100
AcDbEntity
  8
0
100
AcDbLine
 62
7
  6
CONTINUOUS
 10
47.7680343538
 20
160.186812105
 11
46.0002600409
 21
161.2074139913
  0
LINE
  5
355
100
AcDbEntity
  8
0
100
AcDbLine
 62
7
  6
CONTINUOUS
 10
37.1613914205
 20
168.35168822
 11
91.9623951194
 21
136.7130297447
  0
LINE
  5
356
100
AcDbEntity
  8
0
100
AcDbLine
 62
7
  6
CONTINUOUS
 10
88.4268082221
 20
128.1016600973
 11
88.4268082221
 21
124.5469776525
  0
LINE
  5
357
100
AcDbEntity
  8
0
100
AcDbLine
 62
7
  6
CONTINUOUS
 10
88.815766852
 20
123.2611356669
 11
88.815766852
 21
126.5271453354
  0
LINE
  5
358
100
AcDbEntity
  8
0
100
AcDbLine
 62
7
  6
CONTINUOUS
 10
89.1339562188
 20
122.5058458705
 11
89.1339562188
 21
121.0361415197
  0
LINE
  5
359
100
AcDbEntity
  8
0
100
AcDbLine
 62
7
  6
CONTINUOUS
 10
89.6642840967
 20
122.7508347237
 11
89.6642840967
 21
121.9955265688
  0
LINE
  5
35A
100
AcDbEntity
  8
0
100
AcDbLine
 62
7
  6
CONTINUOUS
 10
89.6996540084
 20
129.486979665
 11
89.6996540084
 21
122.7508347237
  0
LINE
  5
35B
100
AcDbEntity
  8
0
100
AcDbLine
 62
7
  6
CONTINUOUS
 10
90.1946208065
 20
122.7099871558
 11
90.1946208065
 21
120.4237803879
  0
LINE
  5
35C
100
AcDbEntity
  8
0
100
AcDbLine
 62
7
  6
CONTINUOUS
 10
90.3713010869
 20
168.9880483784
 11
90.3713010869
 21
170.7812806837
  0
LINE
  5
35D
100
AcDbEntity
  8
0
100
AcDbLine
 62
7
  6
CONTINUOUS
 10
90.9017305317
 20
130.1809947266
 11
90.9017305317
 21
123.4448497853
  0
LINE
  5
35E
100
AcDbEntity
  8
0
100
AcDbLine
 62
7
  6
CONTINUOUS
 10
90.9369841567
 20
174.7004866421
 11
90.9369841567
 21
173.3940827747
  0
LINE
  5
35F
100
AcDbEntity
  8
0
100
AcDbLine
 62
7
  6
CONTINUOUS
 10
91.2268979664
 20
179.3749637646
 11
91.2268979664
 21
174.6964049145
  0
LINE
  5
360
100
AcDbEntity
  8
0
100
AcDbLine
 62
7
  6
CONTINUOUS
 10
91.3259963668
 20
95.5204733919
 11
91.3259963668
 21
79.1904250493
  0
LINE
  5
361
100
AcDbEntity
  8
0
100
AcDbLine
 62
7
  6
CONTINUOUS
 10
91.9623951194
 20
145.6129060914
 11
91.9623951194
 21
143.16339884
  0
LINE
  5
362
100
AcDbEntity
  8
0
100
AcDbLine
 62
7
  6
CONTINUOUS
 10
91.9623951194
 20
136.7130297447
 11
91.9623951194
 21
134.2635224933
  0
LINE
  5
363
100
AcDbEntity
  8
0
100
AcDbLine
 62
7
  6
CONTINUOUS
 10
92.0506807962
 20
175.6660137138
 11
92.0506807962
 21
177.2581934272
  0
LINE
  5
364
100
AcDbEntity
  8
0
100
AcDbLine
 62
7
  6
CONTINUOUS
 10
93.2598283579
 20
176.3641112169
 11
93.2598283579
 21
176.5601075498
  0
LINE
  5
365
100
AcDbEntity
  8
0
100
AcDbLine
 62
7
  6
CONTINUOUS
 10
93.7300929319
 20
161.4470267081
 11
93.7300928892
 21
163.9105470719
  0
LINE
  5
366
100
AcDbEntity
  8
0
100
AcDbLine
 62
7
  6
CONTINUOUS
 10
93.9952325404
 20
176.1355313522
 11
93.9952325404
 21
174.5433516388
  0
LINE
  5
367
100
AcDbEntity
  8
0
100
AcDbLine
 62
7
  6
CONTINUOUS
 10
95.1443888826
 20
120.9954052582
 11
95.1443888826
 21
151.2804351949
  0
LINE
  5
368
100
AcDbEntity
  8
0
100
AcDbLine
 62
7
  6
CONTINUOUS
 10
95.4979437451
 20
103.7263843629
 11
95.4979437451
 21
111.0749061171
  0
LINE
  5
369
100
AcDbEntity
  8
0
100
AcDbLine
 62
7
  6
CONTINUOUS
 10
95.4979437451
 20
119.6481814969
 11
95.4979437451
 21
151.0803459434
  0
LINE
  5
36A
100
AcDbEntity
  8
0
100
AcDbLine
 62
7
  6
CONTINUOUS
 10
91.8632914199
 20
179.7423835031
 11
92.3956813594
 21
183.5362224644
  0
LINE
  5
36B
100
AcDbEntity
  8
0
100
AcDbLine
 62
7
  6
CONTINUOUS
 10
73.3704194556
 20
129.5596709641
 11
73.5775422656
 21
130.0174381191
  0
LINE
  5
36C
100
AcDbEntity
  8
0
100
AcDbLine
 62
7
  6
CONTINUOUS
 10
48.6519126783
 20
147.5105988836
 11
47.7680328818
 21
147.0002936912
  0
LINE
  5
36D
100
AcDbEntity
  8
0
100
AcDbLine
 62
7
  6
CONTINUOUS
 10
103.0815936861
 20
178.7933845562
 11
104.9908374217
 21
179.8956803611
  0
LINE
  5
36E
100
AcDbEntity
  8
0
100
AcDbLine
 62
7
  6
CONTINUOUS
 10
90.3713010869
 20
170.7812806837
 11
92.916925601
 21
172.2509889091
  0
LINE
  5
36F
100
AcDbEntity
  8
0
100
AcDbLine
 62
7
  6
CONTINUOUS
 10
96.8519457616
 20
174.2902481839
 11
95.6427982
 21
173.5921506808
  0
LINE
  5
370
100
AcDbEntity
  8
0
100
AcDbLine
 62
7
  6
CONTINUOUS
 10
51.6925062818
 20
147.9597849477
 11
53.8138537858
 21
149.1845381894
  0
LINE
  5
371
100
AcDbEntity
  8
0
100
AcDbLine
 62
7
  6
CONTINUOUS
 10
72.1633228153
 20
158.6766520523
 11
74.2846343269
 21
159.9013845139
  0
LINE
  5
372
100
AcDbEntity
  8
0
100
AcDbLine
 62
7
  6
CONTINUOUS
 10
52.894582805
 20
147.4290463836
 11
53.6016925302
 21
147.8372939368
  0
LINE
  5
373
100
AcDbEntity
  8
0
100
AcDbLine
 62
7
  6
CONTINUOUS
 10
187.2446842874
 20
224.8740676843
 11
175.2592742467
 21
217.9543292761
  0
LINE
  5
374
100
AcDbEntity
  8
0
100
AcDbLine
 62
7
  6
CONTINUOUS
 10
51.0914923416
 20
145.0407629894
 11
50.5964761983
 21
144.7549669918
  0
LINE
  5
375
100
AcDbEntity
  8
0
100
AcDbLine
 62
7
  6
CONTINUOUS
 10
51.6925062818
 20
144.6937752792
 11
53.6016986397
 21
145.7960414213
  0
LINE
  5
376
100
AcDbEntity
  8
0
100
AcDbLine
 62
7
  6
CONTINUOUS
 10
102.6113592422
 20
173.5371240344
 11
101.9749657887
 21
173.1697042959
  0
LINE
  5
377
100
AcDbEntity
  8
0
100
AcDbLine
 62
7
  6
CONTINUOUS
 10
100.4440631654
 20
172.216385151
 11
99.2349156037
 21
171.5182876478
  0
LINE
  5
378
100
AcDbEntity
  8
0
100
AcDbLine
 62
7
  6
CONTINUOUS
 10
53.7077760959
 20
144.9183035966
 11
52.7178053738
 21
144.3467471454
  0
LINE
  5
379
100
AcDbEntity
  8
0
100
AcDbLine
 62
7
  6
CONTINUOUS
 10
75.3452871388
 20
157.2477323218
 11
74.2846343269
 21
156.6353677907
  0
LINE
  5
37A
100
AcDbEntity
  8
0
100
AcDbLine
 62
7
  6
CONTINUOUS
 10
53.2481332517
 20
143.8364278437
 11
54.1320130482
 21
144.346733036
  0
LINE
  5
37B
100
AcDbEntity
  8
0
100
AcDbLine
 62
7
  6
CONTINUOUS
 10
54.3087978394
 20
143.2240667119
 11
53.7784699615
 21
142.9178835965
  0
LINE
  5
37C
100
AcDbEntity
  8
0
100
AcDbLine
 62
7
  6
CONTINUOUS
 10
53.7784699615
 20
142.6729117073
 11
52.7178053738
 21
142.0605403774
  0
LINE
  5
37D
100
AcDbEntity
  8
0
100
AcDbLine
 62
7
  6
CONTINUOUS
 10
125.5499118789
 20
184.0700860907
 11
141.6011689837
 21
193.3372283836
  0
LINE
  5
37E
100
AcDbEntity
  8
0
100
AcDbLine
 62
7
  6
CONTINUOUS
 10
74.2846343269
 20
154.185867594
 11
72.1633228153
 21
152.9611351323
  0
LINE
  5
37F
100
AcDbEntity
  8
0
100
AcDbLine
 62
7
  6
CONTINUOUS
 10
125.6206228514
 20
183.6210108067
 11
138.3484919213
 21
190.9694055764
  0
LINE
  5
380
100
AcDbEntity
  8
0
100
AcDbLine
 62
7
  6
CONTINUOUS
 10
131.0299739772
 20
185.8051209391
 11
134.5654931633
 21
187.8463417085
  0
LINE
  5
381
100
AcDbEntity
  8
0
100
AcDbLine
 62
7
  6
CONTINUOUS
 10
140.5165806782
 20
191.078039937
 11
141.6011689837
 21
191.7042235493
  0
LINE
  5
382
100
AcDbEntity
  8
0
100
AcDbLine
 62
7
  6
CONTINUOUS
 10
57.3140185872
 20
138.5904730559
 11
57.8140055024
 21
138.5409675636
  0
LINE
  5
383
100
AcDbEntity
  8
0
100
AcDbLine
 62
7
  6
CONTINUOUS
 10
51.0964631135
 20
144.7054614995
 11
50.5964761983
 21
144.7549669918
  0
LINE
  5
384
100
AcDbEntity
  8
0
100
AcDbLine
 62
7
  6
CONTINUOUS
 10
95.1443888826
 20
139.6933106104
 11
33.9793976574
 21
175.0061358764
  0
LINE
  5
385
100
AcDbEntity
  8
0
100
AcDbLine
 62
7
  6
CONTINUOUS
 10
78.5273103416
 20
150.5116906053
 11
73.2239785711
 21
153.5735013632
  0
LINE
  5
386
100
AcDbEntity
  8
0
100
AcDbLine
 62
7
  6
CONTINUOUS
 10
70.749103365
 20
155.002338905
 11
65.4457715945
 21
158.0641496629
  0
LINE
  5
387
100
AcDbEntity
  8
0
100
AcDbLine
 62
7
  6
CONTINUOUS
 10
62.9708963884
 20
159.4929872047
 11
58.0211194805
 21
162.3506775853
  0
LINE
  5
388
100
AcDbEntity
  8
0
100
AcDbLine
 62
7
  6
CONTINUOUS
 10
91.9623951194
 20
143.16339884
 11
81.3557492422
 21
149.2870101578
  0
LINE
  5
389
100
AcDbEntity
  8
0
100
AcDbLine
 62
7
  6
CONTINUOUS
 10
51.3035859235
 20
166.637242225
 11
37.1613914205
 21
174.8020573154
  0
LINE
  5
38A
100
AcDbEntity
  8
0
100
AcDbLine
 62
7
  6
CONTINUOUS
 10
59.0817752363
 20
162.9630438162
 11
58.7282203737
 21
163.1671641934
  0
LINE
  5
38B
100
AcDbEntity
  8
0
100
AcDbLine
 62
7
  6
CONTINUOUS
 10
37.1613914205
 20
177.2515645668
 11
51.3035859235
 21
169.0867494763
  0
LINE
  5
38C
100
AcDbEntity
  8
0
100
AcDbLine
 62
7
  6
CONTINUOUS
 10
81.3557492422
 20
151.7365174092
 11
91.9623951194
 21
145.6129060914
  0
LINE
  5
38D
100
AcDbEntity
  8
0
100
AcDbLine
 62
7
  6
CONTINUOUS
 10
51.3035859235
 20
171.1280055192
 11
37.1613914205
 21
179.2928206096
  0
LINE
  5
38E
100
AcDbEntity
  8
0
100
AcDbLine
 62
7
  6
CONTINUOUS
 10
95.6427982
 20
173.5921506808
 11
95.6427982
 21
175.1843303942
  0
LINE
  5
38F
100
AcDbEntity
  8
0
100
AcDbLine
 62
7
  6
CONTINUOUS
 10
96.2049563194
 20
165.6404741913
 11
96.2049563194
 21
163.1777863287
  0
LINE
  5
390
100
AcDbEntity
  8
0
100
AcDbLine
 62
7
  6
CONTINUOUS
 10
96.8519457616
 20
174.2902481839
 11
96.8519457616
 21
174.4862445168
  0
LINE
  5
391
100
AcDbEntity
  8
0
100
AcDbLine
 62
7
  6
CONTINUOUS
 10
97.3363789831
 20
92.0504558727
 11
97.3363789831
 21
82.6605003572
  0
LINE
  5
392
100
AcDbEntity
  8
0
100
AcDbLine
 62
7
  6
CONTINUOUS
 10
97.5873499441
 20
174.0616683193
 11
97.5873499441
 21
172.4694886059
  0
LINE
  5
393
100
AcDbEntity
  8
0
100
AcDbLine
 62
7
  6
CONTINUOUS
 10
97.6192729206
 20
75.5570823341
 11
97.6192729206
 21
71.882821457
  0
LINE
  5
394
100
AcDbEntity
  8
0
100
AcDbLine
 62
7
  6
CONTINUOUS
 10
97.6192729206
 20
91.8871306767
 11
97.6192729206
 21
149.8556236799
  0
LINE
  5
395
100
AcDbEntity
  8
0
100
AcDbLine
 62
7
  6
CONTINUOUS
 10
99.2349156037
 20
171.5182876478
 11
99.2349156037
 21
173.1104673612
  0
LINE
  5
396
100
AcDbEntity
  8
0
100
AcDbLine
 62
7
  6
CONTINUOUS
 10
99.740602096
 20
64.1260798564
 11
99.740602096
 21
70.6580991934
  0
LINE
  5
397
100
AcDbEntity
  8
0
100
AcDbLine
 62
7
  6
CONTINUOUS
 10
100.411994227
 20
221.6079198404
 11
100.411994227
 21
221.7303920668
  0
LINE
  5
398
100
AcDbEntity
  8
0
100
AcDbLine
 62
7
  6
CONTINUOUS
 10
100.4440631654
 20
172.216385151
 11
100.4440631654
 21
172.4123814839
  0
LINE
  5
399
100
AcDbEntity
  8
0
100
AcDbLine
 62
7
  6
CONTINUOUS
 10
101.1794673479
 20
171.9878052863
 11
101.1794673479
 21
170.3956255729
  0
LINE
  5
39A
100
AcDbEntity
  8
0
100
AcDbLine
 62
7
  6
CONTINUOUS
 10
101.9749657887
 20
173.1697042959
 11
101.9749657887
 21
168.4911454458
  0
LINE
  5
39B
100
AcDbEntity
  8
0
100
AcDbLine
 62
7
  6
CONTINUOUS
 10
102.9225516997
 20
153.6245200953
 11
102.9225516997
 21
94.9489618307
  0
LINE
  5
39C
100
AcDbEntity
  8
0
100
AcDbLine
 62
7
  6
CONTINUOUS
 10
102.9225516997
 20
78.6189134881
 11
102.9225516997
 21
74.944652611
  0
LINE
  5
39D
100
AcDbEntity
  8
0
100
AcDbLine
 62
7
  6
CONTINUOUS
 10
103.0815936861
 20
178.7933845562
 11
103.0815936861
 21
167.6889516833
  0
LINE
  5
39E
100
AcDbEntity
  8
0
100
AcDbLine
 62
7
  6
CONTINUOUS
 10
103.2761507218
 20
62.0848760838
 11
103.2761507218
 21
68.6168954208
  0
LINE
  5
39F
100
AcDbEntity
  8
0
100
AcDbLine
 62
7
  6
CONTINUOUS
 10
103.7010881251
 20
95.3159652935
 11
103.7010881251
 21
78.9859169509
  0
LINE
  5
3A0
100
AcDbEntity
  8
0
100
AcDbLine
 62
7
  6
CONTINUOUS
 10
103.0815936861
 20
176.8880396359
 11
102.6113592422
 21
173.5371240344
  0
LINE
  5
3A1
100
AcDbEntity
  8
0
100
AcDbLine
 62
7
  6
CONTINUOUS
 10
81.1486264322
 20
125.0690226644
 11
81.3557492422
 21
125.5267898194
  0
LINE
  5
3A2
100
AcDbEntity
  8
0
100
AcDbLine
 62
7
  6
CONTINUOUS
 10
101.9749657887
 20
168.4911454458
 11
103.0815936861
 21
169.1300535465
  0
LINE
  5
3A3
100
AcDbEntity
  8
0
100
AcDbLine
 62
7
  6
CONTINUOUS
 10
131.7370959216
 20
185.39687313
 11
134.5654931633
 21
187.0298392914
  0
LINE
  5
3A4
100
AcDbEntity
  8
0
100
AcDbLine
 62
7
  6
CONTINUOUS
 10
135.4140248335
 20
187.3564528031
 11
131.8785056474
 21
185.3152320337
  0
LINE
  5
3A5
100
AcDbEntity
  8
0
100
AcDbLine
 62
7
  6
CONTINUOUS
 10
59.4707132584
 20
143.469136648
 11
61.5920607624
 21
144.6938898897
  0
LINE
  5
3A6
100
AcDbEntity
  8
0
100
AcDbLine
 62
7
  6
CONTINUOUS
 10
144.2174749667
 20
191.8267375918
 11
128.166217862
 21
182.559595299
  0
LINE
  5
3A7
100
AcDbEntity
  8
0
100
AcDbLine
 62
7
  6
CONTINUOUS
 10
54.1320248241
 20
139.6110540341
 11
54.8391467684
 21
140.0193086421
  0
LINE
  5
3A8
100
AcDbEntity
  8
0
100
AcDbLine
 62
7
  6
CONTINUOUS
 10
68.8045486769
 20
148.0416496581
 11
70.5723082699
 21
149.0622600427
  0
LINE
  5
3A9
100
AcDbEntity
  8
0
100
AcDbLine
 62
7
  6
CONTINUOUS
 10
60.6727897817
 20
142.9383980839
 11
61.3798995068
 21
143.3466456371
  0
LINE
  5
3AA
100
AcDbEntity
  8
0
100
AcDbLine
 62
7
  6
CONTINUOUS
 10
197.6745335976
 20
221.5060925074
 11
117.4182480738
 21
175.1703810429
  0
LINE
  5
3AB
100
AcDbEntity
  8
0
100
AcDbLine
 62
7
  6
CONTINUOUS
 10
58.0211283124
 20
140.4684390694
 11
58.5161444556
 21
140.754235067
  0
LINE
  5
3AC
100
AcDbEntity
  8
0
100
AcDbLine
 62
7
  6
CONTINUOUS
 10
59.4707132584
 20
140.2031269795
 11
61.3799056163
 21
141.3053931216
  0
LINE
  5
3AD
100
AcDbEntity
  8
0
100
AcDbLine
 62
7
  6
CONTINUOUS
 10
114.8903430256
 20
172.1390713915
 11
114.748904151
 21
172.0574121066
  0
LINE
  5
3AE
100
AcDbEntity
  8
0
100
AcDbLine
 62
7
  6
CONTINUOUS
 10
59.0817929001
 20
139.6111060484
 11
58.0211283124
 21
138.9987347185
  0
LINE
  5
3AF
100
AcDbEntity
  8
0
100
AcDbLine
 62
7
  6
CONTINUOUS
 10
57.8140163488
 20
138.5409487769
 11
59.0817929001
 21
139.272895541
  0
LINE
  5
3B0
100
AcDbEntity
  8
0
100
AcDbLine
 62
7
  6
CONTINUOUS
 10
61.4859830725
 20
140.4276552969
 11
60.4960123504
 21
139.8560988457
  0
LINE
  5
3B1
100
AcDbEntity
  8
0
100
AcDbLine
 62
7
  6
CONTINUOUS
 10
59.0817811242
 20
138.3863385693
 11
57.6675734498
 21
137.5698502615
  0
LINE
  5
3B2
100
AcDbEntity
  8
0
100
AcDbLine
 62
7
  6
CONTINUOUS
 10
61.0263402283
 20
139.345779544
 11
61.9102200248
 21
139.8560847363
  0
LINE
  5
3B3
100
AcDbEntity
  8
0
100
AcDbLine
 62
7
  6
CONTINUOUS
 10
197.6745335976
 20
217.0153292131
 11
117.4182480738
 21
170.6796177487
  0
LINE
  5
3B4
100
AcDbEntity
  8
0
100
AcDbLine
 62
7
  6
CONTINUOUS
 10
62.087004816
 20
138.7334184122
 11
61.5566769381
 21
138.4272352968
  0
LINE
  5
3B5
100
AcDbEntity
  8
0
100
AcDbLine
 62
7
  6
CONTINUOUS
 10
61.5566769381
 20
138.1822634076
 11
60.4960123504
 21
137.5698920777
  0
LINE
  5
3B6
100
AcDbEntity
  8
0
100
AcDbLine
 62
7
  6
CONTINUOUS
 10
83.4770607539
 20
150.5117426195
 11
81.3557492422
 21
149.2870101578
  0
LINE
  5
3B7
100
AcDbEntity
  8
0
100
AcDbLine
 62
7
  6
CONTINUOUS
 10
67.248920235
 20
138.9784883483
 11
69.370267739
 21
140.2032415899
  0
LINE
  5
3B8
100
AcDbEntity
  8
0
100
AcDbLine
 62
7
  6
CONTINUOUS
 10
43.3182561368
 20
149.1961097992
 11
42.8182692217
 21
149.2456152916
  0
LINE
  5
3B9
100
AcDbEntity
  8
0
100
AcDbLine
 62
7
  6
CONTINUOUS
 10
58.7282380375
 20
168.8827336395
 11
60.8495672129
 21
167.658011376
  0
LINE
  5
3BA
100
AcDbEntity
  8
0
100
AcDbLine
 62
7
  6
CONTINUOUS
 10
66.5064450141
 20
164.3920853398
 11
68.6277741896
 21
163.1673630762
  0
LINE
  5
3BB
100
AcDbEntity
  8
0
100
AcDbLine
 62
7
  6
CONTINUOUS
 10
74.2846519907
 20
159.9014370401
 11
76.4059811662
 21
158.6767147765
  0
LINE
  5
3BC
100
AcDbEntity
  8
0
100
AcDbLine
 62
7
  6
CONTINUOUS
 10
37.1613914205
 20
181.742327861
 11
51.3035859235
 21
173.5775127706
  0
LINE
  5
3BD
100
AcDbEntity
  8
0
100
AcDbLine
 62
7
  6
CONTINUOUS
 10
51.3035859235
 20
175.6187688134
 11
37.1613914205
 21
183.7835839038
  0
LINE
  5
3BE
100
AcDbEntity
  8
0
100
AcDbLine
 62
7
  6
CONTINUOUS
 10
131.2067728995
 20
129.8187821108
 11
129.3841282066
 21
130.8710627091
  0
LINE
  5
3BF
100
AcDbEntity
  8
0
100
AcDbLine
 62
7
  6
CONTINUOUS
 10
54.4855796866
 20
174.7542785798
 11
95.1443888826
 21
151.2804351949
  0
LINE
  5
3C0
100
AcDbEntity
  8
0
100
AcDbLine
 62
7
  6
CONTINUOUS
 10
95.4979437451
 20
151.0803459435
 11
97.6192729206
 21
149.8556236799
  0
LINE
  5
3C1
100
AcDbEntity
  8
0
100
AcDbLine
 62
7
  6
CONTINUOUS
 10
37.1613914205
 20
186.2330911552
 11
51.3035859235
 21
178.0682760648
  0
LINE
  5
3C2
100
AcDbEntity
  8
0
100
AcDbLine
 62
7
  6
CONTINUOUS
 10
131.2067728995
 20
134.5762826073
 11
129.3836692069
 21
135.6288282032
  0
LINE
  5
3C3
100
AcDbEntity
  8
0
100
AcDbLine
 62
7
  6
CONTINUOUS
 10
104.6903289565
 20
73.5158082705
 11
104.6903289565
 21
69.4333667317
  0
LINE
  5
3C4
100
AcDbEntity
  8
0
100
AcDbLine
 62
7
  6
CONTINUOUS
 10
105.7510347598
 20
67.18805278
 11
105.7510347598
 21
60.656033443
  0
LINE
  5
3C5
100
AcDbEntity
  8
0
100
AcDbLine
 62
7
  6
CONTINUOUS
 10
106.8116021966
 20
159.0683229012
 11
106.8116021966
 21
159.5168628735
  0
LINE
  5
3C6
100
AcDbEntity
  8
0
100
AcDbLine
 62
7
  6
CONTINUOUS
 10
109.8037378872
 20
75.048700537
 11
109.803737887
 21
154.1757190811
  0
LINE
  5
3C7
100
AcDbEntity
  8
0
100
AcDbLine
 62
7
  6
CONTINUOUS
 10
112.362047604
 20
228.6297174174
 11
112.362047604
 21
228.8338394943
  0
LINE
  5
3C8
100
AcDbEntity
  8
0
100
AcDbLine
 62
7
  6
CONTINUOUS
 10
88.9268334088
 20
120.5783743647
 11
89.1339562188
 21
121.0361415197
  0
LINE
  5
3C9
100
AcDbEntity
  8
0
100
AcDbLine
 62
7
  6
CONTINUOUS
 10
68.0153992043
 20
100.8951745467
 11
66.4207192422
 21
98.6264731811
  0
LINE
  5
3CA
100
AcDbEntity
  8
0
100
AcDbLine
 62
7
  6
CONTINUOUS
 10
65.8857356507
 20
97.8653687378
 11
64.6429020782
 21
96.0972282394
  0
LINE
  5
3CB
100
AcDbEntity
  8
0
100
AcDbLine
 62
7
  6
CONTINUOUS
 10
64.1112679671
 20
95.3408889973
 11
62.8718033141
 21
93.5775413553
  0
LINE
  5
3CC
100
AcDbEntity
  8
0
100
AcDbLine
 62
7
  6
CONTINUOUS
 10
62.3408673376
 20
92.8221953275
 11
61.1023693136
 21
91.0602228784
  0
LINE
  5
3CD
100
AcDbEntity
  8
0
100
AcDbLine
 62
7
  6
CONTINUOUS
 10
62.0209317914
 20
89.9175257691
 11
63.2594298155
 21
91.6794982183
  0
LINE
  5
3CE
100
AcDbEntity
  8
0
100
AcDbLine
 62
7
  6
CONTINUOUS
 10
63.790365792
 20
92.434844246
 11
65.029830445
 21
94.198191888
  0
LINE
  5
3CF
100
AcDbEntity
  8
0
100
AcDbLine
 62
7
  6
CONTINUOUS
 10
65.5614645561
 20
94.9545311301
 11
66.8042981286
 21
96.7226716286
  0
LINE
  5
3D0
100
AcDbEntity
  8
0
100
AcDbLine
 62
7
  6
CONTINUOUS
 10
67.3392817201
 20
97.4837760718
 11
68.9339616822
 21
99.7524774374
  0
LINE
  5
3D1
100
AcDbEntity
  8
0
100
AcDbLine
 62
7
  6
CONTINUOUS
 10
69.8305545853
 20
99.2348409939
 11
69.4605932317
 21
98.7085085334
  0
LINE
  5
3D2
100
AcDbEntity
  8
0
100
AcDbLine
 62
7
  6
CONTINUOUS
 10
107.0223245793
 20
159.2158263315
 11
107.1651570592
 21
159.3158075506
  0
LINE
  5
3D3
100
AcDbEntity
  8
0
100
AcDbLine
 62
7
  6
CONTINUOUS
 10
61.9102318007
 20
135.1204057344
 11
62.6173537451
 21
135.5286603424
  0
LINE
  5
3D4
100
AcDbEntity
  8
0
100
AcDbLine
 62
7
  6
CONTINUOUS
 10
76.5827556535
 20
143.5510013583
 11
78.3505152465
 21
144.571611743
  0
LINE
  5
3D5
100
AcDbEntity
  8
0
100
AcDbLine
 62
7
  6
CONTINUOUS
 10
65.799335289
 20
135.9777907697
 11
66.2943514322
 21
136.2635867672
  0
LINE
  5
3D6
100
AcDbEntity
  8
0
100
AcDbLine
 62
7
  6
CONTINUOUS
 10
67.248920235
 20
135.7124786797
 11
69.8652044327
 21
137.2229820491
  0
LINE
  5
3D7
100
AcDbEntity
  8
0
100
AcDbLine
 62
7
  6
CONTINUOUS
 10
66.8599998767
 20
135.1204577487
 11
65.799335289
 21
134.5080864188
  0
LINE
  5
3D8
100
AcDbEntity
  8
0
100
AcDbLine
 62
7
  6
CONTINUOUS
 10
65.5922233254
 20
134.0503004772
 11
66.8599998767
 21
134.7822472412
  0
LINE
  5
3D9
100
AcDbEntity
  8
0
100
AcDbLine
 62
7
  6
CONTINUOUS
 10
69.6884270014
 20
136.1819388537
 11
68.274219327
 21
135.365450546
  0
LINE
  5
3DA
100
AcDbEntity
  8
0
100
AcDbLine
 62
7
  6
CONTINUOUS
 10
37.5148962357
 20
117.1976681896
 11
31.5045136193
 21
113.7275928817
  0
LINE
  5
3DB
100
AcDbEntity
  8
0
100
AcDbLine
 62
7
  6
CONTINUOUS
 10
66.8599881008
 20
133.8956902696
 11
65.4457804264
 21
133.0792019618
  0
LINE
  5
3DC
100
AcDbEntity
  8
0
100
AcDbLine
 62
7
  6
CONTINUOUS
 10
68.8045472049
 20
134.8551312442
 11
69.6884270014
 21
135.3654364366
  0
LINE
  5
3DD
100
AcDbEntity
  8
0
100
AcDbLine
 62
7
  6
CONTINUOUS
 10
116.0040286235
 20
161.6776213602
 11
114.748904151
 21
160.9529792337
  0
LINE
  5
3DE
100
AcDbEntity
  8
0
100
AcDbLine
 62
7
  6
CONTINUOUS
 10
69.8652117926
 20
134.2427701125
 11
69.3348839147
 21
133.9365869971
  0
LINE
  5
3DF
100
AcDbEntity
  8
0
100
AcDbLine
 62
7
  6
CONTINUOUS
 10
69.3348839147
 20
133.6916151079
 11
68.274219327
 21
133.079243778
  0
LINE
  5
3E0
100
AcDbEntity
  8
0
100
AcDbLine
 62
7
  6
CONTINUOUS
 10
75.0271272116
 20
134.4878400485
 11
77.1484747156
 21
135.7125932902
  0
LINE
  5
3E1
100
AcDbEntity
  8
0
100
AcDbLine
 62
7
  6
CONTINUOUS
 10
69.6884387773
 20
130.6297574347
 11
70.3955607217
 21
131.0380120427
  0
LINE
  5
3E2
100
AcDbEntity
  8
0
100
AcDbLine
 62
7
  6
CONTINUOUS
 10
84.3609626301
 20
139.0603530586
 11
86.1287222232
 21
140.0809634433
  0
LINE
  5
3E3
100
AcDbEntity
  8
0
100
AcDbLine
 62
7
  6
CONTINUOUS
 10
109.803737887
 20
154.1757190811
 11
114.8355600025
 21
151.5910121397
  0
LINE
  5
3E4
100
AcDbEntity
  8
0
100
AcDbLine
 62
7
  6
CONTINUOUS
 10
31.5045136193
 20
195.1298241648
 11
33.6258427948
 21
193.9051019012
  0
LINE
  5
3E5
100
AcDbEntity
  8
0
100
AcDbLine
 62
7
  6
CONTINUOUS
 10
33.9793976574
 20
193.700981524
 11
54.4855796866
 21
181.8619996429
  0
LINE
  5
3E6
100
AcDbEntity
  8
0
100
AcDbLine
 62
7
  6
CONTINUOUS
 10
131.2067728995
 20
139.3335456904
 11
129.3832148056
 21
140.3863536291
  0
LINE
  5
3E7
100
AcDbEntity
  8
0
100
AcDbLine
 62
7
  6
CONTINUOUS
 10
131.2067728995
 20
144.0905752309
 11
129.3827649335
 21
145.1436428975
  0
LINE
  5
3E8
100
AcDbEntity
  8
0
100
AcDbLine
 62
7
  6
CONTINUOUS
 10
106.8116021966
 20
159.5168628735
 11
101.1547243954
 21
162.7827889097
  0
LINE
  5
3E9
100
AcDbEntity
  8
0
100
AcDbLine
 62
7
  6
CONTINUOUS
 10
96.2049563194
 20
165.6404741913
 11
90.4066565732
 21
168.9880483784
  0
LINE
  5
3EA
100
AcDbEntity
  8
0
100
AcDbLine
 62
7
  6
CONTINUOUS
 10
68.0619892585
 20
181.8884562212
 11
66.1527930007
 21
182.9907062584
  0
LINE
  5
3EB
100
AcDbEntity
  8
0
100
AcDbLine
 62
7
  6
CONTINUOUS
 10
117.4182480738
 20
153.3963166101
 11
107.1651570592
 21
159.3158075506
  0
LINE
  5
3EC
100
AcDbEntity
  8
0
100
AcDbLine
 62
7
  6
CONTINUOUS
 10
160.9051281745
 20
99.981463783
 11
161.6122378997
 21
99.2760404524
  0
LINE
  5
3ED
100
AcDbEntity
  8
0
100
AcDbLine
 62
7
  6
CONTINUOUS
 10
119.1919420966
 20
123.8487773886
 11
119.19486472
 21
121.5521399285
  0
LINE
  5
3EE
100
AcDbEntity
  8
0
100
AcDbLine
 62
7
  6
CONTINUOUS
 10
119.1907163255
 20
128.6095641016
 11
119.1930416342
 21
126.3126198713
  0
LINE
  5
3EF
100
AcDbEntity
  8
0
100
AcDbLine
 62
7
  6
CONTINUOUS
 10
119.1895104187
 20
133.3700830332
 11
119.1912449121
 21
131.0728355733
  0
LINE
  5
3F0
100
AcDbEntity
  8
0
100
AcDbLine
 62
7
  6
CONTINUOUS
 10
119.1883239488
 20
138.1303384562
 11
119.189474021
 21
135.8327912462
  0
LINE
  5
3F1
100
AcDbEntity
  8
0
100
AcDbLine
 62
7
  6
CONTINUOUS
 10
119.1871564998
 20
142.8903345498
 11
119.1877284413
 21
140.5924910103
  0
LINE
  5
3F2
100
AcDbEntity
  8
0
100
AcDbLine
 62
7
  6
CONTINUOUS
 10
113.1755897229
 20
175.1703183187
 11
113.1755897229
 21
173.1290622759
  0
LINE
  5
3F3
100
AcDbEntity
  8
0
100
AcDbLine
 62
7
  6
CONTINUOUS
 10
114.748904151
 20
172.0574121066
 11
114.748904151
 21
160.9529792337
  0
LINE
  5
3F4
100
AcDbEntity
  8
0
100
AcDbLine
 62
7
  6
CONTINUOUS
 10
114.8355600025
 20
72.4329745664
 11
114.8355600025
 21
151.5910121397
  0
LINE
  5
3F5
100
AcDbEntity
  8
0
100
AcDbLine
 62
7
  6
CONTINUOUS
 10
116.0040286235
 20
155.9825533323
 11
116.0040286235
 21
171.4960992578
  0
LINE
  5
3F6
100
AcDbEntity
  8
0
100
AcDbLine
 62
7
  6
CONTINUOUS
 10
117.4182480738
 20
153.3963166101
 11
117.4182480738
 21
175.1703810429
  0
LINE
  5
3F7
100
AcDbEntity
  8
0
100
AcDbLine
 62
7
  6
CONTINUOUS
 10
119.1860076668
 20
147.650075408
 11
119.1860076668
 21
145.3519389012
  0
LINE
  5
3F8
100
AcDbEntity
  8
0
100
AcDbLine
 62
7
  6
CONTINUOUS
 10
73.5775422656
 20
131.4871424699
 11
74.0725584089
 21
131.7729384675
  0
LINE
  5
3F9
100
AcDbEntity
  8
0
100
AcDbLine
 62
7
  6
CONTINUOUS
 10
75.0271272116
 20
131.22183038
 11
77.6434114093
 21
132.7323337493
  0
LINE
  5
3FA
100
AcDbEntity
  8
0
100
AcDbLine
 62
7
  6
CONTINUOUS
 10
74.6382068533
 20
130.629809449
 11
73.5775422656
 21
130.0174381191
  0
LINE
  5
3FB
100
AcDbEntity
  8
0
100
AcDbLine
 62
7
  6
CONTINUOUS
 10
73.370430302
 20
129.5596521775
 11
74.6382068533
 21
130.2915989415
  0
LINE
  5
3FC
100
AcDbEntity
  8
0
100
AcDbLine
 62
7
  6
CONTINUOUS
 10
77.466633978
 20
131.691290554
 11
76.0524263036
 21
130.8748022462
  0
LINE
  5
3FD
100
AcDbEntity
  8
0
100
AcDbLine
 62
7
  6
CONTINUOUS
 10
74.6381950774
 20
129.4050419698
 11
73.223987403
 21
128.5885536621
  0
LINE
  5
3FE
100
AcDbEntity
  8
0
100
AcDbLine
 62
7
  6
CONTINUOUS
 10
76.5827541815
 20
130.3644829445
 11
77.466633978
 21
130.8747881369
  0
LINE
  5
3FF
100
AcDbEntity
  8
0
100
AcDbLine
 62
7
  6
CONTINUOUS
 10
77.6434187692
 20
129.7521218127
 11
77.1130908913
 21
129.4459386973
  0
LINE
  5
400
100
AcDbEntity
  8
0
100
AcDbLine
 62
7
  6
CONTINUOUS
 10
95.4979437451
 20
139.897434387
 11
95.1443888826
 21
139.6933106104
  0
LINE
  5
401
100
AcDbEntity
  8
0
100
AcDbLine
 62
7
  6
CONTINUOUS
 10
77.1130908913
 20
129.2009668082
 11
76.0524263036
 21
128.5885954783
  0
LINE
  5
402
100
AcDbEntity
  8
0
100
AcDbLine
 62
7
  6
CONTINUOUS
 10
82.8053341882
 20
129.9971917488
 11
84.9266816922
 21
131.2219449905
  0
LINE
  5
403
100
AcDbEntity
  8
0
100
AcDbLine
 62
7
  6
CONTINUOUS
 10
77.4666457539
 20
126.139109135
 11
78.1737676983
 21
126.547363743
  0
LINE
  5
404
100
AcDbEntity
  8
0
100
AcDbLine
 62
7
  6
CONTINUOUS
 10
90.3713010869
 20
169.9623391822
 11
68.8107730793
 21
182.4100342267
  0
LINE
  5
405
100
AcDbEntity
  8
0
100
AcDbLine
 62
7
  6
CONTINUOUS
 10
116.0040286235
 20
155.9825533323
 11
90.3713010869
 21
170.7812806837
  0
LINE
  5
406
100
AcDbEntity
  8
0
100
AcDbLine
 62
7
  6
CONTINUOUS
 10
131.2067728995
 20
148.8473750137
 11
129.3823195238
 21
149.9006998319
  0
LINE
  5
407
100
AcDbEntity
  8
0
100
AcDbLine
 62
7
  6
CONTINUOUS
 10
116.0040286235
 20
158.9219453075
 11
90.9369841567
 21
173.3940827747
  0
LINE
  5
408
100
AcDbEntity
  8
0
100
AcDbLine
 62
7
  6
CONTINUOUS
 10
90.9369841567
 20
174.0225971036
 11
72.4247504294
 21
184.710398439
  0
LINE
  5
409
100
AcDbEntity
  8
0
100
AcDbLine
 62
7
  6
CONTINUOUS
 10
116.0040286235
 20
160.2283491749
 11
114.748904151
 21
160.9529792337
  0
LINE
  5
40A
100
AcDbEntity
  8
0
100
AcDbLine
 62
7
  6
CONTINUOUS
 10
103.0815936861
 20
167.6889516833
 11
90.9369841567
 21
174.7004866421
  0
LINE
  5
40B
100
AcDbEntity
  8
0
100
AcDbLine
 62
7
  6
CONTINUOUS
 10
91.2268979664
 20
174.6964049145
 11
101.9749657887
 21
168.4911454458
  0
LINE
  5
40C
100
AcDbEntity
  8
0
100
AcDbLine
 62
7
  6
CONTINUOUS
 10
45.2930561088
 20
202.3952777528
 11
66.1527930007
 21
190.3521754944
  0
LINE
  5
40D
100
AcDbEntity
  8
0
100
AcDbLine
 62
7
  6
CONTINUOUS
 10
101.1794673479
 20
170.3956255729
 11
99.2349156037
 21
171.5182876478
  0
LINE
  5
40E
100
AcDbEntity
  8
0
100
AcDbLine
 62
7
  6
CONTINUOUS
 10
97.5873499441
 20
172.4694886059
 11
95.6427982
 21
173.5921506808
  0
LINE
  5
40F
100
AcDbEntity
  8
0
100
AcDbLine
 62
7
  6
CONTINUOUS
 10
93.9952325404
 20
174.5433516388
 11
92.0506807962
 21
175.6660137138
  0
LINE
  5
410
100
AcDbEntity
  8
0
100
AcDbLine
 62
7
  6
CONTINUOUS
 10
131.2067728995
 20
153.6039487442
 11
129.3818785101
 21
154.657528176
  0
LINE
  5
411
100
AcDbEntity
  8
0
100
AcDbLine
 62
7
  6
CONTINUOUS
 10
101.1794673479
 20
171.7918089534
 11
100.4440631654
 21
172.216385151
  0
LINE
  5
412
100
AcDbEntity
  8
0
100
AcDbLine
 62
7
  6
CONTINUOUS
 10
97.5873499441
 20
173.8656719864
 11
96.8519457616
 21
174.2902481839
  0
LINE
  5
413
100
AcDbEntity
  8
0
100
AcDbLine
 62
7
  6
CONTINUOUS
 10
93.9952325404
 20
175.9395350193
 11
93.2598283579
 21
176.3641112169
  0
LINE
  5
414
100
AcDbEntity
  8
0
100
AcDbLine
 62
7
  6
CONTINUOUS
 10
92.0506807962
 20
177.2581934272
 11
93.9952325404
 21
176.1355313522
  0
LINE
  5
415
100
AcDbEntity
  8
0
100
AcDbLine
 62
7
  6
CONTINUOUS
 10
95.6427982
 20
175.1843303942
 11
97.5873499441
 21
174.0616683193
  0
LINE
  5
416
100
AcDbEntity
  8
0
100
AcDbLine
 62
7
  6
CONTINUOUS
 10
99.2349156037
 20
173.1104673612
 11
101.1794673479
 21
171.9878052863
  0
LINE
  5
417
100
AcDbEntity
  8
0
100
AcDbLine
 62
7
  6
CONTINUOUS
 10
125.5499118789
 20
183.5405627312
 11
125.5499118789
 21
184.0700860907
  0
LINE
  5
418
100
AcDbEntity
  8
0
100
AcDbLine
 62
7
  6
CONTINUOUS
 10
81.3557492422
 20
126.9964941702
 11
81.8507653855
 21
127.2822901678
  0
LINE
  5
419
100
AcDbEntity
  8
0
100
AcDbLine
 62
7
  6
CONTINUOUS
 10
82.8053341882
 20
126.7311820803
 11
85.4216183859
 21
128.2416854496
  0
LINE
  5
41A
100
AcDbEntity
  8
0
100
AcDbLine
 62
7
  6
CONTINUOUS
 10
82.4164138299
 20
126.1391611493
 11
81.3557492422
 21
125.5267898194
  0
LINE
  5
41B
100
AcDbEntity
  8
0
100
AcDbLine
 62
7
  6
CONTINUOUS
 10
81.1486372786
 20
125.0690038778
 11
82.4164138299
 21
125.8009506418
  0
LINE
  5
41C
100
AcDbEntity
  8
0
100
AcDbLine
 62
7
  6
CONTINUOUS
 10
85.2448409547
 20
127.2006422543
 11
83.8306332802
 21
126.3841539465
  0
LINE
  5
41D
100
AcDbEntity
  8
0
100
AcDbLine
 62
7
  6
CONTINUOUS
 10
89.6996540084
 20
129.486979665
 11
90.9017305317
 21
130.1809947266
  0
LINE
  5
41E
100
AcDbEntity
  8
0
100
AcDbLine
 62
7
  6
CONTINUOUS
 10
82.4164020541
 20
124.9143936701
 11
81.0021943796
 21
124.0979053624
  0
LINE
  5
41F
100
AcDbEntity
  8
0
100
AcDbLine
 62
7
  6
CONTINUOUS
 10
84.3609611581
 20
125.8738346448
 11
85.2448409547
 21
126.3841398371
  0
LINE
  5
420
100
AcDbEntity
  8
0
100
AcDbLine
 62
7
  6
CONTINUOUS
 10
85.4216257459
 20
125.261473513
 11
84.8912978679
 21
124.9552903976
  0
LINE
  5
421
100
AcDbEntity
  8
0
100
AcDbLine
 62
7
  6
CONTINUOUS
 10
84.8912978679
 20
124.7103185084
 11
83.8306332802
 21
124.0979471786
  0
LINE
  5
422
100
AcDbEntity
  8
0
100
AcDbLine
 62
7
  6
CONTINUOUS
 10
62.8777999316
 20
110.5009346881
 11
64.0302416265
 21
111.1662932392
  0
LINE
  5
423
100
AcDbEntity
  8
0
100
AcDbLine
 62
7
  6
CONTINUOUS
 10
85.2448527305
 20
121.6484608353
 11
85.9519746749
 21
122.0567154432
  0
LINE
  5
424
100
AcDbEntity
  8
0
100
AcDbLine
 62
7
  6
CONTINUOUS
 10
89.1339562188
 20
122.5058458705
 11
89.6289723621
 21
122.7916418681
  0
LINE
  5
425
100
AcDbEntity
  8
0
100
AcDbLine
 62
7
  6
CONTINUOUS
 10
89.6996540084
 20
122.7508347237
 11
90.9017305317
 21
123.4448497853
  0
LINE
  5
426
100
AcDbEntity
  8
0
100
AcDbLine
 62
7
  6
CONTINUOUS
 10
90.1946208065
 20
122.7099871558
 11
91.1845915287
 21
123.281543607
  0
LINE
  5
427
100
AcDbEntity
  8
0
100
AcDbLine
 62
7
  6
CONTINUOUS
 10
101.9749657887
 20
173.1697042959
 11
91.2268979664
 21
179.3749637646
  0
LINE
  5
428
100
AcDbEntity
  8
0
100
AcDbLine
 62
7
  6
CONTINUOUS
 10
102.6113592422
 20
173.5371240344
 11
91.8632914199
 21
179.7423835031
  0
LINE
  5
429
100
AcDbEntity
  8
0
100
AcDbLine
 62
7
  6
CONTINUOUS
 10
92.1250540754
 20
181.6077180767
 11
79.5877818051
 21
188.8459518461
  0
LINE
  5
42A
100
AcDbEntity
  8
0
100
AcDbLine
 62
7
  6
CONTINUOUS
 10
92.1777442119
 20
181.983190786
 11
79.4463598601
 21
189.3334926826
  0
LINE
  5
42B
100
AcDbEntity
  8
0
100
AcDbLine
 62
7
  6
CONTINUOUS
 10
92.3158407678
 20
182.9672741712
 11
79.4463598601
 21
190.3973043478
  0
LINE
  5
42C
100
AcDbEntity
  8
0
100
AcDbLine
 62
7
  6
CONTINUOUS
 10
103.0815936861
 20
177.3668476759
 11
92.3956813594
 21
183.5362224644
  0
LINE
  5
42D
100
AcDbEntity
  8
0
100
AcDbLine
 62
7
  6
CONTINUOUS
 10
114.748904151
 20
172.0574121066
 11
103.0815936861
 21
178.7933845562
  0
LINE
  5
42E
100
AcDbEntity
  8
0
100
AcDbLine
 62
7
  6
CONTINUOUS
 10
117.4182480738
 20
170.6796177487
 11
113.1755897229
 21
173.1290622759
  0
LINE
  5
42F
100
AcDbEntity
  8
0
100
AcDbLine
 62
7
  6
CONTINUOUS
 10
70.7490062141
 20
197.6235075471
 11
66.5063478632
 21
200.0729520742
  0
LINE
  5
430
100
AcDbEntity
  8
0
100
AcDbLine
 62
7
  6
CONTINUOUS
 10
93.8429721209
 20
184.3718111873
 11
79.976692154
 21
192.3773305499
  0
LINE
  5
431
100
AcDbEntity
  8
0
100
AcDbLine
 62
7
  6
CONTINUOUS
 10
94.974367232
 20
185.0250185601
 11
79.976692154
 21
193.6837344173
  0
LINE
  5
432
100
AcDbEntity
  8
0
100
AcDbLine
 62
7
  6
CONTINUOUS
 10
80.4999520552
 20
193.5612629388
 11
95.1299300761
 21
185.114832274
  0
LINE
  5
433
100
AcDbEntity
  8
0
100
AcDbLine
 62
7
  6
CONTINUOUS
 10
70.7490062141
 20
199.6647635899
 11
113.1755897229
 21
175.1703183187
  0
LINE
  5
434
100
AcDbEntity
  8
0
100
AcDbLine
 62
7
  6
CONTINUOUS
 10
130.1457520918
 20
231.5078352987
 11
130.1457520918
 21
233.1408401329
  0
LINE
  5
435
100
AcDbEntity
  8
0
100
AcDbLine
 62
7
  6
CONTINUOUS
 10
130.8177124084
 20
204.0535673961
 11
130.8177124084
 21
204.1760396224
  0
LINE
  5
436
100
AcDbEntity
  8
0
100
AcDbLine
 62
7
  6
CONTINUOUS
 10
131.2067728995
 20
155.898691992
 11
131.2067728994
 21
153.6039487442
  0
LINE
  5
437
100
AcDbEntity
  8
0
100
AcDbLine
 62
7
  6
CONTINUOUS
 10
131.2067728994
 20
151.1421756848
 11
131.2067728995
 21
148.8473750137
  0
LINE
  5
438
100
AcDbEntity
  8
0
100
AcDbLine
 62
7
  6
CONTINUOUS
 10
131.2067728995
 20
146.3854341439
 11
131.2067728996
 21
144.0905752311
  0
LINE
  5
439
100
AcDbEntity
  8
0
100
AcDbLine
 62
7
  6
CONTINUOUS
 10
131.2067728995
 20
141.6284636798
 11
131.2067728994
 21
139.3335456902
  0
LINE
  5
43A
100
AcDbEntity
  8
0
100
AcDbLine
 62
7
  6
CONTINUOUS
 10
131.2067728995
 20
136.8712605256
 11
131.2067728995
 21
134.5762826073
  0
LINE
  5
43B
100
AcDbEntity
  8
0
100
AcDbLine
 62
7
  6
CONTINUOUS
 10
131.2067728995
 20
132.1138208274
 11
131.2067728995
 21
129.8187821108
  0
LINE
  5
43C
100
AcDbEntity
  8
0
100
AcDbLine
 62
7
  6
CONTINUOUS
 10
134.5654931633
 20
187.0298392914
 11
134.5654931633
 21
187.8463417085
  0
LINE
  5
43D
100
AcDbEntity
  8
0
100
AcDbLine
 62
7
  6
CONTINUOUS
 10
136.7652016185
 20
227.249826276
 11
136.2337094626
 21
221.0514336929
  0
LINE
  5
43E
100
AcDbEntity
  8
0
100
AcDbLine
 62
7
  6
CONTINUOUS
 10
90.1946208065
 20
121.6485128495
 11
89.1339562188
 21
121.0361415197
  0
LINE
  5
43F
100
AcDbEntity
  8
0
100
AcDbLine
 62
7
  6
CONTINUOUS
 10
88.9268442552
 20
120.578355578
 11
90.1946208065
 21
121.3103023421
  0
LINE
  5
440
100
AcDbEntity
  8
0
100
AcDbLine
 62
7
  6
CONTINUOUS
 10
65.3777887394
 20
106.1708012073
 11
65.8510885169
 21
106.4440593302
  0
LINE
  5
441
100
AcDbEntity
  8
0
100
AcDbLine
 62
7
  6
CONTINUOUS
 10
90.1946090307
 20
120.4237453704
 11
88.7804013563
 21
119.6072570627
  0
LINE
  5
442
100
AcDbEntity
  8
0
100
AcDbLine
 62
7
  6
CONTINUOUS
 10
68.9256096402
 20
107.690837354
 11
66.8042981286
 21
106.4661048923
  0
LINE
  5
443
100
AcDbEntity
  8
0
100
AcDbLine
 62
7
  6
CONTINUOUS
 10
95.1443888826
 20
120.9954052582
 11
95.4979437451
 21
121.1995290348
  0
LINE
  5
444
100
AcDbEntity
  8
0
100
AcDbLine
 62
7
  6
CONTINUOUS
 10
71.0552731938
 20
102.2019635247
 11
68.9339616822
 21
100.9772310631
  0
LINE
  5
445
100
AcDbEntity
  8
0
100
AcDbLine
 62
7
  6
CONTINUOUS
 10
63.627800458
 20
109.2018879159
 11
64.6429020782
 21
109.587257004
  0
LINE
  5
446
100
AcDbEntity
  8
0
100
AcDbLine
 62
7
  6
CONTINUOUS
 10
64.1112679671
 20
110.957460553
 11
62.8778034459
 21
110.5009286012
  0
LINE
  5
447
100
AcDbEntity
  8
0
100
AcDbLine
 62
7
  6
CONTINUOUS
 10
117.4182480738
 20
175.1703810429
 11
66.5063478632
 21
204.5637153684
  0
LINE
  5
448
100
AcDbEntity
  8
0
100
AcDbLine
 62
7
  6
CONTINUOUS
 10
141.6011689837
 20
193.3372283836
 11
141.6011689837
 21
191.7042235493
  0
LINE
  5
449
100
AcDbEntity
  8
0
100
AcDbLine
 62
7
  6
CONTINUOUS
 10
141.8133304577
 20
87.845204144
 11
141.8133304577
 21
94.7854746896
  0
LINE
  5
44A
100
AcDbEntity
  8
0
100
AcDbLine
 62
7
  6
CONTINUOUS
 10
142.838477641
 20
210.9120681613
 11
142.838477641
 21
211.1161902382
  0
LINE
  5
44B
100
AcDbEntity
  8
0
100
AcDbLine
 62
7
  6
CONTINUOUS
 10
69.4605932317
 20
98.7085085334
 11
67.3392817201
 21
97.4837760718
  0
LINE
  5
44C
100
AcDbEntity
  8
0
100
AcDbLine
 62
7
  6
CONTINUOUS
 10
67.5776511968
 20
96.1185700815
 11
65.5614645561
 21
94.9545311301
  0
LINE
  5
44D
100
AcDbEntity
  8
0
100
AcDbLine
 62
7
  6
CONTINUOUS
 10
73.1932887894
 20
98.5181630427
 11
75.1053705653
 21
99.6220973811
  0
LINE
  5
44E
100
AcDbEntity
  8
0
100
AcDbLine
 62
7
  6
CONTINUOUS
 10
95.4979437451
 20
111.0749061171
 11
86.3055938614
 21
105.7677321167
  0
LINE
  5
44F
100
AcDbEntity
  8
0
100
AcDbLine
 62
7
  6
CONTINUOUS
 10
65.7589559241
 20
93.5714035044
 11
63.790365792
 21
92.434844246
  0
LINE
  5
450
100
AcDbEntity
  8
0
100
AcDbLine
 62
7
  6
CONTINUOUS
 10
63.9653139488
 20
91.0401086302
 11
62.0209317914
 21
89.9175257691
  0
LINE
  5
451
100
AcDbEntity
  8
0
100
AcDbLine
 62
7
  6
CONTINUOUS
 10
71.8777596397
 20
94.9124541575
 11
73.9990711513
 21
96.1371866191
  0
LINE
  5
452
100
AcDbEntity
  8
0
100
AcDbLine
 62
7
  6
CONTINUOUS
 10
76.7422241566
 20
96.4692306062
 11
78.8635356682
 21
97.6939630678
  0
LINE
  5
453
100
AcDbEntity
  8
0
100
AcDbLine
 62
7
  6
CONTINUOUS
 10
66.1279331427
 20
104.8715049998
 11
66.4207192422
 21
105.0052120664
  0
LINE
  5
454
100
AcDbEntity
  8
0
100
AcDbLine
 62
7
  6
CONTINUOUS
 10
65.8857356507
 20
106.3840483759
 11
65.3779309696
 21
106.1705545825
  0
LINE
  5
455
100
AcDbEntity
  8
0
100
AcDbLine
 62
7
  6
CONTINUOUS
 10
152.5963077552
 20
243.2448598215
 11
152.5963077552
 21
244.8778646558
  0
LINE
  5
456
100
AcDbEntity
  8
0
100
AcDbLine
 62
7
  6
CONTINUOUS
 10
154.7176722583
 20
237.1212281076
 11
154.7176722583
 21
236.9579276242
  0
LINE
  5
457
100
AcDbEntity
  8
0
100
AcDbLine
 62
7
  6
CONTINUOUS
 10
86.3055938614
 20
98.4192103626
 11
95.4979437451
 21
103.7263843629
  0
LINE
  5
458
100
AcDbEntity
  8
0
100
AcDbLine
 62
7
  6
CONTINUOUS
 10
80.2830254156
 20
94.424994293
 11
82.4043369273
 21
95.6497267546
  0
LINE
  5
459
100
AcDbEntity
  8
0
100
AcDbLine
 62
7
  6
CONTINUOUS
 10
74.3777484475
 20
90.5823206767
 11
76.4990599591
 21
91.8070531384
  0
LINE
  5
45A
100
AcDbEntity
  8
0
100
AcDbLine
 62
7
  6
CONTINUOUS
 10
76.8777372553
 20
86.252187196
 11
78.9990487669
 21
87.4769196576
  0
LINE
  5
45B
100
AcDbEntity
  8
0
100
AcDbLine
 62
7
  6
CONTINUOUS
 10
131.8785056474
 20
185.3152320337
 11
131.0299739772
 21
185.8051209391
  0
LINE
  5
45C
100
AcDbEntity
  8
0
100
AcDbLine
 62
7
  6
CONTINUOUS
 10
134.5654931633
 20
187.0298392914
 11
134.7069028891
 21
186.9481981951
  0
LINE
  5
45D
100
AcDbEntity
  8
0
100
AcDbLine
 62
7
  6
CONTINUOUS
 10
134.5654931633
 20
187.8463417085
 11
135.4140248335
 21
187.3564528031
  0
LINE
  5
45E
100
AcDbEntity
  8
0
100
AcDbLine
 62
7
  6
CONTINUOUS
 10
161.6122378997
 20
99.2760404524
 11
161.6122378997
 21
106.216310998
  0
LINE
  5
45F
100
AcDbEntity
  8
0
100
AcDbLine
 62
7
  6
CONTINUOUS
 10
97.6192729206
 20
91.8871306766
 11
102.9225516997
 21
94.9489618307
  0
LINE
  5
460
100
AcDbEntity
  8
0
100
AcDbLine
 62
7
  6
CONTINUOUS
 10
193.4354185255
 20
164.4207041643
 11
191.4738604392
 21
165.5531911212
  0
LINE
  5
461
100
AcDbEntity
  8
0
100
AcDbLine
 62
7
  6
CONTINUOUS
 10
130.8884242641
 20
204.0127428107
 11
100.1291512202
 21
221.7712156323
  0
LINE
  5
462
100
AcDbEntity
  8
0
100
AcDbLine
 62
7
  6
CONTINUOUS
 10
130.8177124084
 20
204.1760396224
 11
100.411994227
 21
221.7303920668
  0
LINE
  5
463
100
AcDbEntity
  8
0
100
AcDbLine
 62
7
  6
CONTINUOUS
 10
158.1746967611
 20
227.249826276
 11
158.706188917
 21
221.0514336929
  0
LINE
  5
464
100
AcDbEntity
  8
0
100
AcDbLine
 62
7
  6
CONTINUOUS
 10
161.6122378997
 20
106.216310998
 11
160.9051281745
 21
99.981463783
  0
LINE
  5
465
100
AcDbEntity
  8
0
100
AcDbLine
 62
7
  6
CONTINUOUS
 10
97.3363789831
 20
82.6605003572
 11
91.3259963668
 21
79.1904250493
  0
LINE
  5
466
100
AcDbEntity
  8
0
100
AcDbLine
 62
7
  6
CONTINUOUS
 10
193.434817836
 20
169.1561472231
 11
191.4726734453
 21
170.2889692358
  0
LINE
  5
467
100
AcDbEntity
  8
0
100
AcDbLine
 62
7
  6
CONTINUOUS
 10
193.4342236989
 20
173.891593449
 11
191.4715015801
 21
175.0247487504
  0
LINE
  5
468
100
AcDbEntity
  8
0
100
AcDbLine
 62
7
  6
CONTINUOUS
 10
193.4336360075
 20
178.6270427865
 11
191.4703419201
 21
179.7605280546
  0
LINE
  5
469
100
AcDbEntity
  8
0
100
AcDbLine
 62
7
  6
CONTINUOUS
 10
178.5827299928
 20
174.5190215433
 11
178.5827299929
 21
176.8059621518
  0
LINE
  5
46A
100
AcDbEntity
  8
0
100
AcDbLine
 62
7
  6
CONTINUOUS
 10
178.5827299928
 20
179.2598074676
 11
178.5827299928
 21
181.5467313136
  0
LINE
  5
46B
100
AcDbEntity
  8
0
100
AcDbLine
 62
7
  6
CONTINUOUS
 10
178.5827299928
 20
184.0005390119
 11
178.5827299928
 21
186.2874464653
  0
LINE
  5
46C
100
AcDbEntity
  8
0
100
AcDbLine
 62
7
  6
CONTINUOUS
 10
102.9225516997
 20
78.6189134881
 11
97.6192729206
 21
75.5570823341
  0
LINE
  5
46D
100
AcDbEntity
  8
0
100
AcDbLine
 62
7
  6
CONTINUOUS
 10
102.9225516997
 20
74.944652611
 11
97.6192729206
 21
71.882821457
  0
LINE
  5
46E
100
AcDbEntity
  8
0
100
AcDbLine
 62
7
  6
CONTINUOUS
 10
104.6903289565
 20
73.5158082705
 11
99.740602096
 21
70.6580991934
  0
LINE
  5
46F
100
AcDbEntity
  8
0
100
AcDbLine
 62
7
  6
CONTINUOUS
 10
161.6122378997
 20
106.216310998
 11
141.8133304577
 21
94.7854746896
  0
LINE
  5
470
100
AcDbEntity
  8
0
100
AcDbLine
 62
7
  6
CONTINUOUS
 10
112.4327594597
 20
228.6705426826
 11
142.838477641
 21
211.1161902382
  0
LINE
  5
471
100
AcDbEntity
  8
0
100
AcDbLine
 62
7
  6
CONTINUOUS
 10
112.362047604
 20
228.8338394943
 11
143.1213206479
 21
211.0753666727
  0
LINE
  5
472
100
AcDbEntity
  8
0
100
AcDbLine
 62
7
  6
CONTINUOUS
 10
193.4330546574
 20
183.3624951041
 11
191.471270461
 21
184.495105679
  0
LINE
  5
473
100
AcDbEntity
  8
0
100
AcDbLine
 62
7
  6
CONTINUOUS
 10
130.145822747
 20
223.3430212322
 11
121.6605060452
 21
228.2419102865
  0
LINE
  5
474
100
AcDbEntity
  8
0
100
AcDbLine
 62
7
  6
CONTINUOUS
 10
193.4324795463
 20
188.0979505447
 11
191.4701365494
 21
189.2308839549
  0
LINE
  5
475
100
AcDbEntity
  8
0
100
AcDbLine
 62
7
  6
CONTINUOUS
 10
183.5324568532
 20
158.5465067269
 11
183.5324568532
 21
160.8331758818
  0
LINE
  5
476
100
AcDbEntity
  8
0
100
AcDbLine
 62
7
  6
CONTINUOUS
 10
183.5324568533
 20
163.2857794305
 11
183.5324568533
 21
165.5724347171
  0
LINE
  5
477
100
AcDbEntity
  8
0
100
AcDbLine
 62
7
  6
CONTINUOUS
 10
183.5324568533
 20
168.0250130791
 11
183.5324568533
 21
170.3116548567
  0
LINE
  5
478
100
AcDbEntity
  8
0
100
AcDbLine
 62
7
  6
CONTINUOUS
 10
183.5324568532
 20
172.7642083133
 11
183.5324568533
 21
175.0508369316
  0
LINE
  5
479
100
AcDbEntity
  8
0
100
AcDbLine
 62
7
  6
CONTINUOUS
 10
103.2761507218
 20
68.6168954208
 11
108.2258775823
 21
71.4746044979
  0
LINE
  5
47A
100
AcDbEntity
  8
0
100
AcDbLine
 62
7
  6
CONTINUOUS
 10
141.8133304577
 20
88.9588750278
 11
160.9051281745
 21
99.981463783
  0
LINE
  5
47B
100
AcDbEntity
  8
0
100
AcDbLine
 62
7
  6
CONTINUOUS
 10
99.740602096
 20
64.1260798564
 11
103.2761507218
 21
66.1673176226
  0
LINE
  5
47C
100
AcDbEntity
  8
0
100
AcDbLine
 62
7
  6
CONTINUOUS
 10
114.8355600025
 20
72.4329745664
 11
105.7510347598
 21
67.18805278
  0
LINE
  5
47D
100
AcDbEntity
  8
0
100
AcDbLine
 62
7
  6
CONTINUOUS
 10
141.8133304577
 20
87.845204144
 11
161.6122378997
 21
99.2760404524
  0
LINE
  5
47E
100
AcDbEntity
  8
0
100
AcDbLine
 62
7
  6
CONTINUOUS
 10
193.4319105743
 20
192.8334089396
 11
191.4690142657
 21
193.9666620142
  0
LINE
  5
47F
100
AcDbEntity
  8
0
100
AcDbLine
 62
7
  6
CONTINUOUS
 10
136.3683057323
 20
226.9355520143
 11
130.1457609237
 21
230.5280586612
  0
LINE
  5
480
100
AcDbEntity
  8
0
100
AcDbLine
 62
7
  6
CONTINUOUS
 10
130.1457520918
 20
231.5078352987
 11
136.8405617139
 21
227.6426726028
  0
LINE
  5
481
100
AcDbEntity
  8
0
100
AcDbLine
 62
7
  6
CONTINUOUS
 10
130.1457520918
 20
233.1408401329
 11
137.4256978035
 21
228.9378566008
  0
LINE
  5
482
100
AcDbEntity
  8
0
100
AcDbLine
 62
7
  6
CONTINUOUS
 10
193.4354185255
 20
164.4207041643
 11
193.4319105652
 21
166.704929261
  0
LINE
  5
483
100
AcDbEntity
  8
0
100
AcDbLine
 62
7
  6
CONTINUOUS
 10
193.434817836
 20
169.1561472231
 11
193.4319105685
 21
171.4407176867
  0
LINE
  5
484
100
AcDbEntity
  8
0
100
AcDbLine
 62
7
  6
CONTINUOUS
 10
193.4342236989
 20
173.891593449
 11
193.4319105711
 21
176.1765053055
  0
LINE
  5
485
100
AcDbEntity
  8
0
100
AcDbLine
 62
7
  6
CONTINUOUS
 10
193.4336360075
 20
178.6270427865
 11
193.431910573
 21
180.91229213
  0
LINE
  5
486
100
AcDbEntity
  8
0
100
AcDbLine
 62
7
  6
CONTINUOUS
 10
193.4330546574
 20
183.3624951041
 11
193.4319105732
 21
185.6480800518
  0
LINE
  5
487
100
AcDbEntity
  8
0
100
AcDbLine
 62
7
  6
CONTINUOUS
 10
193.4324795463
 20
188.0979505447
 11
193.431910574
 21
190.3838655526
  0
LINE
  5
488
100
AcDbEntity
  8
0
100
AcDbLine
 62
7
  6
CONTINUOUS
 10
193.4319105743
 20
192.8334089396
 11
193.4319105743
 21
195.1196502942
  0
LINE
  5
489
100
AcDbEntity
  8
0
100
AcDbLine
 62
7
  6
CONTINUOUS
 10
197.6745335976
 20
221.5060925074
 11
197.6745335976
 21
113.7277734463
  0
LINE
  5
48A
100
AcDbEntity
  8
0
100
AcDbLine
 62
7
  6
CONTINUOUS
 10
105.7510347598
 20
60.656033443
 11
197.6745335976
 21
113.7277734463
  0
LINE
  5
48B
100
AcDbEntity
  8
0
100
AcDbLine
 62
7
  6
CONTINUOUS
 10
120.789519948
 20
248.0478086559
 11
115.3856140994
 21
250.8545004875
  0
LINE
  5
48C
100
AcDbEntity
  8
0
100
AcDbLine
 62
7
  6
CONTINUOUS
 10
175.2592742467
 20
217.9543292761
 11
157.9048325793
 21
227.9736941761
  0
LINE
  5
48D
100
AcDbEntity
  8
0
100
AcDbLine
 62
7
  6
CONTINUOUS
 10
149.175166521
 20
233.0136552057
 11
140.6108977145
 21
237.9581262476
  0
LINE
  5
48E
100
AcDbEntity
  8
0
100
AcDbLine
 62
7
  6
CONTINUOUS
 10
154.7176722583
 20
236.9579276242
 11
176.496649349
 21
224.3841137959
  0
LINE
  5
48F
100
AcDbEntity
  8
0
100
AcDbLine
 62
7
  6
CONTINUOUS
 10
176.6380737378
 20
224.4657647175
 11
154.7176722583
 21
237.1212281076
  0
LINE
  5
490
100
AcDbEntity
  8
0
100
AcDbLine
 62
7
  6
CONTINUOUS
 10
139.1257163876
 20
246.4902770665
 11
131.9133291589
 21
250.6542565728
  0
LINE
  5
491
100
AcDbEntity
  8
0
100
AcDbLine
 62
7
  6
CONTINUOUS
 10
152.5963077552
 20
243.2448598215
 11
185.8304403987
 21
224.0575584683
  0
LINE
  5
492
100
AcDbEntity
  8
0
100
AcDbLine
 62
7
  6
CONTINUOUS
 10
152.5963077552
 20
244.8778646558
 11
187.2446842874
 21
224.8740676843
  0
LINE
  5
493
100
AcDbEntity
  8
0
100
AcDbLine
 62
7
  6
CONTINUOUS
 10
146.762633387
 20
250.8994268328
 11
197.6745335976
 21
221.5060925074
  0
ARC
  5
494
100
AcDbEntity
  8
0
100
AcDbCircle
 62
7
  6
CONTINUOUS
 10
84.0106674413
 20
107.1844933596
 40
25.501774525
100
AcDbArc
 50
228.3106134167
 51
231.5573456391
  0
ARC
  5
495
100
AcDbEntity
  8
0
100
AcDbCircle
 62
7
  6
CONTINUOUS
 10
80.0256661453
 20
110.2290482155
 40
23.4314689292
100
AcDbArc
 50
187.0412579408
 51
187.6939736973
  0
ARC
  5
496
100
AcDbEntity
  8
0
100
AcDbCircle
 62
7
  6
CONTINUOUS
 10
78.4109711394
 20
108.2118908016
 40
18.2848861853
100
AcDbArc
 50
188.5127754865
 51
189.1082635542
  0
ARC
  5
497
100
AcDbEntity
  8
0
100
AcDbCircle
 62
7
  6
CONTINUOUS
 10
77.2761488804
 20
106.335183186
 40
13.6351468658
100
AcDbArc
 50
192.5647242386
 51
193.1940677789
  0
ARC
  5
498
100
AcDbEntity
  8
0
100
AcDbCircle
 62
7
  6
CONTINUOUS
 10
75.5803658591
 20
104.5679723245
 40
8.4712648822
100
AcDbArc
 50
205.002076102
 51
205.8252229973
  0
ARC
  5
499
100
AcDbEntity
  8
0
100
AcDbCircle
 62
7
  6
CONTINUOUS
 10
79.787670782
 20
153.6360811105
 40
3.2276076847
100
AcDbArc
 50
119.7709860883
 51
119.9996420955
  0
ARC
  5
49A
100
AcDbEntity
  8
0
100
AcDbCircle
 62
7
  6
CONTINUOUS
 10
72.3757023305
 20
99.8840219253
 40
2.6846976306
100
AcDbArc
 50
259.6213471656
 51
260.9809839937
  0
ARC
  5
49B
100
AcDbEntity
  8
0
100
AcDbCircle
 62
7
  6
CONTINUOUS
 10
143.2134049135
 20
189.9403271223
 40
2.029940956
100
AcDbArc
 50
63.9048807822
 51
66.4474436925
  0
ARC
  5
49C
100
AcDbEntity
  8
0
100
AcDbCircle
 62
7
  6
CONTINUOUS
 10
143.2695376569
 20
190.0552287643
 40
1.9020611134
100
AcDbArc
 50
61.768990244
 51
63.9009621438
  0
ARC
  5
49D
100
AcDbEntity
  8
0
100
AcDbCircle
 62
7
  6
CONTINUOUS
 10
48.0526537661
 20
149.8182170594
 40
1.7225015811
100
AcDbArc
 50
206.2910560804
 51
210.000061385
  0
ARC
  5
49E
100
AcDbEntity
  8
0
100
AcDbCircle
 62
7
  6
CONTINUOUS
 10
46.4110686368
 20
153.1537724513
 40
0.6948586414
100
AcDbArc
 50
127.9124892409
 51
135.2955794691
  0
ARC
  5
49F
100
AcDbEntity
  8
0
100
AcDbCircle
 62
7
  6
CONTINUOUS
 10
62.1389084404
 20
144.0777768754
 40
0.6858070069
100
AcDbArc
 50
127.1370697548
 51
131.1254520497
  0
ARC
  5
4A0
100
AcDbEntity
  8
0
100
AcDbCircle
 62
7
  6
CONTINUOUS
 10
54.3607014638
 20
148.5684251752
 40
0.6858070069
100
AcDbArc
 50
127.1370697549
 51
131.1254520497
  0
ARC
  5
4A1
100
AcDbEntity
  8
0
100
AcDbCircle
 62
7
  6
CONTINUOUS
 10
38.8042875106
 20
157.5497217746
 40
0.6858070069
100
AcDbArc
 50
127.1370697549
 51
131.1254520497
  0
ARC
  5
4A2
100
AcDbEntity
  8
0
100
AcDbCircle
 62
7
  6
CONTINUOUS
 10
46.4008224462
 20
153.1663748401
 40
0.6786202244
100
AcDbArc
 50
125.7676264823
 51
127.8837742106
  0
ARC
  5
4A3
100
AcDbEntity
  8
0
100
AcDbCircle
 62
7
  6
CONTINUOUS
 10
125.7592828981
 20
182.8913252632
 40
0.653077222
100
AcDbArc
 50
156.6018432539
 51
164.9057428163
  0
ARC
  5
4A4
100
AcDbEntity
  8
0
100
AcDbCircle
 62
7
  6
CONTINUOUS
 10
140.7437873803
 20
190.2552878846
 40
0.5920746753
100
AcDbArc
 50
350.2583541881
 51
359.9706133284
  0
ARC
  5
4A5
100
AcDbEntity
  8
0
100
AcDbCircle
 62
7
  6
CONTINUOUS
 10
806.4989498059
 20
-842.0055107999
 40
1219.1385919544
100
AcDbArc
 50
125.2474922687
 51
125.5532594346
  0
ARC
  5
4A6
100
AcDbEntity
  8
0
100
AcDbCircle
 62
7
  6
CONTINUOUS
 10
802.3236925788
 20
-837.8997013492
 40
1215.6003344674
100
AcDbArc
 50
124.8885464807
 51
125.5534578743
  0
ARC
  5
4A7
100
AcDbEntity
  8
0
100
AcDbCircle
 62
7
  6
CONTINUOUS
 10
760.914989367
 20
-813.5481296974
 40
1214.8185712558
100
AcDbArc
 50
124.883253735
 51
125.5568334324
  0
ARC
  5
4A8
100
AcDbEntity
  8
0
100
AcDbCircle
 62
7
  6
CONTINUOUS
 10
799.2543883842
 20
-833.7364402793
 40
1210.79690137
100
AcDbArc
 50
124.8821350723
 51
125.5579520951
  0
ARC
  5
4A9
100
AcDbEntity
  8
0
100
AcDbCircle
 62
7
  6
CONTINUOUS
 10
805.9597840494
 20
-834.388703468
 40
1204.0800192073
100
AcDbArc
 50
124.8786587047
 51
125.0286026561
  0
ARC
  5
4AA
100
AcDbEntity
  8
0
100
AcDbCircle
 62
7
  6
CONTINUOUS
 10
789.5514044104
 20
-824.6845720903
 40
1203.7365899963
100
AcDbArc
 50
124.8816486152
 51
125.0253733369
  0
ARC
  5
4AB
100
AcDbEntity
  8
0
100
AcDbCircle
 62
7
  6
CONTINUOUS
 10
784.1132134169
 20
-821.1281405994
 40
1202.8840631245
100
AcDbArc
 50
124.8815976837
 51
125.0254242684
  0
ARC
  5
4AC
100
AcDbEntity
  8
0
100
AcDbCircle
 62
7
  6
CONTINUOUS
 10
783.2070466653
 20
-821.8212505515
 40
1200.9142245783
100
AcDbArc
 50
124.8944140415
 51
125.0384992998
  0
ARC
  5
4AD
100
AcDbEntity
  8
0
100
AcDbCircle
 62
7
  6
CONTINUOUS
 10
744.7882634938
 20
-789.4097398271
 40
1183.4771507309
100
AcDbArc
 50
124.215200435
 51
124.519758332
  0
ARC
  5
4AE
100
AcDbEntity
  8
0
100
AcDbCircle
 62
7
  6
CONTINUOUS
 10
794.9897856493
 20
-845.6770639281
 40
1181.8133957297
100
AcDbArc
 50
124.1710097704
 51
124.8779856965
  0
ARC
  5
4AF
100
AcDbEntity
  8
0
100
AcDbCircle
 62
7
  6
CONTINUOUS
 10
794.4795702121
 20
-840.6728268709
 40
1181.3226682236
100
AcDbArc
 50
124.1572588078
 51
124.8644927464
  0
ARC
  5
4B0
100
AcDbEntity
  8
0
100
AcDbCircle
 62
7
  6
CONTINUOUS
 10
793.9750011529
 20
-835.6713787264
 40
1180.8372903789
100
AcDbArc
 50
124.1436536538
 51
124.8511426355
  0
ARC
  5
4B1
100
AcDbEntity
  8
0
100
AcDbCircle
 62
7
  6
CONTINUOUS
 10
793.4759865685
 20
-830.6726782827
 40
1180.3571774816
100
AcDbArc
 50
124.1301919971
 51
124.8379331022
  0
ARC
  5
4B2
100
AcDbEntity
  8
0
100
AcDbCircle
 62
7
  6
CONTINUOUS
 10
792.9824340111
 20
-825.6766814512
 40
1179.8822421311
100
AcDbArc
 50
124.1168715741
 51
124.8248619334
  0
ARC
  5
4B3
100
AcDbEntity
  8
0
100
AcDbCircle
 62
7
  6
CONTINUOUS
 10
792.4942547166
 20
-820.6833474708
 40
1179.4124017532
100
AcDbArc
 50
124.103690169
 51
124.8119269618
  0
ARC
  5
4B4
100
AcDbEntity
  8
0
100
AcDbCircle
 62
7
  6
CONTINUOUS
 10
791.2856767988
 20
-842.1851324091
 40
1174.9450068897
100
AcDbArc
 50
124.1800647845
 51
124.8911723984
  0
ARC
  5
4B5
100
AcDbEntity
  8
0
100
AcDbCircle
 62
7
  6
CONTINUOUS
 10
790.7876556533
 20
-837.1971335553
 40
1174.4745690115
100
AcDbArc
 50
124.1662828616
 51
124.8776588237
  0
ARC
  5
4B6
100
AcDbEntity
  8
0
100
AcDbCircle
 62
7
  6
CONTINUOUS
 10
790.2951321811
 20
-832.2117393867
 40
1174.009244553
100
AcDbArc
 50
124.1526470709
 51
124.8642883016
  0
ARC
  5
4B7
100
AcDbEntity
  8
0
100
AcDbCircle
 62
7
  6
CONTINUOUS
 10
789.8080158741
 20
-827.2289099314
 40
1173.5489506211
100
AcDbArc
 50
124.1391550954
 51
124.8510585675
  0
ARC
  5
4B8
100
AcDbEntity
  8
0
100
AcDbCircle
 62
7
  6
CONTINUOUS
 10
789.3262182315
 20
-822.2486060767
 40
1173.0936061603
100
AcDbArc
 50
124.1258046671
 51
124.8379674047
  0
ARC
  5
4B9
100
AcDbEntity
  8
0
100
AcDbCircle
 62
7
  6
CONTINUOUS
 10
788.849652656
 20
-817.27078947
 40
1172.6431318168
100
AcDbArc
 50
124.1125935652
 51
124.8250126427
  0
ARC
  5
4BA
100
AcDbEntity
  8
0
100
AcDbCircle
 62
7
  6
CONTINUOUS
 10
667.7043227211
 20
-664.9031904496
 40
1067.1496637199
100
AcDbArc
 50
125.6558414213
 51
126.4305675845
  0
ARC
  5
4BB
100
AcDbEntity
  8
0
100
AcDbCircle
 62
7
  6
CONTINUOUS
 10
685.8412922672
 20
-673.4863967247
 40
1063.123188994
100
AcDbArc
 50
125.6543742991
 51
126.4320347066
  0
ARC
  5
4BC
100
AcDbEntity
  8
0
100
AcDbCircle
 62
7
  6
CONTINUOUS
 10
664.914919665
 20
-661.350932359
 40
1063.0092987737
100
AcDbArc
 50
125.6543577326
 51
126.423246467
  0
ARC
  5
4BD
100
AcDbEntity
  8
0
100
AcDbCircle
 62
7
  6
CONTINUOUS
 10
726.525045922
 20
-726.5021620926
 40
1056.5066724407
100
AcDbArc
 50
120.3035225509
 51
121.2407964846
  0
ARC
  5
4BE
100
AcDbEntity
  8
0
100
AcDbCircle
 62
7
  6
CONTINUOUS
 10
726.0712319372
 20
-721.5130645756
 40
1056.0590204684
100
AcDbArc
 50
120.2892079045
 51
121.2267328512
  0
ARC
  5
4BF
100
AcDbEntity
  8
0
100
AcDbCircle
 62
7
  6
CONTINUOUS
 10
725.6223810855
 20
-716.5265877916
 40
1055.6161993447
100
AcDbArc
 50
120.2750419832
 51
121.2128154868
  0
ARC
  5
4C0
100
AcDbEntity
  8
0
100
AcDbCircle
 62
7
  6
CONTINUOUS
 10
725.4175513488
 20
-741.4757857641
 40
1052.5212196925
100
AcDbArc
 50
120.3604725343
 51
120.9870828879
  0
ARC
  5
4C1
100
AcDbEntity
  8
0
100
AcDbCircle
 62
7
  6
CONTINUOUS
 10
724.9455519703
 20
-736.477089657
 40
1052.0558369154
100
AcDbArc
 50
120.3455375908
 51
120.972320352
  0
ARC
  5
4C2
100
AcDbEntity
  8
0
100
AcDbCircle
 62
7
  6
CONTINUOUS
 10
724.4791778889
 20
-731.4817578256
 40
1051.5962695618
100
AcDbArc
 50
120.3307613338
 51
120.9577143763
  0
ARC
  5
4C3
100
AcDbEntity
  8
0
100
AcDbCircle
 62
7
  6
CONTINUOUS
 10
724.0179893429
 20
-726.489153532
 40
1051.1417436463
100
AcDbArc
 50
120.3161410434
 51
120.9432626773
  0
ARC
  5
4C4
100
AcDbEntity
  8
0
100
AcDbCircle
 62
7
  6
CONTINUOUS
 10
722.6683978607
 20
-722.2412906574
 40
1048.908133021
100
AcDbArc
 50
120.3020542601
 51
121.2461777896
  0
ARC
  5
4C5
100
AcDbEntity
  8
0
100
AcDbCircle
 62
7
  6
CONTINUOUS
 10
722.2088211078
 20
-717.2402567419
 40
1048.4472767233
100
AcDbArc
 50
120.287712438
 51
121.2320829927
  0
ARC
  5
4C6
100
AcDbEntity
  8
0
100
AcDbCircle
 62
7
  6
CONTINUOUS
 10
721.7542814666
 20
-712.2419780656
 40
1047.9914044246
100
AcDbArc
 50
120.2735196153
 51
121.2181347811
  0
ARC
  5
4C7
100
AcDbEntity
  8
0
100
AcDbCircle
 62
7
  6
CONTINUOUS
 10
722.4652148103
 20
-738.7224154093
 40
1046.6804843077
100
AcDbArc
 50
120.3603359965
 51
120.9905780194
  0
ARC
  5
4C8
100
AcDbEntity
  8
0
100
AcDbCircle
 62
7
  6
CONTINUOUS
 10
721.9864794411
 20
-733.7108815201
 40
1046.200623302
100
AcDbArc
 50
120.3453755346
 51
120.975779794
  0
ARC
  5
4C9
100
AcDbEntity
  8
0
100
AcDbCircle
 62
7
  6
CONTINUOUS
 10
721.5099880456
 20
-728.6970051958
 40
1045.7199444052
100
AcDbArc
 50
120.3305719731
 51
120.9611405471
  0
ARC
  5
4CA
100
AcDbEntity
  8
0
100
AcDbCircle
 62
7
  6
CONTINUOUS
 10
721.0388105953
 20
-723.6860670569
 40
1045.2445534536
100
AcDbArc
 50
120.3159246582
 51
120.9466559194
  0
SPLINE
  5
4CB
100
AcDbEntity
  8
0
100
AcDbSpline
 62
7
  6
CONTINUOUS
 70
0
 71
3
 72
11
 73
7
 74
0
 42
0.0000001
 43
0.0000001
 44
0.0000000001
 40
0.0
 40
0.0
 40
0.0
 40
0.0
 40
0.261651817
 40
0.5129145417
 40
0.7575790609
 40
1.0
 40
1.0
 40
1.0
 40
1.0
 10
136.8638475191
 20
218.5644465495
 30
0.0
 10
136.7450509115
 20
218.7583673989
 30
0.0
 10
136.537391941
 20
219.1549010524
 30
0.0
 10
136.3228067543
 20
219.780228884
 30
0.0
 10
136.2151135514
 20
220.4157652098
 30
0.0
 10
136.2157072326
 20
220.8415032637
 30
0.0
 10
136.2337143224
 20
221.0514335531
 30
0.0
  0
SPLINE
  5
4CC
100
AcDbEntity
  8
0
100
AcDbSpline
 62
7
  6
CONTINUOUS
 70
0
 71
3
 72
24
 73
20
 74
0
 42
0.0000001
 43
0.0000001
 44
0.0000000001
 40
0.0
 40
0.0
 40
0.0
 40
0.0
 40
0.0619213756
 40
0.1276999385
 40
0.1966767705
 40
0.2680283835
 40
0.3408258288
 40
0.4140761418
 40
0.4867678997
 40
0.5579131987
 40
0.6265912577
 40
0.6919946153
 40
0.7534817917
 40
0.8106390142
 40
0.8633537588
 40
0.9118991021
 40
0.9570126635
 40
0.9786868429
 40
1.0
 40
1.0
 40
1.0
 40
1.0
 10
155.0485869737
 20
231.3193716205
 30
0.0
 10
154.6718468066
 20
231.5368777368
 30
0.0
 10
153.8655768218
 20
231.9358161441
 30
0.0
 10
152.5660115306
 20
232.4116819243
 30
0.0
 10
151.162295551
 20
232.7756070787
 30
0.0
 10
149.6831982272
 20
233.0201029504
 30
0.0
 10
148.1588255302
 20
233.14025907
 30
0.0
 10
146.6203609848
 20
233.1336027357
 30
0.0
 10
145.0992798157
 20
233.0002770712
 30
0.0
 10
143.6266766766
 20
232.7430012562
 30
0.0
 10
142.2325784921
 20
232.3669965083
 30
0.0
 10
140.94529106
 20
231.8798168277
 30
0.0
 10
139.7908019135
 20
231.2910495425
 30
0.0
 10
138.7923196191
 20
230.6119905937
 30
0.0
 10
137.9700789832
 20
229.8549030032
 30
0.0
 10
137.3417087666
 20
229.0335007549
 30
0.0
 10
136.9879921568
 20
228.2963895903
 30
0.0
 10
136.8227295585
 20
227.698619427
 30
0.0
 10
136.778002643
 20
227.3990108246
 30
0.0
 10
136.7652062623
 20
227.2498261427
 30
0.0
  0
SPLINE
  5
4CD
100
AcDbEntity
  8
0
100
AcDbSpline
 62
7
  6
CONTINUOUS
 70
0
 71
3
 72
14
 73
10
 74
0
 42
0.0000001
 43
0.0000001
 44
0.0000000001
 40
0.0
 40
0.0
 40
0.0
 40
0.0
 40
0.1077541465
 40
0.2181888485
 40
0.3328140074
 40
0.4528509879
 40
0.5791888728
 40
0.712395105
 40
1.0
 40
1.0
 40
1.0
 40
1.0
 10
158.1746855945
 20
227.2498259615
 30
0.0
 10
158.1583382868
 20
227.4405195844
 30
0.0
 10
158.0941141392
 20
227.8246232677
 30
0.0
 10
157.9075924067
 20
228.3877723193
 30
0.0
 10
157.6322555259
 20
228.9376465385
 30
0.0
 10
157.2710241959
 20
229.4694457422
 30
0.0
 10
156.8272770092
 20
229.9790347958
 30
0.0
 10
156.1128893537
 20
230.6399777646
 30
0.0
 10
155.4909934645
 20
231.0639538923
 30
0.0
 10
155.0485869737
 20
231.3193716205
 30
0.0
  0
SPLINE
  5
4CE
100
AcDbEntity
  8
0
100
AcDbSpline
 62
7
  6
CONTINUOUS
 70
0
 71
3
 72
11
 73
7
 74
0
 42
0.0000001
 43
0.0000001
 44
0.0000000001
 40
0.0
 40
0.0
 40
0.0
 40
0.0
 40
0.2409456489
 40
0.4847126626
 40
0.7363166507
 40
1.0
 40
1.0
 40
1.0
 40
1.0
 10
158.7061772159
 20
221.0514333646
 30
0.0
 10
158.7256781325
 20
220.8239546841
 30
0.0
 10
158.7230667895
 20
220.3616203618
 30
0.0
 10
158.5912390683
 20
219.6727855339
 30
0.0
 10
158.3340706519
 20
218.9975151392
 30
0.0
 10
158.0882859504
 20
218.5730673496
 30
0.0
 10
157.9482281977
 20
218.3661539735
 30
0.0
  0
SPLINE
  5
4CF
100
AcDbEntity
  8
0
100
AcDbSpline
 62
7
  6
CONTINUOUS
 70
0
 71
3
 72
25
 73
21
 74
0
 42
0.0000001
 43
0.0000001
 44
0.0000000001
 40
0.0
 40
0.0
 40
0.0
 40
0.0
 40
0.0628403756
 40
0.1297299275
 40
0.1999308407
 40
0.2725199446
 40
0.3464603046
 40
0.4206501698
 40
0.4939770243
 40
0.5653681064
 40
0.6338432846
 40
0.6985724705
 40
0.7589425378
 40
0.8146366927
 40
0.8657293005
 40
0.9127875749
 40
0.9351749057
 40
0.9570235013
 40
0.9785530594
 40
1.0
 40
1.0
 40
1.0
 40
1.0
 10
139.8913114059
 20
222.5683667277
 30
0.0
 10
140.2847416132
 20
222.3412248302
 30
0.0
 10
141.1289561515
 20
221.9264484719
 30
0.0
 10
142.4918774396
 20
221.4378652267
 30
0.0
 10
143.9652997808
 20
221.0716982852
 30
0.0
 10
145.5164331867
 20
220.8361464896
 30
0.0
 10
147.1109751387
 20
220.7363405006
 30
0.0
 10
148.7134913172
 20
220.7745181254
 30
0.0
 10
150.2883766395
 20
220.9498231818
 30
0.0
 10
151.8006877233
 20
221.2583798421
 30
0.0
 10
153.2169843747
 20
221.6934079506
 30
0.0
 10
154.5061241085
 20
222.2455105654
 30
0.0
 10
155.6399350254
 20
222.9030030643
 30
0.0
 10
156.5937019325
 20
223.6527579569
 30
0.0
 10
157.3459430726
 20
224.4799059533
 30
0.0
 10
157.7966558937
 20
225.2345853127
 30
0.0
 10
158.0303653369
 20
225.853349776
 30
0.0
 10
158.1428027588
 20
226.3166347737
 30
0.0
 10
158.1944050132
 20
226.7836804167
 30
0.0
 10
158.1879284399
 20
227.0953463246
 30
0.0
 10
158.1746855945
 20
227.2498259615
 30
0.0
  0
SPLINE
  5
4D0
100
AcDbEntity
  8
0
100
AcDbSpline
 62
7
  6
CONTINUOUS
 70
0
 71
3
 72
15
 73
11
 74
0
 42
0.0000001
 43
0.0000001
 44
0.0000000001
 40
0.0
 40
0.0
 40
0.0
 40
0.0
 40
0.1086460792
 40
0.2185254258
 40
0.3318544097
 40
0.4505173396
 40
0.5759466215
 40
0.7090732539
 40
0.8504172933
 40
1.0
 40
1.0
 40
1.0
 40
1.0
 10
136.7652062623
 20
227.2498261427
 30
0.0
 10
136.7468187727
 20
227.0354583589
 30
0.0
 10
136.7488748326
 20
226.5998997494
 30
0.0
 10
136.87107897
 20
225.950809533
 30
0.0
 10
137.1102087063
 20
225.3140260077
 30
0.0
 10
137.4625998383
 20
224.6970558936
 30
0.0
 10
137.9235286753
 20
224.1063037518
 30
0.0
 10
138.4874722679
 20
223.5475982758
 30
0.0
 10
139.1480730704
 20
223.0266605663
 30
0.0
 10
139.6347733902
 20
222.7164756695
 30
0.0
 10
139.8913114059
 20
222.5683667277
 30
0.0
  0
SPLINE
  5
4D1
100
AcDbEntity
  8
0
100
AcDbSpline
 62
7
  6
CONTINUOUS
 70
0
 71
3
 72
11
 73
7
 74
0
 42
0.0000001
 43
0.0000001
 44
0.0000000001
 40
0.0
 40
0.0
 40
0.0
 40
0.0
 40
0.2187339227
 40
0.45488073
 40
0.7147469252
 40
1.0
 40
1.0
 40
1.0
 40
1.0
 10
61.6878463616
 20
144.5943756093
 30
0.0
 10
61.6373279475
 20
144.5502775974
 30
0.0
 10
61.5454385241
 20
144.4426799221
 30
0.0
 10
61.4490297646
 20
144.243836195
 30
0.0
 10
61.3915025857
 20
144.0098676545
 30
0.0
 10
61.3798995068
 20
143.8423616599
 30
0.0
 10
61.3798995068
 20
143.754910955
 30
0.0
  0
SPLINE
  5
4D2
100
AcDbEntity
  8
0
100
AcDbSpline
 62
7
  6
CONTINUOUS
 70
0
 71
3
 72
11
 73
7
 74
0
 42
0.0000001
 43
0.0000001
 44
0.0000000001
 40
0.0
 40
0.0
 40
0.0
 40
0.0
 40
0.2187339227
 40
0.45488073
 40
0.7147469252
 40
1.0
 40
1.0
 40
1.0
 40
1.0
 10
53.909639385
 20
149.085023909
 30
0.0
 10
53.8591209709
 20
149.0409258972
 30
0.0
 10
53.7672315475
 20
148.9333282218
 30
0.0
 10
53.670822788
 20
148.7344844948
 30
0.0
 10
53.6132956091
 20
148.5005159543
 30
0.0
 10
53.6016925302
 20
148.3330099596
 30
0.0
 10
53.6016925302
 20
148.2455592548
 30
0.0
  0
SPLINE
  5
4D3
100
AcDbEntity
  8
0
100
AcDbSpline
 62
7
  6
CONTINUOUS
 70
0
 71
3
 72
11
 73
7
 74
0
 42
0.0000001
 43
0.0000001
 44
0.0000000001
 40
0.0
 40
0.0
 40
0.0
 40
0.0
 40
0.2187339227
 40
0.45488073
 40
0.7147469252
 40
1.0
 40
1.0
 40
1.0
 40
1.0
 10
38.3532254318
 20
158.0663205084
 30
0.0
 10
38.3027070176
 20
158.0222224966
 30
0.0
 10
38.2108175942
 20
157.9146248213
 30
0.0
 10
38.1144088347
 20
157.7157810942
 30
0.0
 10
38.0568816558
 20
157.4818125537
 30
0.0
 10
38.045278577
 20
157.314306559
 30
0.0
 10
38.045278577
 20
157.2268558542
 30
0.0
  0
SPLINE
  5
4D4
100
AcDbEntity
  8
0
100
AcDbSpline
 62
7
  6
CONTINUOUS
 70
0
 71
3
 72
12
 73
8
 74
0
 42
0.0000001
 43
0.0000001
 44
0.0000000001
 40
0.0
 40
0.0
 40
0.0
 40
0.0
 40
0.2962578223
 40
0.5580887707
 40
0.7883647555
 40
0.895505491
 40
1.0
 40
1.0
 40
1.0
 40
1.0
 10
78.5126640719
 20
155.0345105209
 30
0.0
 10
78.3126834733
 20
155.1234690334
 30
0.0
 10
77.9482705464
 20
155.3226261233
 30
0.0
 10
77.5042458481
 20
155.7076748266
 30
0.0
 10
77.2596567648
 20
156.0872101681
 30
0.0
 10
77.1643315594
 20
156.4013115199
 30
0.0
 10
77.1485736321
 20
156.5580935464
 30
0.0
 10
77.1485911937
 20
156.6352936598
 30
0.0
  0
SPLINE
  5
4D5
100
AcDbEntity
  8
0
100
AcDbSpline
 62
7
  6
CONTINUOUS
 70
0
 71
3
 72
11
 73
7
 74
0
 42
0.0000001
 43
0.0000001
 44
0.0000000001
 40
0.0
 40
0.0
 40
0.0
 40
0.0
 40
0.217774924
 40
0.4509311967
 40
0.710224778
 40
1.0
 40
1.0
 40
1.0
 40
1.0
 10
36.7574392454
 20
158.3144202741
 30
0.0
 10
36.8563932572
 20
158.3715510619
 30
0.0
 10
37.0837658434
 20
158.4541003073
 30
0.0
 10
37.4613899614
 20
158.4636244872
 30
0.0
 10
37.8639097652
 20
158.3665104974
 30
0.0
 10
38.1257509699
 20
158.2418848335
 30
0.0
 10
38.257421504
 20
158.165866535
 30
0.0
  0
SPLINE
  5
4D6
100
AcDbEntity
  8
0
100
AcDbSpline
 62
7
  6
CONTINUOUS
 70
0
 71
3
 72
11
 73
7
 74
0
 42
0.0000001
 43
0.0000001
 44
0.0000000001
 40
0.0
 40
0.0
 40
0.0
 40
0.0
 40
0.217774924
 40
0.4509311967
 40
0.710224778
 40
1.0
 40
1.0
 40
1.0
 40
1.0
 10
44.5356462221
 20
153.8237719744
 30
0.0
 10
44.6346002339
 20
153.8809027622
 30
0.0
 10
44.86197282
 20
153.9634520076
 30
0.0
 10
45.239596938
 20
153.9729761875
 30
0.0
 10
45.6421167418
 20
153.8758621977
 30
0.0
 10
45.9039579465
 20
153.7512365338
 30
0.0
 10
46.0356284806
 20
153.6752182352
 30
0.0
  0
SPLINE
  5
4D7
100
AcDbEntity
  8
0
100
AcDbSpline
 62
7
  6
CONTINUOUS
 70
0
 71
3
 72
11
 73
7
 74
0
 42
0.0000001
 43
0.0000001
 44
0.0000000001
 40
0.0
 40
0.0
 40
0.0
 40
0.0
 40
0.217774924
 40
0.4509311967
 40
0.710224778
 40
1.0
 40
1.0
 40
1.0
 40
1.0
 10
52.3138531987
 20
149.3331236746
 30
0.0
 10
52.4128072105
 20
149.3902544625
 30
0.0
 10
52.6401797966
 20
149.4728037079
 30
0.0
 10
53.0178039146
 20
149.4823278878
 30
0.0
 10
53.4203237184
 20
149.385213898
 30
0.0
 10
53.6821649232
 20
149.2605882341
 30
0.0
 10
53.8138354572
 20
149.1845699355
 30
0.0
  0
SPLINE
  5
4D8
100
AcDbEntity
  8
0
100
AcDbSpline
 62
7
  6
CONTINUOUS
 70
0
 71
3
 72
9
 73
5
 74
0
 42
0.0000001
 43
0.0000001
 44
0.0000000001
 40
0.0
 40
0.0
 40
0.0
 40
0.0
 40
0.2691727945
 40
1.0
 40
1.0
 40
1.0
 40
1.0
 10
78.1738844002
 20
156.4312814397
 30
0.0
 10
78.1020827256
 20
156.389826971
 30
0.0
 10
77.8415269275
 20
156.2259757759
 30
0.0
 10
77.6052085686
 20
156.0189589128
 30
0.0
 10
77.4654624166
 20
155.8424832219
 30
0.0
  0
SPLINE
  5
4D9
100
AcDbEntity
  8
0
100
AcDbSpline
 62
7
  6
CONTINUOUS
 70
0
 71
3
 72
11
 73
7
 74
0
 42
0.0000001
 43
0.0000001
 44
0.0000000001
 40
0.0
 40
0.0
 40
0.0
 40
0.0
 40
0.217774924
 40
0.4509311967
 40
0.710224778
 40
1.0
 40
1.0
 40
1.0
 40
1.0
 10
60.0920601753
 20
144.8424753749
 30
0.0
 10
60.1910141871
 20
144.8996061627
 30
0.0
 10
60.4183867732
 20
144.9821554081
 30
0.0
 10
60.7960108912
 20
144.991679588
 30
0.0
 10
61.1985306951
 20
144.8945655982
 30
0.0
 10
61.4603718998
 20
144.7699399343
 30
0.0
 10
61.5920424338
 20
144.6939216358
 30
0.0
  0
SPLINE
  5
4DA
100
AcDbEntity
  8
0
100
AcDbSpline
 62
7
  6
CONTINUOUS
 70
0
 71
3
 72
11
 73
7
 74
0
 42
0.0000001
 43
0.0000001
 44
0.0000000001
 40
0.0
 40
0.0
 40
0.0
 40
0.0
 40
0.217774924
 40
0.4509311967
 40
0.710224778
 40
1.0
 40
1.0
 40
1.0
 40
1.0
 10
67.8702671519
 20
140.3518270752
 30
0.0
 10
67.9692211637
 20
140.408957863
 30
0.0
 10
68.1965937499
 20
140.4915071084
 30
0.0
 10
68.5742178679
 20
140.5010312883
 30
0.0
 10
68.9767376717
 20
140.4039172985
 30
0.0
 10
69.2385788764
 20
140.2792916346
 30
0.0
 10
69.3702494105
 20
140.2032733361
 30
0.0
  0
SPLINE
  5
4DB
100
AcDbEntity
  8
0
100
AcDbSpline
 62
7
  6
CONTINUOUS
 70
0
 71
3
 72
11
 73
7
 74
0
 42
0.0000001
 43
0.0000001
 44
0.0000000001
 40
0.0
 40
0.0
 40
0.0
 40
0.0
 40
0.217774924
 40
0.4509311967
 40
0.710224778
 40
1.0
 40
1.0
 40
1.0
 40
1.0
 10
75.6484741285
 20
135.8611787755
 30
0.0
 10
75.7474281403
 20
135.9183095633
 30
0.0
 10
75.9748007265
 20
136.0008588087
 30
0.0
 10
76.3524248445
 20
136.0103829886
 30
0.0
 10
76.7549446483
 20
135.9132689988
 30
0.0
 10
77.016785853
 20
135.7886433349
 30
0.0
 10
77.1484563871
 20
135.7126250364
 30
0.0
  0
SPLINE
  5
4DC
100
AcDbEntity
  8
0
100
AcDbSpline
 62
7
  6
CONTINUOUS
 70
0
 71
3
 72
11
 73
7
 74
0
 42
0.0000001
 43
0.0000001
 44
0.0000000001
 40
0.0
 40
0.0
 40
0.0
 40
0.0
 40
0.217774924
 40
0.4509311967
 40
0.710224778
 40
1.0
 40
1.0
 40
1.0
 40
1.0
 10
83.4266811051
 20
131.3705304758
 30
0.0
 10
83.5256351169
 20
131.4276612636
 30
0.0
 10
83.7530077031
 20
131.510210509
 30
0.0
 10
84.1306318211
 20
131.5197346889
 30
0.0
 10
84.5331516249
 20
131.4226206991
 30
0.0
 10
84.7949928296
 20
131.2979950352
 30
0.0
 10
84.9266633637
 20
131.2219767366
 30
0.0
  0
SPLINE
  5
4DD
100
AcDbEntity
  8
0
100
AcDbSpline
 62
7
  6
CONTINUOUS
 70
0
 71
3
 72
13
 73
9
 74
0
 42
0.0000001
 43
0.0000001
 44
0.0000000001
 40
0.0
 40
0.0
 40
0.0
 40
0.0
 40
0.1142484259
 40
0.2375469717
 40
0.4999989156
 40
0.762451453
 40
0.885750692
 40
1.0
 40
1.0
 40
1.0
 40
1.0
 10
86.6944376766
 20
130.2013748503
 30
0.0
 10
86.8396490973
 20
130.1175388941
 30
0.0
 10
87.1265246156
 20
129.9164528093
 30
0.0
 10
87.6635666899
 20
129.4138039636
 30
0.0
 10
88.2308450252
 20
128.6389366279
 30
0.0
 10
88.6182649985
 20
127.7602264383
 30
0.0
 10
88.7850558869
 20
127.0438079264
 30
0.0
 10
88.815766852
 20
126.6948213873
 30
0.0
 10
88.815766852
 20
126.5271453354
 30
0.0
  0
SPLINE
  5
4DE
100
AcDbEntity
  8
0
100
AcDbSpline
 62
7
  6
CONTINUOUS
 70
0
 71
3
 72
13
 73
9
 74
0
 42
0.0000001
 43
0.0000001
 44
0.0000000001
 40
0.0
 40
0.0
 40
0.0
 40
0.0
 40
0.1142484259
 40
0.2375469717
 40
0.4999989156
 40
0.762451453
 40
0.885750692
 40
1.0
 40
1.0
 40
1.0
 40
1.0
 10
78.9162306999
 20
134.6920231501
 30
0.0
 10
79.0614421207
 20
134.6081871938
 30
0.0
 10
79.348317639
 20
134.407101109
 30
0.0
 10
79.8853597133
 20
133.9044522634
 30
0.0
 10
80.4526380486
 20
133.1295849276
 30
0.0
 10
80.8400580219
 20
132.2508747381
 30
0.0
 10
81.0068489103
 20
131.5344562261
 30
0.0
 10
81.0375598754
 20
131.1854696871
 30
0.0
 10
81.0375598754
 20
131.0177936351
 30
0.0
  0
SPLINE
  5
4DF
100
AcDbEntity
  8
0
100
AcDbSpline
 62
7
  6
CONTINUOUS
 70
0
 71
3
 72
13
 73
9
 74
0
 42
0.0000001
 43
0.0000001
 44
0.0000000001
 40
0.0
 40
0.0
 40
0.0
 40
0.0
 40
0.1142484259
 40
0.2375469717
 40
0.4999989156
 40
0.762451453
 40
0.885750692
 40
1.0
 40
1.0
 40
1.0
 40
1.0
 10
71.1380237233
 20
139.1826714498
 30
0.0
 10
71.2832351441
 20
139.0988354936
 30
0.0
 10
71.5701106623
 20
138.8977494088
 30
0.0
 10
72.1071527366
 20
138.3951005631
 30
0.0
 10
72.6744310719
 20
137.6202332274
 30
0.0
 10
73.0618510453
 20
136.7415230378
 30
0.0
 10
73.2286419337
 20
136.0251045258
 30
0.0
 10
73.2593528988
 20
135.6761179868
 30
0.0
 10
73.2593528988
 20
135.5084419348
 30
0.0
  0
SPLINE
  5
4E0
100
AcDbEntity
  8
0
100
AcDbSpline
 62
7
  6
CONTINUOUS
 70
0
 71
3
 72
13
 73
9
 74
0
 42
0.0000001
 43
0.0000001
 44
0.0000000001
 40
0.0
 40
0.0
 40
0.0
 40
0.0
 40
0.1142484259
 40
0.2375469717
 40
0.4999989156
 40
0.762451453
 40
0.885750692
 40
1.0
 40
1.0
 40
1.0
 40
1.0
 10
63.3598167467
 20
143.6733197495
 30
0.0
 10
63.5050281674
 20
143.5894837933
 30
0.0
 10
63.7919036857
 20
143.3883977085
 30
0.0
 10
64.32894576
 20
142.8857488628
 30
0.0
 10
64.8962240953
 20
142.1108815271
 30
0.0
 10
65.2836440686
 20
141.2321713375
 30
0.0
 10
65.450434957
 20
140.5157528255
 30
0.0
 10
65.4811459221
 20
140.1667662865
 30
0.0
 10
65.4811459221
 20
139.9990902346
 30
0.0
  0
SPLINE
  5
4E1
100
AcDbEntity
  8
0
100
AcDbSpline
 62
7
  6
CONTINUOUS
 70
0
 71
3
 72
13
 73
9
 74
0
 42
0.0000001
 43
0.0000001
 44
0.0000000001
 40
0.0
 40
0.0
 40
0.0
 40
0.0
 40
0.1142484259
 40
0.2375469717
 40
0.4999989156
 40
0.762451453
 40
0.885750692
 40
1.0
 40
1.0
 40
1.0
 40
1.0
 10
55.5816097701
 20
148.1639680492
 30
0.0
 10
55.7268211908
 20
148.080132093
 30
0.0
 10
56.0136967091
 20
147.8790460082
 30
0.0
 10
56.5507387834
 20
147.3763971625
 30
0.0
 10
57.1180171187
 20
146.6015298268
 30
0.0
 10
57.505437092
 20
145.7228196372
 30
0.0
 10
57.6722279804
 20
145.0064011253
 30
0.0
 10
57.7029389455
 20
144.6574145862
 30
0.0
 10
57.7029389455
 20
144.4897385343
 30
0.0
  0
SPLINE
  5
4E2
100
AcDbEntity
  8
0
100
AcDbSpline
 62
7
  6
CONTINUOUS
 70
0
 71
3
 72
13
 73
9
 74
0
 42
0.0000001
 43
0.0000001
 44
0.0000000001
 40
0.0
 40
0.0
 40
0.0
 40
0.0
 40
0.1142484259
 40
0.2375469717
 40
0.4999989156
 40
0.762451453
 40
0.885750692
 40
1.0
 40
1.0
 40
1.0
 40
1.0
 10
47.8034027935
 20
152.6546163489
 30
0.0
 10
47.9486142142
 20
152.5707803927
 30
0.0
 10
48.2354897325
 20
152.3696943079
 30
0.0
 10
48.7725318068
 20
151.8670454623
 30
0.0
 10
49.3398101421
 20
151.0921781265
 30
0.0
 10
49.7272301154
 20
150.213467937
 30
0.0
 10
49.8940210038
 20
149.497049425
 30
0.0
 10
49.9247319689
 20
149.148062886
 30
0.0
 10
49.9247319689
 20
148.980386834
 30
0.0
  0
SPLINE
  5
4E3
100
AcDbEntity
  8
0
100
AcDbSpline
 62
7
  6
CONTINUOUS
 70
0
 71
3
 72
13
 73
9
 74
0
 42
0.0000001
 43
0.0000001
 44
0.0000000001
 40
0.0
 40
0.0
 40
0.0
 40
0.0
 40
0.1142484259
 40
0.2375469717
 40
0.4999989156
 40
0.762451453
 40
0.885750692
 40
1.0
 40
1.0
 40
1.0
 40
1.0
 10
40.0251958169
 20
157.1452646487
 30
0.0
 10
40.1704072376
 20
157.0614286924
 30
0.0
 10
40.4572827559
 20
156.8603426076
 30
0.0
 10
40.9943248302
 20
156.357693762
 30
0.0
 10
41.5616031655
 20
155.5828264263
 30
0.0
 10
41.9490231388
 20
154.7041162367
 30
0.0
 10
42.1158140272
 20
153.9876977247
 30
0.0
 10
42.1465249923
 20
153.6387111857
 30
0.0
 10
42.1465249923
 20
153.4710351337
 30
0.0
  0
SPLINE
  5
4E4
100
AcDbEntity
  8
0
100
AcDbSpline
 62
7
  6
CONTINUOUS
 70
0
 71
3
 72
10
 73
6
 74
0
 42
0.0000001
 43
0.0000001
 44
0.0000000001
 40
0.0
 40
0.0
 40
0.0
 40
0.0
 40
0.23594075
 40
0.4780665954
 40
1.0
 40
1.0
 40
1.0
 40
1.0
 10
77.1485911937
 20
156.6352936598
 30
0.0
 10
77.1486091287
 20
156.7141352961
 30
0.0
 10
77.1650507554
 20
156.874363903
 30
0.0
 10
77.2644680264
 20
157.1951415753
 30
0.0
 10
77.4084920946
 20
157.4135128235
 30
0.0
 10
77.5232325662
 20
157.5448633754
 30
0.0
  0
SPLINE
  5
4E5
100
AcDbEntity
  8
0
100
AcDbSpline
 62
7
  6
CONTINUOUS
 70
0
 71
3
 72
11
 73
7
 74
0
 42
0.0000001
 43
0.0000001
 44
0.0000000001
 40
0.0
 40
0.0
 40
0.0
 40
0.0
 40
0.2897762172
 40
0.5490701576
 40
0.7822260326
 40
1.0
 40
1.0
 40
1.0
 40
1.0
 10
82.8053341882
 20
129.9971917488
 30
0.0
 10
82.8053341882
 20
130.1492355123
 30
0.0
 10
82.8283237188
 20
130.4383181588
 30
0.0
 10
82.9454804748
 20
130.8354796478
 30
0.0
 10
83.1425441021
 20
131.1577589723
 30
0.0
 10
83.3277248826
 20
131.3133984116
 30
0.0
 10
83.4266811051
 20
131.3705304758
 30
0.0
  0
SPLINE
  5
4E6
100
AcDbEntity
  8
0
100
AcDbSpline
 62
7
  6
CONTINUOUS
 70
0
 71
3
 72
11
 73
7
 74
0
 42
0.0000001
 43
0.0000001
 44
0.0000000001
 40
0.0
 40
0.0
 40
0.0
 40
0.0
 40
0.2897762172
 40
0.5490701576
 40
0.7822260326
 40
1.0
 40
1.0
 40
1.0
 40
1.0
 10
75.0271272116
 20
134.4878400485
 30
0.0
 10
75.0271272116
 20
134.639883812
 30
0.0
 10
75.0501167422
 20
134.9289664585
 30
0.0
 10
75.1672734982
 20
135.3261279475
 30
0.0
 10
75.3643371254
 20
135.6484072721
 30
0.0
 10
75.549517906
 20
135.8040467113
 30
0.0
 10
75.6484741285
 20
135.8611787755
 30
0.0
  0
SPLINE
  5
4E7
100
AcDbEntity
  8
0
100
AcDbSpline
 62
7
  6
CONTINUOUS
 70
0
 71
3
 72
11
 73
7
 74
0
 42
0.0000001
 43
0.0000001
 44
0.0000000001
 40
0.0
 40
0.0
 40
0.0
 40
0.0
 40
0.2897762172
 40
0.5490701576
 40
0.7822260326
 40
1.0
 40
1.0
 40
1.0
 40
1.0
 10
67.248920235
 20
138.9784883483
 30
0.0
 10
67.248920235
 20
139.1305321118
 30
0.0
 10
67.2719097656
 20
139.4196147582
 30
0.0
 10
67.3890665216
 20
139.8167762472
 30
0.0
 10
67.5861301488
 20
140.1390555718
 30
0.0
 10
67.7713109294
 20
140.294695011
 30
0.0
 10
67.8702671519
 20
140.3518270752
 30
0.0
  0
SPLINE
  5
4E8
100
AcDbEntity
  8
0
100
AcDbSpline
 62
7
  6
CONTINUOUS
 70
0
 71
3
 72
11
 73
7
 74
0
 42
0.0000001
 43
0.0000001
 44
0.0000000001
 40
0.0
 40
0.0
 40
0.0
 40
0.0
 40
0.2897762172
 40
0.5490701576
 40
0.7822260326
 40
1.0
 40
1.0
 40
1.0
 40
1.0
 10
59.4707132584
 20
143.469136648
 30
0.0
 10
59.4707132584
 20
143.6211804115
 30
0.0
 10
59.493702789
 20
143.9102630579
 30
0.0
 10
59.610859545
 20
144.307424547
 30
0.0
 10
59.8079231722
 20
144.6297038715
 30
0.0
 10
59.9931039528
 20
144.7853433107
 30
0.0
 10
60.0920601753
 20
144.8424753749
 30
0.0
  0
SPLINE
  5
4E9
100
AcDbEntity
  8
0
100
AcDbSpline
 62
7
  6
CONTINUOUS
 70
0
 71
3
 72
11
 73
7
 74
0
 42
0.0000001
 43
0.0000001
 44
0.0000000001
 40
0.0
 40
0.0
 40
0.0
 40
0.0
 40
0.2897762172
 40
0.5490701576
 40
0.7822260326
 40
1.0
 40
1.0
 40
1.0
 40
1.0
 10
51.6925062818
 20
147.9597849477
 30
0.0
 10
51.6925062818
 20
148.1118287112
 30
0.0
 10
51.7154958123
 20
148.4009113577
 30
0.0
 10
51.8326525683
 20
148.7980728467
 30
0.0
 10
52.0297161956
 20
149.1203521712
 30
0.0
 10
52.2148969762
 20
149.2759916105
 30
0.0
 10
52.3138531987
 20
149.3331236746
 30
0.0
  0
SPLINE
  5
4EA
100
AcDbEntity
  8
0
100
AcDbSpline
 62
7
  6
CONTINUOUS
 70
0
 71
3
 72
11
 73
7
 74
0
 42
0.0000001
 43
0.0000001
 44
0.0000000001
 40
0.0
 40
0.0
 40
0.0
 40
0.0
 40
0.2897762172
 40
0.5490701576
 40
0.7822260326
 40
1.0
 40
1.0
 40
1.0
 40
1.0
 10
43.9142993052
 20
152.4504332474
 30
0.0
 10
43.9142993052
 20
152.6024770109
 30
0.0
 10
43.9372888357
 20
152.8915596574
 30
0.0
 10
44.0544455917
 20
153.2887211464
 30
0.0
 10
44.251509219
 20
153.611000471
 30
0.0
 10
44.4366899995
 20
153.7666399102
 30
0.0
 10
44.5356462221
 20
153.8237719744
 30
0.0
  0
SPLINE
  5
4EB
100
AcDbEntity
  8
0
100
AcDbSpline
 62
7
  6
CONTINUOUS
 70
0
 71
3
 72
11
 73
7
 74
0
 42
0.0000001
 43
0.0000001
 44
0.0000000001
 40
0.0
 40
0.0
 40
0.0
 40
0.0
 40
0.2897762172
 40
0.5490701576
 40
0.7822260326
 40
1.0
 40
1.0
 40
1.0
 40
1.0
 10
36.1360923285
 20
156.9410815471
 30
0.0
 10
36.1360923285
 20
157.0931253107
 30
0.0
 10
36.1590818591
 20
157.3822079571
 30
0.0
 10
36.2762386151
 20
157.7793694461
 30
0.0
 10
36.4733022424
 20
158.1016487707
 30
0.0
 10
36.6584830229
 20
158.2572882099
 30
0.0
 10
36.7574392454
 20
158.3144202741
 30
0.0
  0
SPLINE
  5
4EC
100
AcDbEntity
  8
0
100
AcDbSpline
 62
7
  6
CONTINUOUS
 70
0
 71
3
 72
13
 73
9
 74
0
 42
0.0000001
 43
0.0000001
 44
0.0000000001
 40
0.0
 40
0.0
 40
0.0
 40
0.0
 40
0.1142484259
 40
0.2375469717
 40
0.4999989156
 40
0.762451453
 40
0.885750692
 40
1.0
 40
1.0
 40
1.0
 40
1.0
 10
60.8495672129
 20
167.658011376
 30
0.0
 10
60.9947786337
 20
167.5741754197
 30
0.0
 10
61.281654152
 20
167.3730893349
 30
0.0
 10
61.8186962263
 20
166.8704404893
 30
0.0
 10
62.3859745616
 20
166.0955731536
 30
0.0
 10
62.7733945349
 20
165.216862964
 30
0.0
 10
62.9401854233
 20
164.500444452
 30
0.0
 10
62.9708963884
 20
164.151457913
 30
0.0
 10
62.9708963884
 20
163.983781861
 30
0.0
  0
SPLINE
  5
4ED
100
AcDbEntity
  8
0
100
AcDbSpline
 62
7
  6
CONTINUOUS
 70
0
 71
3
 72
13
 73
9
 74
0
 42
0.0000001
 43
0.0000001
 44
0.0000000001
 40
0.0
 40
0.0
 40
0.0
 40
0.0
 40
0.1142484259
 40
0.2375469717
 40
0.4999989156
 40
0.762451453
 40
0.885750692
 40
1.0
 40
1.0
 40
1.0
 40
1.0
 10
76.4059811662
 20
158.6767147765
 30
0.0
 10
76.5511925869
 20
158.5928788203
 30
0.0
 10
76.8380681052
 20
158.3917927355
 30
0.0
 10
77.3751101795
 20
157.8891438898
 30
0.0
 10
77.9423885148
 20
157.1142765541
 30
0.0
 10
78.3298084881
 20
156.2355663645
 30
0.0
 10
78.4965993765
 20
155.5191478526
 30
0.0
 10
78.5273103416
 20
155.1701613135
 30
0.0
 10
78.5273103416
 20
155.0024852616
 30
0.0
  0
SPLINE
  5
4EE
100
AcDbEntity
  8
0
100
AcDbSpline
 62
7
  6
CONTINUOUS
 70
0
 71
3
 72
13
 73
9
 74
0
 42
0.0000001
 43
0.0000001
 44
0.0000000001
 40
0.0
 40
0.0
 40
0.0
 40
0.0
 40
0.1142484259
 40
0.2375469717
 40
0.4999989156
 40
0.762451453
 40
0.885750692
 40
1.0
 40
1.0
 40
1.0
 40
1.0
 10
68.6277741896
 20
163.1673630762
 30
0.0
 10
68.7729856103
 20
163.08352712
 30
0.0
 10
69.0598611286
 20
162.8824410352
 30
0.0
 10
69.5969032029
 20
162.3797921896
 30
0.0
 10
70.1641815382
 20
161.6049248538
 30
0.0
 10
70.5516015115
 20
160.7262146643
 30
0.0
 10
70.7183923999
 20
160.0097961523
 30
0.0
 10
70.749103365
 20
159.6608096133
 30
0.0
 10
70.749103365
 20
159.4931335613
 30
0.0
  0
SPLINE
  5
4EF
100
AcDbEntity
  8
0
100
AcDbSpline
 62
7
  6
CONTINUOUS
 70
0
 71
3
 72
11
 73
7
 74
0
 42
0.0000001
 43
0.0000001
 44
0.0000000001
 40
0.0
 40
0.0
 40
0.0
 40
0.0
 40
0.217774924
 40
0.4509311967
 40
0.710224778
 40
1.0
 40
1.0
 40
1.0
 40
1.0
 10
65.0064627556
 20
164.5406390789
 30
0.0
 10
65.1054167674
 20
164.5977698668
 30
0.0
 10
65.3327893535
 20
164.6803191122
 30
0.0
 10
65.7104134715
 20
164.689843292
 30
0.0
 10
66.1129332753
 20
164.5927293023
 30
0.0
 10
66.3747744801
 20
164.4681036383
 30
0.0
 10
66.5064450141
 20
164.3920853398
 30
0.0
  0
SPLINE
  5
4F0
100
AcDbEntity
  8
0
100
AcDbSpline
 62
7
  6
CONTINUOUS
 70
0
 71
3
 72
11
 73
7
 74
0
 42
0.0000001
 43
0.0000001
 44
0.0000000001
 40
0.0
 40
0.0
 40
0.0
 40
0.0
 40
0.217774924
 40
0.4509311967
 40
0.710224778
 40
1.0
 40
1.0
 40
1.0
 40
1.0
 10
72.7846697322
 20
160.0499907792
 30
0.0
 10
72.883623744
 20
160.107121567
 30
0.0
 10
73.1109963301
 20
160.1896708124
 30
0.0
 10
73.4886204481
 20
160.1991949923
 30
0.0
 10
73.891140252
 20
160.1020810025
 30
0.0
 10
74.1529814567
 20
159.9774553386
 30
0.0
 10
74.2846519907
 20
159.9014370401
 30
0.0
  0
SPLINE
  5
4F1
100
AcDbEntity
  8
0
100
AcDbSpline
 62
7
  6
CONTINUOUS
 70
0
 71
3
 72
9
 73
5
 74
0
 42
0.0000001
 43
0.0000001
 44
0.0000000001
 40
0.0
 40
0.0
 40
0.0
 40
0.0
 40
0.2421686662
 40
1.0
 40
1.0
 40
1.0
 40
1.0
 10
93.2838002474
 20
161.0694988457
 30
0.0
 10
93.3166809444
 20
161.1033996563
 30
0.0
 10
93.4561104414
 20
161.2398248956
 30
0.0
 10
93.6090869762
 20
161.362176277
 30
0.0
 10
93.7300929105
 20
161.4470266931
 30
0.0
  0
SPLINE
  5
4F2
100
AcDbEntity
  8
0
100
AcDbSpline
 62
7
  6
CONTINUOUS
 70
0
 71
3
 72
18
 73
14
 74
0
 42
0.0000001
 43
0.0000001
 44
0.0000000001
 40
0.0
 40
0.0
 40
0.0
 40
0.0
 40
0.0462468137
 40
0.0933278
 40
0.1425525123
 40
0.1949124553
 40
0.2509862706
 40
0.3109599225
 40
0.4414615752
 40
0.5824683865
 40
0.7273418769
 40
0.8687119132
 40
1.0
 40
1.0
 40
1.0
 40
1.0
 10
92.7049900076
 20
162.2632366231
 30
0.0
 10
92.7050071995
 20
162.1536884385
 30
0.0
 10
92.7307142214
 20
161.9317381761
 30
0.0
 10
92.8468743372
 20
161.6117425988
 30
0.0
 10
93.0367315808
 20
161.3121543502
 30
0.0
 10
93.295260392
 20
161.0398290722
 30
0.0
 10
93.6160430485
 20
160.7998864019
 30
0.0
 10
94.1315626397
 20
160.5217911375
 30
0.0
 10
94.8899555729
 20
160.2894230536
 30
0.0
 10
95.87796854
 20
160.200118953
 30
0.0
 10
96.8913085551
 20
160.2973712547
 30
0.0
 10
97.8471053816
 20
160.5719265805
 30
0.0
 10
98.42519048
 20
160.8743716376
 30
0.0
 10
98.6798609652
 20
161.0528617903
 30
0.0
  0
SPLINE
  5
4F3
100
AcDbEntity
  8
0
100
AcDbSpline
 62
7
  6
CONTINUOUS
 70
0
 71
3
 72
11
 73
7
 74
0
 42
0.0000001
 43
0.0000001
 44
0.0000000001
 40
0.0
 40
0.0
 40
0.0
 40
0.0
 40
0.217774924
 40
0.4509311967
 40
0.710224778
 40
1.0
 40
1.0
 40
1.0
 40
1.0
 10
57.228255779
 20
169.0312873787
 30
0.0
 10
57.3272097908
 20
169.0884181665
 30
0.0
 10
57.5545823769
 20
169.1709674119
 30
0.0
 10
57.9322064949
 20
169.1804915918
 30
0.0
 10
58.3347262987
 20
169.083377602
 30
0.0
 10
58.5965675034
 20
168.9587519381
 30
0.0
 10
58.7282380375
 20
168.8827336395
 30
0.0
  0
LINE
  5
4F4
100
AcDbEntity
  8
0
100
AcDbLine
 62
7
  6
CONTINUOUS
 10
68.0619892585
 20
181.8884562212
 11
68.8107730793
 21
182.4100342267
  0
SPLINE
  5
4F5
100
AcDbEntity
  8
0
100
AcDbSpline
 62
7
  6
CONTINUOUS
 70
0
 71
3
 72
9
 73
5
 74
0
 42
0.0000001
 43
0.0000001
 44
0.0000000001
 40
0.0
 40
0.0
 40
0.0
 40
0.0
 40
0.2545411478
 40
1.0
 40
1.0
 40
1.0
 40
1.0
 10
68.8107730793
 20
182.4100342267
 30
0.0
 10
69.1091586416
 20
182.6177112296
 30
0.0
 10
70.2895266296
 20
183.4218397156
 30
0.0
 10
71.5027035096
 20
184.1780575793
 30
0.0
 10
72.4247504294
 20
184.710398439
 30
0.0
  0
SPLINE
  5
4F6
100
AcDbEntity
  8
0
100
AcDbSpline
 62
7
  6
CONTINUOUS
 70
0
 71
3
 72
11
 73
7
 74
0
 42
0.0000001
 43
0.0000001
 44
0.0000000001
 40
0.0
 40
0.0
 40
0.0
 40
0.0
 40
0.2824184491
 40
0.5409034299
 40
0.7777378404
 40
1.0
 40
1.0
 40
1.0
 40
1.0
 10
93.7300929105
 20
163.9105470869
 30
0.0
 10
93.5750229445
 20
163.8018636584
 30
0.0
 10
93.2938468969
 20
163.5691826921
 30
0.0
 10
92.9627168657
 20
163.161095707
 30
0.0
 10
92.7543273603
 20
162.7216392206
 30
0.0
 10
92.7049666198
 20
162.4122654311
 30
0.0
 10
92.7049900076
 20
162.2632366231
 30
0.0
  0
SPLINE
  5
4F7
100
AcDbEntity
  8
0
100
AcDbSpline
 62
7
  6
CONTINUOUS
 70
0
 71
3
 72
11
 73
7
 74
0
 42
0.0000001
 43
0.0000001
 44
0.0000000001
 40
0.0
 40
0.0
 40
0.0
 40
0.0
 40
0.2897762172
 40
0.5490701576
 40
0.7822260326
 40
1.0
 40
1.0
 40
1.0
 40
1.0
 10
56.6069088621
 20
167.6579486517
 30
0.0
 10
56.6069088621
 20
167.8099924152
 30
0.0
 10
56.6298983926
 20
168.0990750617
 30
0.0
 10
56.7470551486
 20
168.4962365507
 30
0.0
 10
56.9441187759
 20
168.8185158752
 30
0.0
 10
57.1292995564
 20
168.9741553145
 30
0.0
 10
57.228255779
 20
169.0312873787
 30
0.0
  0
SPLINE
  5
4F8
100
AcDbEntity
  8
0
100
AcDbSpline
 62
7
  6
CONTINUOUS
 70
0
 71
3
 72
11
 73
7
 74
0
 42
0.0000001
 43
0.0000001
 44
0.0000000001
 40
0.0
 40
0.0
 40
0.0
 40
0.0
 40
0.2897762172
 40
0.5490701576
 40
0.7822260326
 40
1.0
 40
1.0
 40
1.0
 40
1.0
 10
64.3851158387
 20
163.167300352
 30
0.0
 10
64.3851158387
 20
163.3193441155
 30
0.0
 10
64.4081053692
 20
163.608426762
 30
0.0
 10
64.5252621252
 20
164.005588251
 30
0.0
 10
64.7223257525
 20
164.3278675755
 30
0.0
 10
64.9075065331
 20
164.4835070147
 30
0.0
 10
65.0064627556
 20
164.5406390789
 30
0.0
  0
SPLINE
  5
4F9
100
AcDbEntity
  8
0
100
AcDbSpline
 62
7
  6
CONTINUOUS
 70
0
 71
3
 72
11
 73
7
 74
0
 42
0.0000001
 43
0.0000001
 44
0.0000000001
 40
0.0
 40
0.0
 40
0.0
 40
0.0
 40
0.2897762172
 40
0.5490701576
 40
0.7822260326
 40
1.0
 40
1.0
 40
1.0
 40
1.0
 10
72.1633228153
 20
158.6766520523
 30
0.0
 10
72.1633228153
 20
158.8286958158
 30
0.0
 10
72.1863123459
 20
159.1177784622
 30
0.0
 10
72.3034691019
 20
159.5149399512
 30
0.0
 10
72.5005327291
 20
159.8372192758
 30
0.0
 10
72.6857135097
 20
159.992858715
 30
0.0
 10
72.7846697322
 20
160.0499907792
 30
0.0
  0
SPLINE
  5
4FA
100
AcDbEntity
  8
0
100
AcDbSpline
 62
7
  6
CONTINUOUS
 70
0
 71
3
 72
11
 73
7
 74
0
 42
0.0000001
 43
0.0000001
 44
0.0000000001
 40
0.0
 40
0.0
 40
0.0
 40
0.0
 40
0.2177827477
 40
0.4509152641
 40
0.7103063952
 40
1.0
 40
1.0
 40
1.0
 40
1.0
 10
101.358480616
 20
181.3836111737
 30
0.0
 10
101.35847065
 20
181.3106723499
 30
0.0
 10
101.3315320688
 20
181.1586430099
 30
0.0
 10
101.2162726663
 20
180.946816317
 30
0.0
 10
101.0340747844
 20
180.7553408109
 30
0.0
 10
100.8816289551
 20
180.6503413334
 30
0.0
 10
100.7976045446
 20
180.6018301069
 30
0.0
  0
SPLINE
  5
4FB
100
AcDbEntity
  8
0
100
AcDbSpline
 62
7
  6
CONTINUOUS
 70
0
 71
3
 72
11
 73
7
 74
0
 42
0.0000001
 43
0.0000001
 44
0.0000000001
 40
0.0
 40
0.0
 40
0.0
 40
0.0
 40
0.2177827477
 40
0.4509152641
 40
0.7103063952
 40
1.0
 40
1.0
 40
1.0
 40
1.0
 10
97.7663632123
 20
183.4574742066
 30
0.0
 10
97.7663532463
 20
183.3845353828
 30
0.0
 10
97.7394146651
 20
183.2325060429
 30
0.0
 10
97.6241552626
 20
183.02067935
 30
0.0
 10
97.4419573807
 20
182.8292038439
 30
0.0
 10
97.2895115514
 20
182.7242043663
 30
0.0
 10
97.2054871408
 20
182.6756931399
 30
0.0
  0
SPLINE
  5
4FC
100
AcDbEntity
  8
0
100
AcDbSpline
 62
7
  6
CONTINUOUS
 70
0
 71
3
 72
14
 73
10
 74
0
 42
0.0000001
 43
0.0000001
 44
0.0000000001
 40
0.0
 40
0.0
 40
0.0
 40
0.0
 40
0.3056769963
 40
0.4496826797
 40
0.583242658
 40
0.7043107604
 40
0.8124631189
 40
0.9095243224
 40
1.0
 40
1.0
 40
1.0
 40
1.0
 10
103.0831947185
 20
178.2044862283
 30
0.0
 10
102.8328316329
 20
178.2008711113
 30
0.0
 10
102.4615917558
 20
178.2365513468
 30
0.0
 10
102.0019038026
 20
178.3704773185
 30
0.0
 10
101.7031766158
 20
178.5055936675
 30
0.0
 10
101.4552787921
 20
178.6724858094
 30
0.0
 10
101.2675334953
 20
178.8661553544
 30
0.0
 10
101.148494097
 20
179.0809576832
 30
0.0
 10
101.1206055033
 20
179.2356367599
 30
0.0
 10
101.1206156295
 20
179.309748097
 30
0.0
  0
SPLINE
  5
4FD
100
AcDbEntity
  8
0
100
AcDbSpline
 62
7
  6
CONTINUOUS
 70
0
 71
3
 72
17
 73
13
 74
0
 42
0.0000001
 43
0.0000001
 44
0.0000000001
 40
0.0
 40
0.0
 40
0.0
 40
0.0
 40
0.1286926208
 40
0.2702795078
 40
0.4174383051
 40
0.5617803148
 40
0.6954501289
 40
0.8127134773
 40
0.8646759206
 40
0.9125113962
 40
0.9571388332
 40
1.0
 40
1.0
 40
1.0
 40
1.0
 10
100.7976045446
 20
180.6018301069
 30
0.0
 10
100.6558451787
 20
180.5199857874
 30
0.0
 10
100.3348882506
 20
180.3875535721
 30
0.0
 10
99.8117844403
 20
180.2829158519
 30
0.0
 10
99.2585173953
 20
180.2675928072
 30
0.0
 10
98.7202295461
 20
180.3432397612
 30
0.0
 10
98.240570566
 20
180.5034554302
 30
0.0
 10
97.906956925
 20
180.7065120248
 30
0.0
 10
97.7111894831
 20
180.9030060182
 30
0.0
 10
97.6071620943
 20
181.055970396
 30
0.0
 10
97.5431119869
 20
181.2173455437
 30
0.0
 10
97.5284907769
 20
181.3290942714
 30
0.0
 10
97.5284982258
 20
181.3836111299
 30
0.0
  0
SPLINE
  5
4FE
100
AcDbEntity
  8
0
100
AcDbSpline
 62
7
  6
CONTINUOUS
 70
0
 71
3
 72
17
 73
13
 74
0
 42
0.0000001
 43
0.0000001
 44
0.0000000001
 40
0.0
 40
0.0
 40
0.0
 40
0.0
 40
0.1286926208
 40
0.2702795078
 40
0.4174383051
 40
0.5617803148
 40
0.6954501289
 40
0.8127134773
 40
0.8646759206
 40
0.9125113962
 40
0.9571388332
 40
1.0
 40
1.0
 40
1.0
 40
1.0
 10
97.2054871408
 20
182.6756931399
 30
0.0
 10
97.0637277749
 20
182.5938488204
 30
0.0
 10
96.7427708469
 20
182.4614166051
 30
0.0
 10
96.2196670366
 20
182.3567788849
 30
0.0
 10
95.6663999915
 20
182.3414558402
 30
0.0
 10
95.1281121423
 20
182.4171027942
 30
0.0
 10
94.6484531622
 20
182.5773184631
 30
0.0
 10
94.3148395213
 20
182.7803750578
 30
0.0
 10
94.1190720793
 20
182.9768690511
 30
0.0
 10
94.0150446906
 20
183.129833429
 30
0.0
 10
93.9509945831
 20
183.2912085767
 30
0.0
 10
93.9363733731
 20
183.4029573044
 30
0.0
 10
93.936380822
 20
183.4574741629
 30
0.0
  0
SPLINE
  5
4FF
100
AcDbEntity
  8
0
100
AcDbSpline
 62
7
  6
CONTINUOUS
 70
0
 71
3
 72
11
 73
7
 74
0
 42
0.0000001
 43
0.0000001
 44
0.0000000001
 40
0.0
 40
0.0
 40
0.0
 40
0.0
 40
0.2177827477
 40
0.4509152641
 40
0.7103063952
 40
1.0
 40
1.0
 40
1.0
 40
1.0
 10
93.936380822
 20
183.4574741629
 30
0.0
 10
93.936390788
 20
183.5304129867
 30
0.0
 10
93.9633293692
 20
183.6824423267
 30
0.0
 10
94.0785887718
 20
183.8942690195
 30
0.0
 10
94.2607866536
 20
184.0857445257
 30
0.0
 10
94.413232483
 20
184.1907440032
 30
0.0
 10
94.4972568935
 20
184.2392552297
 30
0.0
  0
SPLINE
  5
500
100
AcDbEntity
  8
0
100
AcDbSpline
 62
7
  6
CONTINUOUS
 70
0
 71
3
 72
9
 73
5
 74
0
 42
0.0000001
 43
0.0000001
 44
0.0000000001
 40
0.0
 40
0.0
 40
0.0
 40
0.0
 40
0.274366605
 40
1.0
 40
1.0
 40
1.0
 40
1.0
 10
101.681491701
 20
179.3566769883
 30
0.0
 10
101.6331408046
 20
179.3287617519
 30
0.0
 10
101.4620901014
 20
179.2191835542
 30
0.0
 10
101.3105021665
 20
179.0730531547
 30
0.0
 10
101.2326789719
 20
178.947567441
 30
0.0
  0
SPLINE
  5
501
100
AcDbEntity
  8
0
100
AcDbSpline
 62
7
  6
CONTINUOUS
 70
0
 71
3
 72
9
 73
5
 74
0
 42
0.0000001
 43
0.0000001
 44
0.0000000001
 40
0.0
 40
0.0
 40
0.0
 40
0.0
 40
0.274366605
 40
1.0
 40
1.0
 40
1.0
 40
1.0
 10
98.0893742973
 20
181.4305400213
 30
0.0
 10
98.0410234009
 20
181.4026247849
 30
0.0
 10
97.8699726977
 20
181.2930465872
 30
0.0
 10
97.7183847627
 20
181.1469161876
 30
0.0
 10
97.6405615682
 20
181.021430474
 30
0.0
  0
SPLINE
  5
502
100
AcDbEntity
  8
0
100
AcDbSpline
 62
7
  6
CONTINUOUS
 70
0
 71
3
 72
9
 73
5
 74
0
 42
0.0000001
 43
0.0000001
 44
0.0000000001
 40
0.0
 40
0.0
 40
0.0
 40
0.0
 40
0.274366605
 40
1.0
 40
1.0
 40
1.0
 40
1.0
 10
94.4972568935
 20
183.5044030543
 30
0.0
 10
94.4489059971
 20
183.4764878179
 30
0.0
 10
94.2778552939
 20
183.3669096201
 30
0.0
 10
94.126267359
 20
183.2207792206
 30
0.0
 10
94.0484441644
 20
183.0952935069
 30
0.0
  0
SPLINE
  5
503
100
AcDbEntity
  8
0
100
AcDbSpline
 62
7
  6
CONTINUOUS
 70
0
 71
3
 72
14
 73
10
 74
0
 42
0.0000001
 43
0.0000001
 44
0.0000000001
 40
0.0
 40
0.0
 40
0.0
 40
0.0
 40
0.1200888117
 40
0.2510799843
 40
0.526699298
 40
0.6614798337
 40
0.7873717936
 40
0.9007235974
 40
1.0
 40
1.0
 40
1.0
 40
1.0
 10
101.681491701
 20
180.0915291637
 30
0.0
 10
101.7968026482
 20
180.1581035728
 30
0.0
 10
102.0534084707
 20
180.2711846861
 30
0.0
 10
102.6210323979
 20
180.4150655739
 30
0.0
 10
103.2307036168
 20
180.4343711826
 30
0.0
 10
103.8176882201
 20
180.3305335632
 30
0.0
 10
104.2120075806
 20
180.1954439748
 30
0.0
 10
104.541082693
 20
180.0102911669
 30
0.0
 10
104.716714772
 20
179.8477262884
 30
0.0
 10
104.784064868
 20
179.7606622993
 30
0.0
  0
SPLINE
  5
504
100
AcDbEntity
  8
0
100
AcDbSpline
 62
7
  6
CONTINUOUS
 70
0
 71
3
 72
17
 73
13
 74
0
 42
0.0000001
 43
0.0000001
 44
0.0000000001
 40
0.0
 40
0.0
 40
0.0
 40
0.0
 40
0.1286926208
 40
0.2702795078
 40
0.4174383051
 40
0.5617803148
 40
0.6954501289
 40
0.8127134773
 40
0.8646759206
 40
0.9125113962
 40
0.9571388332
 40
1.0
 40
1.0
 40
1.0
 40
1.0
 10
98.0893742973
 20
182.1653921967
 30
0.0
 10
98.2311336631
 20
182.2472365162
 30
0.0
 10
98.5520905912
 20
182.3796687315
 30
0.0
 10
99.0751944015
 20
182.4843064517
 30
0.0
 10
99.6284614465
 20
182.4996294964
 30
0.0
 10
100.1667492957
 20
182.4239825424
 30
0.0
 10
100.6464082758
 20
182.2637668734
 30
0.0
 10
100.9800219168
 20
182.0607102788
 30
0.0
 10
101.1757893587
 20
181.8642162854
 30
0.0
 10
101.2798167475
 20
181.7112519076
 30
0.0
 10
101.3438668549
 20
181.5498767599
 30
0.0
 10
101.3584880649
 20
181.4381280322
 30
0.0
 10
101.358480616
 20
181.3836111737
 30
0.0
  0
SPLINE
  5
505
100
AcDbEntity
  8
0
100
AcDbSpline
 62
7
  6
CONTINUOUS
 70
0
 71
3
 72
11
 73
7
 74
0
 42
0.0000001
 43
0.0000001
 44
0.0000000001
 40
0.0
 40
0.0
 40
0.0
 40
0.0
 40
0.2446005043
 40
0.5073686278
 40
0.7661659871
 40
1.0
 40
1.0
 40
1.0
 40
1.0
 10
104.2083299245
 20
179.4489191968
 30
0.0
 10
104.0144092691
 20
179.5356482552
 30
0.0
 10
103.5856914207
 20
179.6578886901
 30
0.0
 10
102.9174298041
 20
179.7012487003
 30
0.0
 10
102.2632233415
 20
179.6116921255
 30
0.0
 10
101.8573652667
 20
179.4582170327
 30
0.0
 10
101.681491701
 20
179.3566769883
 30
0.0
  0
SPLINE
  5
506
100
AcDbEntity
  8
0
100
AcDbSpline
 62
7
  6
CONTINUOUS
 70
0
 71
3
 72
17
 73
13
 74
0
 42
0.0000001
 43
0.0000001
 44
0.0000000001
 40
0.0
 40
0.0
 40
0.0
 40
0.0
 40
0.1286926208
 40
0.2702795078
 40
0.4174383051
 40
0.5617803148
 40
0.6954501289
 40
0.8127134773
 40
0.8646759206
 40
0.9125113962
 40
0.9571388332
 40
1.0
 40
1.0
 40
1.0
 40
1.0
 10
94.4972568935
 20
184.2392552297
 30
0.0
 10
94.6390162594
 20
184.3210995492
 30
0.0
 10
94.9599731875
 20
184.4535317644
 30
0.0
 10
95.4830769977
 20
184.5581694847
 30
0.0
 10
96.0363440428
 20
184.5734925293
 30
0.0
 10
96.574631892
 20
184.4978455754
 30
0.0
 10
97.0542908721
 20
184.3376299064
 30
0.0
 10
97.387904513
 20
184.1345733118
 30
0.0
 10
97.583671955
 20
183.9380793184
 30
0.0
 10
97.6876993438
 20
183.7851149405
 30
0.0
 10
97.7517494512
 20
183.6237397929
 30
0.0
 10
97.7663706612
 20
183.5119910652
 30
0.0
 10
97.7663632123
 20
183.4574742066
 30
0.0
  0
SPLINE
  5
507
100
AcDbEntity
  8
0
100
AcDbSpline
 62
7
  6
CONTINUOUS
 70
0
 71
3
 72
11
 73
7
 74
0
 42
0.0000001
 43
0.0000001
 44
0.0000000001
 40
0.0
 40
0.0
 40
0.0
 40
0.0
 40
0.2177827477
 40
0.4509152641
 40
0.7103063952
 40
1.0
 40
1.0
 40
1.0
 40
1.0
 10
101.1206156295
 20
179.309748097
 30
0.0
 10
101.1206255955
 20
179.3826869208
 30
0.0
 10
101.1475641767
 20
179.5347162607
 30
0.0
 10
101.2628235793
 20
179.7465429536
 30
0.0
 10
101.4450214611
 20
179.9380184598
 30
0.0
 10
101.5974672904
 20
180.0430179373
 30
0.0
 10
101.681491701
 20
180.0915291637
 30
0.0
  0
SPLINE
  5
508
100
AcDbEntity
  8
0
100
AcDbSpline
 62
7
  6
CONTINUOUS
 70
0
 71
3
 72
14
 73
10
 74
0
 42
0.0000001
 43
0.0000001
 44
0.0000000001
 40
0.0
 40
0.0
 40
0.0
 40
0.0
 40
0.2057853731
 40
0.3306924684
 40
0.4657801118
 40
0.6059279367
 40
0.7453361925
 40
0.8783106472
 40
1.0
 40
1.0
 40
1.0
 40
1.0
 10
101.2446556509
 20
181.0242147932
 30
0.0
 10
101.1204686024
 20
181.2227213765
 30
0.0
 10
100.7988820066
 20
181.4609206199
 30
0.0
 10
100.3047999045
 20
181.6487150775
 30
0.0
 10
99.855932124
 20
181.7401404669
 30
0.0
 10
99.3834452194
 20
181.7651566818
 30
0.0
 10
98.9141605276
 20
181.7231162848
 30
0.0
 10
98.4769380563
 20
181.6163727973
 30
0.0
 10
98.2092877023
 20
181.4997716447
 30
0.0
 10
98.0893742973
 20
181.4305400213
 30
0.0
  0
SPLINE
  5
509
100
AcDbEntity
  8
0
100
AcDbSpline
 62
7
  6
CONTINUOUS
 70
0
 71
3
 72
11
 73
7
 74
0
 42
0.0000001
 43
0.0000001
 44
0.0000000001
 40
0.0
 40
0.0
 40
0.0
 40
0.0
 40
0.2177827477
 40
0.4509152641
 40
0.7103063952
 40
1.0
 40
1.0
 40
1.0
 40
1.0
 10
97.5284982258
 20
181.3836111299
 30
0.0
 10
97.5285081918
 20
181.4565499537
 30
0.0
 10
97.555446773
 20
181.6085792937
 30
0.0
 10
97.6707061755
 20
181.8204059866
 30
0.0
 10
97.8529040574
 20
182.0118814927
 30
0.0
 10
98.0053498867
 20
182.1168809702
 30
0.0
 10
98.0893742973
 20
182.1653921967
 30
0.0
  0
SPLINE
  5
50A
100
AcDbEntity
  8
0
100
AcDbSpline
 62
7
  6
CONTINUOUS
 70
0
 71
3
 72
14
 73
10
 74
0
 42
0.0000001
 43
0.0000001
 44
0.0000000001
 40
0.0
 40
0.0
 40
0.0
 40
0.0
 40
0.2057853731
 40
0.3306924684
 40
0.4657801118
 40
0.6059279367
 40
0.7453361925
 40
0.8783106472
 40
1.0
 40
1.0
 40
1.0
 40
1.0
 10
97.6525382472
 20
183.0980778261
 30
0.0
 10
97.5283511987
 20
183.2965844094
 30
0.0
 10
97.2067646029
 20
183.5347836529
 30
0.0
 10
96.7126825007
 20
183.7225781104
 30
0.0
 10
96.2638147202
 20
183.8140034999
 30
0.0
 10
95.7913278156
 20
183.8390197147
 30
0.0
 10
95.3220431239
 20
183.7969793178
 30
0.0
 10
94.8848206526
 20
183.6902358303
 30
0.0
 10
94.6171702986
 20
183.5736346777
 30
0.0
 10
94.4972568935
 20
183.5044030543
 30
0.0
  0
SPLINE
  5
50B
100
AcDbEntity
  8
0
100
AcDbSpline
 62
7
  6
CONTINUOUS
 70
0
 71
3
 72
16
 73
12
 74
0
 42
0.0000001
 43
0.0000001
 44
0.0000000001
 40
0.0
 40
0.0
 40
0.0
 40
0.0
 40
0.0428749215
 40
0.0875218052
 40
0.1869210508
 40
0.3042319763
 40
0.4379526978
 40
0.5823548967
 40
0.7295670544
 40
0.8712583699
 40
1.0
 40
1.0
 40
1.0
 40
1.0
 10
141.3358619777
 20
190.254984213
 30
0.0
 10
141.3358628857
 20
190.304797621
 30
0.0
 10
141.3226345554
 20
190.4069306886
 30
0.0
 10
141.2416632524
 20
190.6104944728
 30
0.0
 10
141.0369830374
 20
190.8456378961
 30
0.0
 10
140.6855014948
 20
191.0589457225
 30
0.0
 10
140.2468522391
 20
191.2058023594
 30
0.0
 10
139.7550770099
 20
191.2747818339
 30
0.0
 10
139.2494181969
 20
191.2608886818
 30
0.0
 10
138.7713793535
 20
191.1651953236
 30
0.0
 10
138.4780287323
 20
191.0441932426
 30
0.0
 10
138.3484919213
 20
190.9694055764
 30
0.0
  0
SPLINE
  5
50C
100
AcDbEntity
  8
0
100
AcDbSpline
 62
7
  6
CONTINUOUS
 70
0
 71
3
 72
11
 73
7
 74
0
 42
0.0000001
 43
0.0000001
 44
0.0000000001
 40
0.0
 40
0.0
 40
0.0
 40
0.0
 40
0.2177648073
 40
0.4508950352
 40
0.7103684932
 40
1.0
 40
1.0
 40
1.0
 40
1.0
 10
144.7592831958
 20
192.5819831126
 30
0.0
 10
144.7592552091
 20
192.5115261611
 30
0.0
 10
144.7333283225
 20
192.364653217
 30
0.0
 10
144.6219262759
 20
192.1600031102
 30
0.0
 10
144.4458866037
 20
191.9750580117
 30
0.0
 10
144.2986295908
 20
191.8735919563
 30
0.0
 10
144.2174749667
 20
191.8267375918
 30
0.0
  0
SPLINE
  5
50D
100
AcDbEntity
  8
0
100
AcDbSpline
 62
7
  6
CONTINUOUS
 70
0
 71
3
 72
9
 73
5
 74
0
 42
0.0000001
 43
0.0000001
 44
0.0000000001
 40
0.0
 40
0.0
 40
0.0
 40
0.0
 40
0.4833843925
 40
1.0
 40
1.0
 40
1.0
 40
1.0
 10
159.6411197616
 20
221.0821568019
 30
0.0
 10
159.5697300186
 20
221.4439075183
 30
0.0
 10
159.3222580067
 20
222.1748603383
 30
0.0
 10
158.91419715
 20
222.8268564407
 30
0.0
 10
158.6746800171
 20
223.1397907383
 30
0.0
  0
SPLINE
  5
50E
100
AcDbEntity
  8
0
100
AcDbSpline
 62
7
  6
CONTINUOUS
 70
0
 71
3
 72
12
 73
8
 74
0
 42
0.0000001
 43
0.0000001
 44
0.0000000001
 40
0.0
 40
0.0
 40
0.0
 40
0.0
 40
0.1081594453
 40
0.2183582921
 40
0.451362939
 40
0.7104102874
 40
1.0
 40
1.0
 40
1.0
 40
1.0
 10
159.7199150254
 20
221.9142141656
 30
0.0
 10
159.7199366335
 20
221.6823133291
 30
0.0
 10
159.6795759066
 20
221.213169935
 30
0.0
 10
159.4359387831
 20
220.2726036134
 30
0.0
 10
158.810267356
 20
219.1193599357
 30
0.0
 10
157.6451029544
 20
217.8954316203
 30
0.0
 10
156.6697584763
 20
217.2237131772
 30
0.0
 10
156.1320433229
 20
216.9132650417
 30
0.0
  0
SPLINE
  5
50F
100
AcDbEntity
  8
0
100
AcDbSpline
 62
7
  6
CONTINUOUS
 70
0
 71
3
 72
9
 73
5
 74
0
 42
0.0000001
 43
0.0000001
 44
0.0000000001
 40
0.0
 40
0.0
 40
0.0
 40
0.0
 40
0.5180549464
 40
1.0
 40
1.0
 40
1.0
 40
1.0
 10
136.3800489263
 20
223.2854219852
 30
0.0
 10
136.1168232341
 20
222.961535658
 30
0.0
 10
135.66689864
 20
222.2847265381
 30
0.0
 10
135.3903230748
 20
221.5172303124
 30
0.0
 10
135.3100692322
 20
221.137345261
 30
0.0
  0
SPLINE
  5
510
100
AcDbEntity
  8
0
100
AcDbSpline
 62
7
  6
CONTINUOUS
 70
0
 71
3
 72
9
 73
5
 74
0
 42
0.0000001
 43
0.0000001
 44
0.0000000001
 40
0.0
 40
0.0
 40
0.0
 40
0.0
 40
0.280476285
 40
1.0
 40
1.0
 40
1.0
 40
1.0
 10
125.6206228514
 20
183.6210108067
 30
0.0
 10
125.5668510917
 20
183.589965852
 30
0.0
 10
125.3822228983
 20
183.4693245923
 30
0.0
 10
125.2229933515
 20
183.2969337417
 30
0.0
 10
125.1599099129
 20
183.1506742222
 30
0.0
  0
SPLINE
  5
511
100
AcDbEntity
  8
0
100
AcDbSpline
 62
7
  6
CONTINUOUS
 70
0
 71
3
 72
8
 73
4
 74
0
 42
0.0000001
 43
0.0000001
 44
0.0000000001
 40
0.0
 40
0.0
 40
0.0
 40
0.0
 40
1.0
 40
1.0
 40
1.0
 40
1.0
 10
125.1287376653
 20
183.0613916247
 30
0.0
 10
125.1152504081
 20
183.0111135888
 30
0.0
 10
125.1081377819
 20
182.9586451438
 30
0.0
 10
125.1081368331
 20
182.9065895292
 30
0.0
  0
SPLINE
  5
512
100
AcDbEntity
  8
0
100
AcDbSpline
 62
7
  6
CONTINUOUS
 70
0
 71
3
 72
19
 73
15
 74
0
 42
0.0000001
 43
0.0000001
 44
0.0000000001
 40
0.0
 40
0.0
 40
0.0
 40
0.0
 40
0.1286270646
 40
0.2701535496
 40
0.4172436725
 40
0.5615281849
 40
0.6301803385
 40
0.6953198077
 40
0.756315244
 40
0.8127965131
 40
0.8647376737
 40
0.9125501121
 40
0.9571594976
 40
1.0
 40
1.0
 40
1.0
 40
1.0
 10
156.1320433229
 20
216.9132650417
 30
0.0
 10
155.22528152
 20
216.3897489957
 30
0.0
 10
153.1722123883
 20
215.5426751397
 30
0.0
 10
149.8259470263
 20
214.8730586819
 30
0.0
 10
146.2872419659
 20
214.7752487068
 30
0.0
 10
143.3684829582
 20
215.1847267993
 30
0.0
 10
141.1902971999
 20
215.812182503
 30
0.0
 10
139.7166469879
 20
216.4058931786
 30
0.0
 10
138.4075090178
 20
217.1179336124
 30
0.0
 10
137.2901984149
 20
217.9343870362
 30
0.0
 10
136.3885011137
 20
218.8398654555
 30
0.0
 10
135.72321079
 20
219.8183825866
 30
0.0
 10
135.3131715967
 20
220.8506018978
 30
0.0
 10
135.2200158479
 20
221.5654885611
 30
0.0
 10
135.2199833542
 20
221.9142144036
 30
0.0
  0
SPLINE
  5
513
100
AcDbEntity
  8
0
100
AcDbSpline
 62
7
  6
CONTINUOUS
 70
0
 71
3
 72
16
 73
12
 74
0
 42
0.0000001
 43
0.0000001
 44
0.0000000001
 40
0.0
 40
0.0
 40
0.0
 40
0.0
 40
0.1287443602
 40
0.2703971121
 40
0.4176139114
 40
0.5620190713
 40
0.6957499754
 40
0.8130650626
 40
0.9124721117
 40
0.9571211941
 40
1.0
 40
1.0
 40
1.0
 40
1.0
 10
128.166217862
 20
182.559595299
 30
0.0
 10
128.0292747775
 20
182.4805316443
 30
0.0
 10
127.7192091523
 20
182.3526022334
 30
0.0
 10
127.2138807916
 20
182.2514864411
 30
0.0
 10
126.6793628964
 20
182.2367279241
 30
0.0
 10
126.1594617386
 20
182.3096642533
 30
0.0
 10
125.6957046838
 20
182.4648857312
 30
0.0
 10
125.3241280477
 20
182.6903924183
 30
0.0
 10
125.1076652746
 20
182.9389665949
 30
0.0
 10
125.022175418
 20
183.1542101559
 30
0.0
 10
125.0080827303
 20
183.2621754279
 30
0.0
 10
125.0081036498
 20
183.31484057
 30
0.0
  0
SPLINE
  5
514
100
AcDbEntity
  8
0
100
AcDbSpline
 62
7
  6
CONTINUOUS
 70
0
 71
3
 72
10
 73
6
 74
0
 42
0.0000001
 43
0.0000001
 44
0.0000000001
 40
0.0
 40
0.0
 40
0.0
 40
0.0
 40
0.5199462949
 40
0.7627947221
 40
1.0
 40
1.0
 40
1.0
 40
1.0
 10
158.5404966096
 20
224.9420574932
 30
0.0
 10
158.9039439338
 20
224.4990799185
 30
0.0
 10
159.3569369406
 20
223.7683605978
 30
0.0
 10
159.6684044577
 20
222.7061076994
 30
0.0
 10
159.719890668
 20
222.1756207791
 30
0.0
 10
159.7199150254
 20
221.9142141656
 30
0.0
  0
SPLINE
  5
515
100
AcDbEntity
  8
0
100
AcDbSpline
 62
7
  6
CONTINUOUS
 70
0
 71
3
 72
10
 73
6
 74
0
 42
0.0000001
 43
0.0000001
 44
0.0000000001
 40
0.0
 40
0.0
 40
0.0
 40
0.0
 40
0.2363160146
 40
0.4786942256
 40
1.0
 40
1.0
 40
1.0
 40
1.0
 10
135.2199833542
 20
221.9142144036
 30
0.0
 10
135.2199580302
 20
222.1859945917
 30
0.0
 10
135.2758264752
 20
222.7381409432
 30
0.0
 10
135.6131376603
 20
223.8434599763
 30
0.0
 10
136.1022714365
 20
224.5982131002
 30
0.0
 10
136.4926486434
 20
225.0532430085
 30
0.0
  0
SPLINE
  5
516
100
AcDbEntity
  8
0
100
AcDbSpline
 62
7
  6
CONTINUOUS
 70
0
 71
3
 72
11
 73
7
 74
0
 42
0.0000001
 43
0.0000001
 44
0.0000000001
 40
0.0
 40
0.0
 40
0.0
 40
0.0
 40
0.2452616914
 40
0.5080159621
 40
0.7664479743
 40
1.0
 40
1.0
 40
1.0
 40
1.0
 10
144.0245492281
 20
191.8011616624
 30
0.0
 10
143.8373746726
 20
191.882807559
 30
0.0
 10
143.4252275481
 20
191.9974148318
 30
0.0
 10
142.7842317724
 20
192.0363266797
 30
0.0
 10
142.1578790766
 20
191.948892742
 30
0.0
 10
141.7695740436
 20
191.8014516756
 30
0.0
 10
141.6011689837
 20
191.7042235493
 30
0.0
  0
SPLINE
  5
517
100
AcDbEntity
  8
0
100
AcDbSpline
 62
7
  6
CONTINUOUS
 70
0
 71
3
 72
16
 73
12
 74
0
 42
0.0000001
 43
0.0000001
 44
0.0000000001
 40
0.0
 40
0.0
 40
0.0
 40
0.0
 40
0.1287443602
 40
0.2703971121
 40
0.4176139114
 40
0.5620190713
 40
0.6957499754
 40
0.8130650626
 40
0.9124721117
 40
0.9571211941
 40
1.0
 40
1.0
 40
1.0
 40
1.0
 10
141.6011689837
 20
193.3372283836
 30
0.0
 10
141.7381120681
 20
193.4162920383
 30
0.0
 10
142.0481776933
 20
193.5442214491
 30
0.0
 10
142.553506054
 20
193.6453372414
 30
0.0
 10
143.0880239492
 20
193.6600957584
 30
0.0
 10
143.607925107
 20
193.5871594293
 30
0.0
 10
144.0716821618
 20
193.4319379513
 30
0.0
 10
144.443258798
 20
193.2064312642
 30
0.0
 10
144.659721571
 20
192.9578570876
 30
0.0
 10
144.7452114276
 20
192.7426135267
 30
0.0
 10
144.7593041153
 20
192.6346482547
 30
0.0
 10
144.7592831958
 20
192.5819831126
 30
0.0
  0
SPLINE
  5
518
100
AcDbEntity
  8
0
100
AcDbSpline
 62
7
  6
CONTINUOUS
 70
0
 71
3
 72
10
 73
6
 74
0
 42
0.0000001
 43
0.0000001
 44
0.0000000001
 40
0.0
 40
0.0
 40
0.0
 40
0.0
 40
0.2271243056
 40
0.4647818616
 40
1.0
 40
1.0
 40
1.0
 40
1.0
 10
125.0081036498
 20
183.31484057
 30
0.0
 10
125.0081259767
 20
183.3710488494
 30
0.0
 10
125.024234201
 20
183.4866460397
 30
0.0
 10
125.1219660404
 20
183.7163951557
 30
0.0
 10
125.2578744275
 20
183.8603437127
 30
0.0
 10
125.361587748
 20
183.9427318663
 30
0.0
  0
SPLINE
  5
519
100
AcDbEntity
  8
0
100
AcDbSpline
 62
7
  6
CONTINUOUS
 70
0
 71
3
 72
9
 73
5
 74
0
 42
0.0000001
 43
0.0000001
 44
0.0000000001
 40
0.0
 40
0.0
 40
0.0
 40
0.0
 40
0.2425673463
 40
1.0
 40
1.0
 40
1.0
 40
1.0
 10
125.361587748
 20
183.9427318663
 30
0.0
 10
125.3759885285
 20
183.9541716091
 30
0.0
 10
125.4363067312
 20
184.0001310678
 30
0.0
 10
125.5001768936
 20
184.0413717549
 30
0.0
 10
125.5499118789
 20
184.0700860907
 30
0.0
  0
SPLINE
  5
51A
100
AcDbEntity
  8
0
100
AcDbSpline
 62
7
  6
CONTINUOUS
 70
0
 71
3
 72
16
 73
12
 74
0
 42
0.0000001
 43
0.0000001
 44
0.0000000001
 40
0.0
 40
0.0
 40
0.0
 40
0.0
 40
0.0428757442
 40
0.087521923
 40
0.1869262484
 40
0.3042380343
 40
0.4379641723
 40
0.5823700573
 40
0.7295935095
 40
0.87125452
 40
1.0
 40
1.0
 40
1.0
 40
1.0
 10
40.8078062228
 20
142.9177553887
 30
0.0
 10
40.8078519647
 20
143.0316179383
 30
0.0
 10
40.7773647915
 20
143.2650371585
 30
0.0
 10
40.5925715287
 20
143.7304207218
 30
0.0
 10
40.1245550441
 20
144.2678669123
 30
0.0
 10
39.3211870538
 20
144.7554532648
 30
0.0
 10
38.3184922621
 20
145.0910837557
 30
0.0
 10
37.1943766908
 20
145.2488026596
 30
0.0
 10
36.0386184122
 20
145.2169122552
 30
0.0
 10
34.9459720233
 20
144.9982794683
 30
0.0
 10
34.2755348717
 20
144.7216683628
 30
0.0
 10
33.9794388729
 20
144.5507182787
 30
0.0
  0
SPLINE
  5
51B
100
AcDbEntity
  8
0
100
AcDbSpline
 62
7
  6
CONTINUOUS
 70
0
 71
3
 72
9
 73
5
 74
0
 42
0.0000001
 43
0.0000001
 44
0.0000000001
 40
0.0
 40
0.0
 40
0.0
 40
0.0
 40
0.5225026411
 40
1.0
 40
1.0
 40
1.0
 40
1.0
 10
43.4871976461
 20
149.4114279348
 30
0.0
 10
43.4709403697
 20
149.365804877
 30
0.0
 10
43.4277338798
 20
149.281751614
 30
0.0
 10
43.3565876363
 20
149.2182403624
 30
0.0
 10
43.3182561368
 20
149.1961097992
 30
0.0
  0
SPLINE
  5
51C
100
AcDbEntity
  8
0
100
AcDbSpline
 62
7
  6
CONTINUOUS
 70
0
 71
3
 72
9
 73
5
 74
0
 42
0.0000001
 43
0.0000001
 44
0.0000000001
 40
0.0
 40
0.0
 40
0.0
 40
0.0
 40
0.5225026411
 40
1.0
 40
1.0
 40
1.0
 40
1.0
 10
51.2654046228
 20
144.9207796351
 30
0.0
 10
51.2491473464
 20
144.8751565773
 30
0.0
 10
51.2059408564
 20
144.7911033143
 30
0.0
 10
51.1347946129
 20
144.7275920627
 30
0.0
 10
51.0964631135
 20
144.7054614995
 30
0.0
  0
SPLINE
  5
51D
100
AcDbEntity
  8
0
100
AcDbSpline
 62
7
  6
CONTINUOUS
 70
0
 71
3
 72
11
 73
7
 74
0
 42
0.0000001
 43
0.0000001
 44
0.0000000001
 40
0.0
 40
0.0
 40
0.0
 40
0.0
 40
0.2895401978
 40
0.5491171512
 40
0.782255066
 40
1.0
 40
1.0
 40
1.0
 40
1.0
 10
59.0817929001
 20
138.3863735868
 30
0.0
 10
59.0817929001
 20
138.2850963404
 30
0.0
 10
59.0663288004
 20
138.0923833035
 30
0.0
 10
58.988422662
 20
137.8275616191
 30
0.0
 10
58.8570097311
 20
137.6125992449
 30
0.0
 10
58.7334732873
 20
137.5089805522
 30
0.0
 10
58.6675130208
 20
137.4708986174
 30
0.0
  0
SPLINE
  5
51E
100
AcDbEntity
  8
0
100
AcDbSpline
 62
7
  6
CONTINUOUS
 70
0
 71
3
 72
11
 73
7
 74
0
 42
0.0000001
 43
0.0000001
 44
0.0000000001
 40
0.0
 40
0.0
 40
0.0
 40
0.0
 40
0.2895401978
 40
0.5491171512
 40
0.782255066
 40
1.0
 40
1.0
 40
1.0
 40
1.0
 10
66.8599998767
 20
133.895725287
 30
0.0
 10
66.8599998767
 20
133.7944480407
 30
0.0
 10
66.8445357771
 20
133.6017350038
 30
0.0
 10
66.7666296386
 20
133.3369133194
 30
0.0
 10
66.6352167078
 20
133.1219509451
 30
0.0
 10
66.5116802639
 20
133.0183322525
 30
0.0
 10
66.4457199974
 20
132.9802503177
 30
0.0
  0
SPLINE
  5
51F
100
AcDbEntity
  8
0
100
AcDbSpline
 62
7
  6
CONTINUOUS
 70
0
 71
3
 72
11
 73
7
 74
0
 42
0.0000001
 43
0.0000001
 44
0.0000000001
 40
0.0
 40
0.0
 40
0.0
 40
0.0
 40
0.2895401978
 40
0.5491171512
 40
0.782255066
 40
1.0
 40
1.0
 40
1.0
 40
1.0
 10
74.6382068533
 20
129.4050769873
 30
0.0
 10
74.6382068533
 20
129.303799741
 30
0.0
 10
74.6227427537
 20
129.1110867041
 30
0.0
 10
74.5448366152
 20
128.8462650197
 30
0.0
 10
74.4134236844
 20
128.6313026454
 30
0.0
 10
74.2898872405
 20
128.5276839528
 30
0.0
 10
74.2239269741
 20
128.4896020179
 30
0.0
  0
SPLINE
  5
520
100
AcDbEntity
  8
0
100
AcDbSpline
 62
7
  6
CONTINUOUS
 70
0
 71
3
 72
11
 73
7
 74
0
 42
0.0000001
 43
0.0000001
 44
0.0000000001
 40
0.0
 40
0.0
 40
0.0
 40
0.0
 40
0.2895401978
 40
0.5491171512
 40
0.782255066
 40
1.0
 40
1.0
 40
1.0
 40
1.0
 10
82.4164138299
 20
124.9144286876
 30
0.0
 10
82.4164138299
 20
124.8131514413
 30
0.0
 10
82.4009497303
 20
124.6204384043
 30
0.0
 10
82.3230435919
 20
124.3556167199
 30
0.0
 10
82.191630661
 20
124.1406543457
 30
0.0
 10
82.0680942171
 20
124.0370356531
 30
0.0
 10
82.0021339507
 20
123.9989537182
 30
0.0
  0
SPLINE
  5
521
100
AcDbEntity
  8
0
100
AcDbSpline
 62
7
  6
CONTINUOUS
 70
0
 71
3
 72
11
 73
7
 74
0
 42
0.0000001
 43
0.0000001
 44
0.0000000001
 40
0.0
 40
0.0
 40
0.0
 40
0.0
 40
0.2895401978
 40
0.5491171512
 40
0.782255066
 40
1.0
 40
1.0
 40
1.0
 40
1.0
 10
90.1946208065
 20
120.4237803879
 30
0.0
 10
90.1946208065
 20
120.3225031415
 30
0.0
 10
90.1791567069
 20
120.1297901046
 30
0.0
 10
90.1012505685
 20
119.8649684202
 30
0.0
 10
89.9698376376
 20
119.650006046
 30
0.0
 10
89.8463011937
 20
119.5463873534
 30
0.0
 10
89.7803409273
 20
119.5083054185
 30
0.0
  0
SPLINE
  5
522
100
AcDbEntity
  8
0
100
AcDbSpline
 62
7
  6
CONTINUOUS
 70
0
 71
3
 72
13
 73
9
 74
0
 42
0.0000001
 43
0.0000001
 44
0.0000000001
 40
0.0
 40
0.0
 40
0.0
 40
0.0
 40
0.3053728819
 40
0.5732843667
 40
0.6919025938
 40
0.8009432711
 40
0.9025309698
 40
1.0
 40
1.0
 40
1.0
 40
1.0
 10
66.8042981286
 20
96.7226716286
 30
0.0
 10
67.2040435525
 20
96.2923837322
 30
0.0
 10
68.0281323722
 20
95.5484595434
 30
0.0
 10
69.2059445324
 20
94.8913262717
 30
0.0
 10
70.1293772695
 20
94.637695967
 30
0.0
 10
70.7650583244
 20
94.5866334472
 30
0.0
 10
71.3569558916
 20
94.670583081
 30
0.0
 10
71.7154153045
 20
94.8187210625
 30
0.0
 10
71.8777425256
 20
94.9124837107
 30
0.0
  0
SPLINE
  5
523
100
AcDbEntity
  8
0
100
AcDbSpline
 62
7
  6
CONTINUOUS
 70
0
 71
3
 72
11
 73
7
 74
0
 42
0.0000001
 43
0.0000001
 44
0.0000000001
 40
0.0
 40
0.0
 40
0.0
 40
0.0
 40
0.2852749521
 40
0.5430328723
 40
0.7780195808
 40
1.0
 40
1.0
 40
1.0
 40
1.0
 10
75.6789559343
 20
95.8583412874
 30
0.0
 10
75.6491040766
 20
95.4172695373
 30
0.0
 10
75.5262258115
 20
94.5794242512
 30
0.0
 10
75.1133164574
 20
93.4361483309
 30
0.0
 10
74.4857930881
 20
92.5076540821
 30
0.0
 10
73.9256563258
 20
92.0533660236
 30
0.0
 10
73.6277262634
 20
91.881405184
 30
0.0
  0
SPLINE
  5
524
100
AcDbEntity
  8
0
100
AcDbSpline
 62
7
  6
CONTINUOUS
 70
0
 71
3
 72
10
 73
6
 74
0
 42
0.0000001
 43
0.0000001
 44
0.0000000001
 40
0.0
 40
0.0
 40
0.0
 40
0.0
 40
0.2279802852
 40
0.476140068
 40
1.0
 40
1.0
 40
1.0
 40
1.0
 10
64.0315609761
 20
103.1951925868
 30
0.0
 10
64.0315609761
 20
102.7610519168
 30
0.0
 10
64.1266999009
 20
101.853088769
 30
0.0
 10
64.6286431193
 20
100.0114419324
 30
0.0
 10
65.3155721992
 20
98.6839543314
 30
0.0
 10
65.8857356507
 20
97.8653687378
 30
0.0
  0
SPLINE
  5
525
100
AcDbEntity
  8
0
100
AcDbSpline
 62
7
  6
CONTINUOUS
 70
0
 71
3
 72
14
 73
10
 74
0
 42
0.0000001
 43
0.0000001
 44
0.0000000001
 40
0.0
 40
0.0
 40
0.0
 40
0.0
 40
0.3060748679
 40
0.4460972112
 40
0.5756094522
 40
0.6942849702
 40
0.8029250271
 40
0.9036675799
 40
1.0
 40
1.0
 40
1.0
 40
1.0
 10
65.029830445
 20
94.198191888
 30
0.0
 10
65.7518149932
 20
93.3700457053
 30
0.0
 10
66.9194961465
 20
92.2509158812
 30
0.0
 10
68.6440364967
 20
91.1049237648
 30
0.0
 10
69.9021361911
 20
90.4939963607
 30
0.0
 10
71.1344336045
 20
90.1220421925
 30
0.0
 10
72.3144819427
 20
90.0009200006
 30
0.0
 10
73.4137219684
 20
90.1390104902
 30
0.0
 10
74.0782311403
 20
90.4095172923
 30
0.0
 10
74.3777167857
 20
90.5823757971
 30
0.0
  0
SPLINE
  5
526
100
AcDbEntity
  8
0
100
AcDbSpline
 62
7
  6
CONTINUOUS
 70
0
 71
3
 72
11
 73
7
 74
0
 42
0.0000001
 43
0.0000001
 44
0.0000000001
 40
0.0
 40
0.0
 40
0.0
 40
0.0
 40
0.286840088
 40
0.5450656302
 40
0.7794372931
 40
1.0
 40
1.0
 40
1.0
 40
1.0
 10
79.2211534626
 20
93.813298856
 30
0.0
 10
79.1902778286
 20
93.1189720197
 30
0.0
 10
79.0273641062
 20
91.7998333585
 30
0.0
 10
78.4167406731
 20
89.9958743904
 30
0.0
 10
77.4595449165
 20
88.5314317377
 30
0.0
 10
76.5905122822
 20
87.8185290603
 30
0.0
 10
76.1277081094
 20
87.551283358
 30
0.0
  0
SPLINE
  5
527
100
AcDbEntity
  8
0
100
AcDbSpline
 62
7
  6
CONTINUOUS
 70
0
 71
3
 72
11
 73
7
 74
0
 42
0.0000001
 43
0.0000001
 44
0.0000000001
 40
0.0
 40
0.0
 40
0.0
 40
0.0
 40
0.2277529802
 40
0.4762938356
 40
0.7370846349
 40
1.0
 40
1.0
 40
1.0
 40
1.0
 10
60.4960123504
 20
105.2363963594
 30
0.0
 10
60.4960123504
 20
104.4247099625
 30
0.0
 10
60.6838387397
 20
102.7253877256
 30
0.0
 10
61.4088944023
 20
100.1904964677
 30
0.0
 10
62.5491539155
 20
97.6756165291
 30
0.0
 10
63.5531586609
 20
96.0935411949
 30
0.0
 10
64.1112679671
 20
95.3408889973
 30
0.0
  0
SPLINE
  5
528
100
AcDbEntity
  8
0
100
AcDbSpline
 62
7
  6
CONTINUOUS
 70
0
 71
3
 72
9
 73
5
 74
0
 42
0.0000001
 43
0.0000001
 44
0.0000000001
 40
0.0
 40
0.0
 40
0.0
 40
0.0
 40
0.5202489563
 40
1.0
 40
1.0
 40
1.0
 40
1.0
 10
80.8755993067
 20
101.6347349508
 30
0.0
 10
81.4321539848
 20
100.2000479089
 30
0.0
 10
82.3091780803
 20
97.3625247253
 30
0.0
 10
82.7147759864
 20
94.4132778126
 30
0.0
 10
82.7600214637
 20
92.9949323102
 30
0.0
  0
SPLINE
  5
529
100
AcDbEntity
  8
0
100
AcDbSpline
 62
7
  6
CONTINUOUS
 70
0
 71
3
 72
12
 73
8
 74
0
 42
0.0000001
 43
0.0000001
 44
0.0000000001
 40
0.0
 40
0.0
 40
0.0
 40
0.0
 40
0.2874059212
 40
0.5456864862
 40
0.7795985269
 40
0.890735372
 40
1.0
 40
1.0
 40
1.0
 40
1.0
 10
82.7600214637
 20
91.7701786845
 30
0.0
 10
82.7286338416
 20
90.8224887343
 30
0.0
 10
82.5261804691
 20
89.0215981206
 30
0.0
 10
81.7206399028
 20
86.5571967129
 30
0.0
 10
80.6261355912
 20
84.8590668546
 30
0.0
 10
79.5409849426
 20
83.817297759
 30
0.0
 10
78.9399157574
 20
83.4013428777
 30
0.0
 10
78.6277145055
 20
83.2211196078
 30
0.0
  0
SPLINE
  5
52A
100
AcDbEntity
  8
0
100
AcDbSpline
 62
7
  6
CONTINUOUS
 70
0
 71
3
 72
14
 73
10
 74
0
 42
0.0000001
 43
0.0000001
 44
0.0000000001
 40
0.0
 40
0.0
 40
0.0
 40
0.0
 40
0.306355007
 40
0.4466382779
 40
0.5763552571
 40
0.6950986123
 40
0.8036257367
 40
0.9040741173
 40
1.0
 40
1.0
 40
1.0
 40
1.0
 10
63.2594298155
 20
91.6794982183
 30
0.0
 10
64.302491078
 20
90.4531245266
 30
0.0
 10
65.9953048733
 20
88.7930126658
 30
0.0
 10
68.5048373779
 20
87.0855221848
 30
0.0
 10
70.3397201171
 20
86.1703832897
 30
0.0
 10
72.1392463926
 20
85.607719508
 30
0.0
 10
73.8637450635
 20
85.4157747738
 30
0.0
 10
75.4703034573
 20
85.6078338248
 30
0.0
 10
76.4411481533
 20
86.0001605017
 30
0.0
 10
76.8777012812
 20
86.2522492984
 30
0.0
  0
SPLINE
  5
52B
100
AcDbEntity
  8
0
100
AcDbSpline
 62
7
  6
CONTINUOUS
 70
0
 71
3
 72
14
 73
10
 74
0
 42
0.0000001
 43
0.0000001
 44
0.0000000001
 40
0.0
 40
0.0
 40
0.0
 40
0.0
 40
0.0979546167
 40
0.208937483
 40
0.3318997653
 40
0.4640665595
 40
0.7391239491
 40
0.8735664928
 40
1.0
 40
1.0
 40
1.0
 40
1.0
 10
67.3392817201
 20
105.0872685829
 30
0.0
 10
67.6009599895
 20
105.0544437774
 30
0.0
 10
68.148993972
 20
104.8973417988
 30
0.0
 10
68.9363091468
 20
104.4641266334
 30
0.0
 10
69.7066479629
 20
103.8417677725
 30
0.0
 10
70.673868958
 20
102.7872005763
 30
0.0
 10
71.438942991
 20
101.5221053758
 30
0.0
 10
71.9360284721
 20
100.1644534598
 30
0.0
 10
72.0820559919
 20
99.473788831
 30
0.0
 10
72.1233216064
 20
99.1358949089
 30
0.0
  0
SPLINE
  5
52C
100
AcDbEntity
  8
0
100
AcDbSpline
 62
7
  6
CONTINUOUS
 70
0
 71
3
 72
11
 73
7
 74
0
 42
0.0000001
 43
0.0000001
 44
0.0000000001
 40
0.0
 40
0.0
 40
0.0
 40
0.0
 40
0.2278016171
 40
0.4766364018
 40
0.737559235
 40
1.0
 40
1.0
 40
1.0
 40
1.0
 10
56.9604637246
 20
107.277600132
 30
0.0
 10
56.9604637246
 20
106.0883808317
 30
0.0
 10
57.2414502493
 20
103.5973836668
 30
0.0
 10
58.3225314828
 20
99.8867162378
 30
0.0
 10
60.0193205603
 20
96.2148342791
 30
0.0
 10
61.5119372002
 20
93.913026222
 30
0.0
 10
62.3408673376
 20
92.8221953275
 30
0.0
  0
SPLINE
  5
52D
100
AcDbEntity
  8
0
100
AcDbSpline
 62
7
  6
CONTINUOUS
 70
0
 71
3
 72
10
 73
6
 74
0
 42
0.0000001
 43
0.0000001
 44
0.0000000001
 40
0.0
 40
0.0
 40
0.0
 40
0.0
 40
0.521840449
 40
0.7685550581
 40
1.0
 40
1.0
 40
1.0
 40
1.0
 10
76.493686136
 20
104.2163906829
 30
0.0
 10
77.2899795114
 20
102.7402284535
 30
0.0
 10
78.2605449971
 20
100.4431608997
 30
0.0
 10
79.0128057543
 20
97.3134437879
 30
0.0
 10
79.1897177452
 20
95.7812724126
 30
0.0
 10
79.2211534626
 20
95.0380524817
 30
0.0
  0
SPLINE
  5
52E
100
AcDbEntity
  8
0
100
AcDbSpline
 62
7
  6
CONTINUOUS
 70
0
 71
3
 72
9
 73
5
 74
0
 42
0.0000001
 43
0.0000001
 44
0.0000000001
 40
0.0
 40
0.0
 40
0.0
 40
0.0
 40
0.2301521635
 40
1.0
 40
1.0
 40
1.0
 40
1.0
 10
65.5614645561
 20
109.6693135204
 30
0.0
 10
65.7740494116
 20
109.6647118984
 30
0.0
 10
66.6964195563
 20
109.5785255505
 30
0.0
 10
67.5847921469
 20
109.2526585532
 30
0.0
 10
68.2183122969
 20
108.9293436935
 30
0.0
  0
SPLINE
  5
52F
100
AcDbEntity
  8
0
100
AcDbSpline
 62
7
  6
CONTINUOUS
 70
0
 71
3
 72
12
 73
8
 74
0
 42
0.0000001
 43
0.0000001
 44
0.0000000001
 40
0.0
 40
0.0
 40
0.0
 40
0.0
 40
0.2369728743
 40
0.4972683825
 40
0.7588949521
 40
0.883303367
 40
1.0
 40
1.0
 40
1.0
 40
1.0
 10
68.8615269856
 20
108.5671834222
 30
0.0
 10
69.7882804099
 20
107.9966204804
 30
0.0
 10
71.5438444896
 20
106.4869118755
 30
0.0
 10
73.6290965286
 20
103.668202257
 30
0.0
 10
74.8882805275
 20
100.9517336994
 30
0.0
 10
75.4919906955
 20
98.7188323571
 30
0.0
 10
75.6453790111
 20
97.6179762365
 30
0.0
 10
75.6789559343
 20
97.0830949131
 30
0.0
  0
SPLINE
  5
530
100
AcDbEntity
  8
0
100
AcDbSpline
 62
7
  6
CONTINUOUS
 70
0
 71
3
 72
11
 73
7
 74
0
 42
0.0000001
 43
0.0000001
 44
0.0000000001
 40
0.0
 40
0.0
 40
0.0
 40
0.0
 40
0.2803232709
 40
0.5367777548
 40
0.7737727129
 40
1.0
 40
1.0
 40
1.0
 40
1.0
 10
72.1233216064
 20
97.9111412833
 30
0.0
 10
72.0965495176
 20
97.7228372846
 30
0.0
 10
72.017343795
 20
97.3651660267
 30
0.0
 10
71.8067375213
 20
96.8800769116
 30
0.0
 10
71.5119382292
 20
96.4847142163
 30
0.0
 10
71.2606433939
 20
96.2883264332
 30
0.0
 10
71.127711534
 20
96.2115834896
 30
0.0
  0
SPLINE
  5
531
100
AcDbEntity
  8
0
100
AcDbSpline
 62
7
  6
CONTINUOUS
 70
0
 71
3
 72
17
 73
13
 74
0
 42
0.0000001
 43
0.0000001
 44
0.0000000001
 40
0.0
 40
0.0
 40
0.0
 40
0.0
 40
0.0428584629
 40
0.08748393
 40
0.135317815
 40
0.1872795469
 40
0.3045398917
 40
0.4382057949
 40
0.5825481992
 40
0.7297130515
 40
0.8713063844
 40
1.0
 40
1.0
 40
1.0
 40
1.0
 10
50.29317743
 20
138.8353686331
 30
0.0
 10
50.2931882044
 20
138.9777013367
 30
0.0
 10
50.2550357117
 20
139.2694596784
 30
0.0
 10
50.0877957617
 20
139.6907803947
 30
0.0
 10
49.8162215422
 20
140.0901718216
 30
0.0
 10
49.3050819316
 20
140.6031921467
 30
0.0
 10
48.434072714
 20
141.1333807293
 30
0.0
 10
47.1817234736
 20
141.5517123511
 30
0.0
 10
45.7762678603
 20
141.7492481579
 30
0.0
 10
44.3316617537
 20
141.7092584125
 30
0.0
 10
42.9658093456
 20
141.4360503342
 30
0.0
 10
42.1277776428
 20
141.090266811
 30
0.0
 10
41.7576458495
 20
140.8765723961
 30
0.0
  0
SPLINE
  5
532
100
AcDbEntity
  8
0
100
AcDbSpline
 62
7
  6
CONTINUOUS
 70
0
 71
3
 72
9
 73
5
 74
0
 42
0.0000001
 43
0.0000001
 44
0.0000000001
 40
0.0
 40
0.0
 40
0.0
 40
0.0
 40
0.5072550584
 40
1.0
 40
1.0
 40
1.0
 40
1.0
 10
31.5045136193
 20
195.1298241648
 30
0.0
 10
45.2089831367
 20
205.244651503
 30
0.0
 10
72.702849524
 20
224.5482200458
 30
0.0
 10
101.1432281778
 20
242.4327186332
 30
0.0
 10
115.3856140994
 20
250.8538862546
 30
0.0
  0
SPLINE
  5
533
100
AcDbEntity
  8
0
100
AcDbSpline
 62
7
  6
CONTINUOUS
 70
0
 71
3
 72
16
 73
12
 74
0
 42
0.0000001
 43
0.0000001
 44
0.0000000001
 40
0.0
 40
0.0
 40
0.0
 40
0.0
 40
0.0428757442
 40
0.087521923
 40
0.1869262484
 40
0.3042380343
 40
0.4379641723
 40
0.5823700573
 40
0.7295935095
 40
0.87125452
 40
1.0
 40
1.0
 40
1.0
 40
1.0
 10
86.7699383574
 20
116.3821063449
 30
0.0
 10
86.7699840992
 20
116.4959688945
 30
0.0
 10
86.7394969261
 20
116.7293881147
 30
0.0
 10
86.5547036633
 20
117.194771678
 30
0.0
 10
86.0866871787
 20
117.7322178684
 30
0.0
 10
85.2833191884
 20
118.2198042209
 30
0.0
 10
84.2806243966
 20
118.5554347119
 30
0.0
 10
83.1565088253
 20
118.7131536158
 30
0.0
 10
82.0007505468
 20
118.6812632114
 30
0.0
 10
80.9081041578
 20
118.4626304245
 30
0.0
 10
80.2376670062
 20
118.186019319
 30
0.0
 10
79.9415710074
 20
118.0150692349
 30
0.0
  0
SPLINE
  5
534
100
AcDbEntity
  8
0
100
AcDbSpline
 62
7
  6
CONTINUOUS
 70
0
 71
3
 72
11
 73
7
 74
0
 42
0.0000001
 43
0.0000001
 44
0.0000000001
 40
0.0
 40
0.0
 40
0.0
 40
0.0
 40
0.217772863
 40
0.4509524074
 40
0.7102014732
 40
1.0
 40
1.0
 40
1.0
 40
1.0
 10
62.8778033604
 20
110.5009287494
 30
0.0
 10
62.4984378067
 20
110.2819765558
 30
0.0
 10
61.7885155737
 20
109.6853007441
 30
0.0
 10
61.0333109934
 20
108.4498236982
 30
0.0
 10
60.5840447186
 20
106.9274171046
 30
0.0
 10
60.4960123504
 20
105.8192811097
 30
0.0
 10
60.4960123504
 20
105.2363963594
 30
0.0
  0
SPLINE
  5
535
100
AcDbEntity
  8
0
100
AcDbSpline
 62
7
  6
CONTINUOUS
 70
0
 71
3
 72
11
 73
7
 74
0
 42
0.0000001
 43
0.0000001
 44
0.0000000001
 40
0.0
 40
0.0
 40
0.0
 40
0.0
 40
0.2178558056
 40
0.4509687853
 40
0.7102644255
 40
1.0
 40
1.0
 40
1.0
 40
1.0
 10
65.3778411304
 20
106.1707102086
 30
0.0
 10
65.1633361804
 20
106.0469120979
 30
0.0
 10
64.762017619
 20
105.709696876
 30
0.0
 10
64.3351997649
 20
105.0112798675
 30
0.0
 10
64.0813591507
 20
104.1508793605
 30
0.0
 10
64.0315609761
 20
103.5245737161
 30
0.0
 10
64.0315609761
 20
103.1951925868
 30
0.0
  0
SPLINE
  5
536
100
AcDbEntity
  8
0
100
AcDbSpline
 62
7
  6
CONTINUOUS
 70
0
 71
3
 72
9
 73
5
 74
0
 42
0.0000001
 43
0.0000001
 44
0.0000000001
 40
0.0
 40
0.0
 40
0.0
 40
0.0
 40
0.4562611328
 40
1.0
 40
1.0
 40
1.0
 40
1.0
 10
45.9172011907
 20
153.6425704436
 30
0.0
 10
45.8246663554
 20
153.5491483434
 30
0.0
 10
45.6803939029
 20
153.2860466251
 30
0.0
 10
45.6467081223
 20
152.9949714355
 30
0.0
 10
45.6467081223
 20
152.8382677431
 30
0.0
  0
SPLINE
  5
537
100
AcDbEntity
  8
0
100
AcDbSpline
 62
7
  6
CONTINUOUS
 70
0
 71
3
 72
11
 73
7
 74
0
 42
0.0000001
 43
0.0000001
 44
0.0000000001
 40
0.0
 40
0.0
 40
0.0
 40
0.0
 40
0.2400856331
 40
0.5026407356
 40
0.763796593
 40
1.0
 40
1.0
 40
1.0
 40
1.0
 10
120.7895199481
 20
248.0478086558
 30
0.0
 10
121.2950963097
 20
247.7853304212
 30
0.0
 10
122.4456679814
 20
247.410740243
 30
0.0
 10
124.2641055038
 20
247.2555756179
 30
0.0
 10
126.0654842405
 20
247.48446318
 30
0.0
 10
127.1868969525
 20
247.9063257359
 30
0.0
 10
127.6707061356
 20
248.1892060798
 30
0.0
  0
SPLINE
  5
538
100
AcDbEntity
  8
0
100
AcDbSpline
 62
7
  6
CONTINUOUS
 70
0
 71
3
 72
9
 73
5
 74
0
 42
0.0000001
 43
0.0000001
 44
0.0000000001
 40
0.0
 40
0.0
 40
0.0
 40
0.0
 40
0.2583696289
 40
1.0
 40
1.0
 40
1.0
 40
1.0
 10
103.7010881251
 20
95.3159652935
 30
0.0
 10
103.6317927983
 20
95.2895220268
 30
0.0
 10
103.3654826792
 20
95.1823503062
 30
0.0
 10
103.1069265361
 20
95.0554100567
 30
0.0
 10
102.9225516997
 20
94.9489618307
 30
0.0
  0
SPLINE
  5
539
100
AcDbEntity
  8
0
100
AcDbSpline
 62
7
  6
CONTINUOUS
 70
0
 71
3
 72
11
 73
7
 74
0
 42
0.0000001
 43
0.0000001
 44
0.0000000001
 40
0.0
 40
0.0
 40
0.0
 40
0.0
 40
0.2372444228
 40
0.5000010918
 40
0.7627571666
 40
1.0
 40
1.0
 40
1.0
 40
1.0
 10
84.8912978679
 20
123.4855860468
 30
0.0
 10
84.8912978679
 20
123.3696648893
 30
0.0
 10
84.9347887289
 20
123.1252008649
 30
0.0
 10
85.0863276342
 20
122.7816878363
 30
0.0
 10
85.3080501016
 20
122.478696414
 30
0.0
 10
85.4980170307
 20
122.3188020821
 30
0.0
 10
85.5984075931
 20
122.2608428751
 30
0.0
  0
SPLINE
  5
53A
100
AcDbEntity
  8
0
100
AcDbSpline
 62
7
  6
CONTINUOUS
 70
0
 71
3
 72
9
 73
5
 74
0
 42
0.0000001
 43
0.0000001
 44
0.0000000001
 40
0.0
 40
0.0
 40
0.0
 40
0.0
 40
0.2569830488
 40
1.0
 40
1.0
 40
1.0
 40
1.0
 10
46.5609245615
 20
148.9569646706
 30
0.0
 10
46.5822493035
 20
148.9200293391
 30
0.0
 10
46.6705164958
 20
148.7794923749
 30
0.0
 10
46.7793022177
 20
148.6512732051
 30
0.0
 10
46.871032984
 20
148.5688633927
 30
0.0
  0
SPLINE
  5
53B
100
AcDbEntity
  8
0
100
AcDbSpline
 62
7
  6
CONTINUOUS
 70
0
 71
3
 72
9
 73
5
 74
0
 42
0.0000001
 43
0.0000001
 44
0.0000000001
 40
0.0
 40
0.0
 40
0.0
 40
0.0
 40
0.5249084627
 40
1.0
 40
1.0
 40
1.0
 40
1.0
 10
38.7301283798
 20
153.5459155925
 30
0.0
 10
38.7954970166
 20
153.4135950029
 30
0.0
 10
38.9521296154
 20
153.1765069798
 30
0.0
 10
39.1670247228
 20
152.9865776147
 30
0.0
 10
39.2827088201
 20
152.9197888809
 30
0.0
  0
SPLINE
  5
53C
100
AcDbEntity
  8
0
100
AcDbSpline
 62
7
  6
CONTINUOUS
 70
0
 71
3
 72
11
 73
7
 74
0
 42
0.0000001
 43
0.0000001
 44
0.0000000001
 40
0.0
 40
0.0
 40
0.0
 40
0.0
 40
0.2177227832
 40
0.4508712161
 40
0.7104668615
 40
1.0
 40
1.0
 40
1.0
 40
1.0
 10
108.957994036
 20
72.4952062034
 30
0.0
 10
108.9579977117
 20
72.4000136763
 30
0.0
 10
108.9229911676
 20
72.2015397382
 30
0.0
 10
108.7724522887
 20
71.9249280614
 30
0.0
 10
108.5344560293
 20
71.6750833474
 30
0.0
 10
108.3355073609
 20
71.5378989023
 30
0.0
 10
108.2258775823
 20
71.4746044979
 30
0.0
  0
SPLINE
  5
53D
100
AcDbEntity
  8
0
100
AcDbSpline
 62
7
  6
CONTINUOUS
 70
0
 71
3
 72
11
 73
7
 74
0
 42
0.0000001
 43
0.0000001
 44
0.0000000001
 40
0.0
 40
0.0
 40
0.0
 40
0.0
 40
0.219340743
 40
0.4561876951
 40
0.7158288008
 40
1.0
 40
1.0
 40
1.0
 40
1.0
 10
59.3106396817
 20
114.0297876087
 30
0.0
 10
58.9228836036
 20
113.6596218064
 30
0.0
 10
58.2222549288
 20
112.7736859866
 30
0.0
 10
57.487883898
 20
111.1713984523
 30
0.0
 10
57.0489350914
 20
109.3040531554
 30
0.0
 10
56.9604637246
 20
107.9721239256
 30
0.0
 10
56.9604637246
 20
107.277600132
 30
0.0
  0
SPLINE
  5
53E
100
AcDbEntity
  8
0
100
AcDbSpline
 62
7
  6
CONTINUOUS
 70
0
 71
3
 72
11
 73
7
 74
0
 42
0.0000001
 43
0.0000001
 44
0.0000000001
 40
0.0
 40
0.0
 40
0.0
 40
0.0
 40
0.2896428702
 40
0.5491125874
 40
0.7822368
 40
1.0
 40
1.0
 40
1.0
 40
1.0
 10
33.9794388729
 20
144.5507182787
 30
0.0
 10
33.803962281
 20
144.4494074258
 30
0.0
 10
33.4855638542
 20
144.2300185975
 30
0.0
 10
33.1049360673
 20
143.8301334029
 30
0.0
 10
32.8640850327
 20
143.3876482737
 30
0.0
 10
32.8080105228
 20
143.0700935794
 30
0.0
 10
32.8079493241
 20
142.9177551325
 30
0.0
  0
SPLINE
  5
53F
100
AcDbEntity
  8
0
100
AcDbSpline
 62
7
  6
CONTINUOUS
 70
0
 71
3
 72
11
 73
7
 74
0
 42
0.0000001
 43
0.0000001
 44
0.0000000001
 40
0.0
 40
0.0
 40
0.0
 40
0.0
 40
0.2897031353
 40
0.5490914015
 40
0.7822201129
 40
1.0
 40
1.0
 40
1.0
 40
1.0
 10
41.7576458495
 20
140.8765723961
 30
0.0
 10
41.5382535604
 20
140.749906955
 30
0.0
 10
41.1402183657
 20
140.4757531606
 30
0.0
 10
40.6645018029
 20
139.9758129323
 30
0.0
 10
40.363585348
 20
139.4227432431
 30
0.0
 10
40.2932259365
 20
139.0258070698
 30
0.0
 10
40.2932115205
 20
138.8353686139
 30
0.0
  0
SPLINE
  5
540
100
AcDbEntity
  8
0
100
AcDbSpline
 62
7
  6
CONTINUOUS
 70
0
 71
3
 72
11
 73
7
 74
0
 42
0.0000001
 43
0.0000001
 44
0.0000000001
 40
0.0
 40
0.0
 40
0.0
 40
0.0
 40
0.2896428702
 40
0.5491125874
 40
0.7822368
 40
1.0
 40
1.0
 40
1.0
 40
1.0
 10
79.9415710074
 20
118.0150692349
 30
0.0
 10
79.7660944155
 20
117.913758382
 30
0.0
 10
79.4476959888
 20
117.6943695537
 30
0.0
 10
79.0670682018
 20
117.2944843591
 30
0.0
 10
78.8262171672
 20
116.8519992298
 30
0.0
 10
78.7701426574
 20
116.5344445356
 30
0.0
 10
78.7700814587
 20
116.3821060887
 30
0.0
  0
SPLINE
  5
541
100
AcDbEntity
  8
0
100
AcDbSpline
 62
7
  6
CONTINUOUS
 70
0
 71
3
 72
11
 73
7
 74
0
 42
0.0000001
 43
0.0000001
 44
0.0000000001
 40
0.0
 40
0.0
 40
0.0
 40
0.0
 40
0.2372444228
 40
0.5000010918
 40
0.7627571666
 40
1.0
 40
1.0
 40
1.0
 40
1.0
 10
77.1130908913
 20
127.9762343465
 30
0.0
 10
77.1130908913
 20
127.860313189
 30
0.0
 10
77.1565817523
 20
127.6158491646
 30
0.0
 10
77.3081206576
 20
127.272336136
 30
0.0
 10
77.529843125
 20
126.9693447137
 30
0.0
 10
77.7198100541
 20
126.8094503819
 30
0.0
 10
77.8202006165
 20
126.7514911748
 30
0.0
  0
SPLINE
  5
542
100
AcDbEntity
  8
0
100
AcDbSpline
 62
7
  6
CONTINUOUS
 70
0
 71
3
 72
11
 73
7
 74
0
 42
0.0000001
 43
0.0000001
 44
0.0000000001
 40
0.0
 40
0.0
 40
0.0
 40
0.0
 40
0.2372444228
 40
0.5000010918
 40
0.7627571666
 40
1.0
 40
1.0
 40
1.0
 40
1.0
 10
69.3348839147
 20
132.4668826462
 30
0.0
 10
69.3348839147
 20
132.3509614887
 30
0.0
 10
69.3783747757
 20
132.1064974644
 30
0.0
 10
69.5299136809
 20
131.7629844357
 30
0.0
 10
69.7516361484
 20
131.4599930134
 30
0.0
 10
69.9416030774
 20
131.3000986816
 30
0.0
 10
70.0419936399
 20
131.2421394746
 30
0.0
  0
SPLINE
  5
543
100
AcDbEntity
  8
0
100
AcDbSpline
 62
7
  6
CONTINUOUS
 70
0
 71
3
 72
11
 73
7
 74
0
 42
0.0000001
 43
0.0000001
 44
0.0000000001
 40
0.0
 40
0.0
 40
0.0
 40
0.0
 40
0.2372444228
 40
0.5000010918
 40
0.7627571666
 40
1.0
 40
1.0
 40
1.0
 40
1.0
 10
61.5566769381
 20
136.9575309459
 30
0.0
 10
61.5566769381
 20
136.8416097884
 30
0.0
 10
61.600167799
 20
136.5971457641
 30
0.0
 10
61.7517067043
 20
136.2536327354
 30
0.0
 10
61.9734291717
 20
135.9506413131
 30
0.0
 10
62.1633961008
 20
135.7907469813
 30
0.0
 10
62.2637866632
 20
135.7327877743
 30
0.0
  0
SPLINE
  5
544
100
AcDbEntity
  8
0
100
AcDbSpline
 62
7
  6
CONTINUOUS
 70
0
 71
3
 72
11
 73
7
 74
0
 42
0.0000001
 43
0.0000001
 44
0.0000000001
 40
0.0
 40
0.0
 40
0.0
 40
0.0
 40
0.2372444228
 40
0.5000010918
 40
0.7627571666
 40
1.0
 40
1.0
 40
1.0
 40
1.0
 10
53.7784699615
 20
141.4481792457
 30
0.0
 10
53.7784699615
 20
141.3322580882
 30
0.0
 10
53.8219608224
 20
141.0877940638
 30
0.0
 10
53.9734997277
 20
140.7442810351
 30
0.0
 10
54.1952221951
 20
140.4412896128
 30
0.0
 10
54.3851891242
 20
140.281395281
 30
0.0
 10
54.4855796866
 20
140.223436074
 30
0.0
  0
SPLINE
  5
545
100
AcDbEntity
  8
0
100
AcDbSpline
 62
7
  6
CONTINUOUS
 70
0
 71
3
 72
10
 73
6
 74
0
 42
0.0000001
 43
0.0000001
 44
0.0000000001
 40
0.0
 40
0.0
 40
0.0
 40
0.0
 40
0.2499482468
 40
0.6244004732
 40
1.0
 40
1.0
 40
1.0
 40
1.0
 10
131.9133291589
 20
250.6542565728
 30
0.0
 10
131.5592858716
 20
250.4498508056
 30
0.0
 10
130.6776009791
 20
249.9344601555
 30
0.0
 10
129.2581667636
 20
249.1217807464
 30
0.0
 10
128.2010350074
 20
248.4992862082
 30
0.0
 10
127.6707061356
 20
248.1892060798
 30
0.0
  0
SPLINE
  5
546
100
AcDbEntity
  8
0
100
AcDbSpline
 62
7
  6
CONTINUOUS
 70
0
 71
3
 72
11
 73
7
 74
0
 42
0.0000001
 43
0.0000001
 44
0.0000000001
 40
0.0
 40
0.0
 40
0.0
 40
0.0
 40
0.2372428334
 40
0.4999989082
 40
0.7627555772
 40
1.0
 40
1.0
 40
1.0
 40
1.0
 10
37.8685011457
 20
152.1033005732
 30
0.0
 10
37.7681105833
 20
152.1612597802
 30
0.0
 10
37.5781436542
 20
152.321154112
 30
0.0
 10
37.3564211867
 20
152.6241455343
 30
0.0
 10
37.2048822815
 20
152.967658563
 30
0.0
 10
37.1613914205
 20
153.2121225874
 30
0.0
 10
37.1613914205
 20
153.3280437449
 30
0.0
  0
SPLINE
  5
547
100
AcDbEntity
  8
0
100
AcDbSpline
 62
7
  6
CONTINUOUS
 70
0
 71
3
 72
11
 73
7
 74
0
 42
0.0000001
 43
0.0000001
 44
0.0000000001
 40
0.0
 40
0.0
 40
0.0
 40
0.0
 40
0.2214268335
 40
0.456163555
 40
0.7141192788
 40
1.0
 40
1.0
 40
1.0
 40
1.0
 10
74.3777167857
 20
90.5823757971
 30
0.0
 10
74.7251282434
 20
90.782896343
 30
0.0
 10
75.3778822978
 20
91.3147798197
 30
0.0
 10
76.1045109484
 20
92.4038991521
 30
0.0
 10
76.5768851219
 20
93.7452918558
 30
0.0
 10
76.7119730128
 20
94.7274719133
 30
0.0
 10
76.7422241566
 20
95.2444769805
 30
0.0
  0
SPLINE
  5
548
100
AcDbEntity
  8
0
100
AcDbSpline
 62
7
  6
CONTINUOUS
 70
0
 71
3
 72
10
 73
6
 74
0
 42
0.0000001
 43
0.0000001
 44
0.0000000001
 40
0.0
 40
0.0
 40
0.0
 40
0.0
 40
0.2786642734
 40
0.5378430256
 40
1.0
 40
1.0
 40
1.0
 40
1.0
 10
54.4855796866
 20
108.7064427728
 30
0.0
 10
54.4855796866
 20
109.3976851927
 30
0.0
 10
54.5592420212
 20
110.7347351647
 30
0.0
 10
55.0130131736
 20
113.1749623591
 30
0.0
 10
55.7340470599
 20
114.8652504763
 30
0.0
 10
56.3966587502
 20
115.8007681792
 30
0.0
  0
SPLINE
  5
549
100
AcDbEntity
  8
0
100
AcDbSpline
 62
7
  6
CONTINUOUS
 70
0
 71
3
 72
11
 73
7
 74
0
 42
0.0000001
 43
0.0000001
 44
0.0000000001
 40
0.0
 40
0.0
 40
0.0
 40
0.0
 40
0.26223681
 40
0.5232183884
 40
0.7721775993
 40
1.0
 40
1.0
 40
1.0
 40
1.0
 10
61.1023693136
 20
91.0602228784
 30
0.0
 10
60.0838120455
 20
92.3874653208
 30
0.0
 10
58.2490517285
 20
95.1927355325
 30
0.0
 10
56.1621828575
 20
99.6740954408
 30
0.0
 10
54.831924325
 20
104.2078150982
 30
0.0
 10
54.4855796866
 20
107.2529708173
 30
0.0
 10
54.4855796866
 20
108.7064427728
 30
0.0
  0
SPLINE
  5
54A
100
AcDbEntity
  8
0
100
AcDbSpline
 62
7
  6
CONTINUOUS
 70
0
 71
3
 72
14
 73
10
 74
0
 42
0.0000001
 43
0.0000001
 44
0.0000000001
 40
0.0
 40
0.0
 40
0.0
 40
0.0
 40
0.0960184953
 40
0.1965331019
 40
0.3050852869
 40
0.4238122766
 40
0.5534825723
 40
0.6937073646
 40
1.0
 40
1.0
 40
1.0
 40
1.0
 10
76.1277081094
 20
87.551283358
 30
0.0
 10
75.7322847379
 20
87.3229466169
 30
0.0
 10
74.853324374
 20
86.9672133058
 30
0.0
 10
73.3989849187
 20
86.7912697038
 30
0.0
 10
71.8378186031
 20
86.9619296309
 30
0.0
 10
70.2084543837
 20
87.4673460375
 30
0.0
 10
68.546586117
 20
88.2911912319
 30
0.0
 10
66.2724837091
 20
89.8301688722
 30
0.0
 10
64.7371538734
 20
91.3279595942
 30
0.0
 10
63.790365792
 20
92.434844246
 30
0.0
  0
SPLINE
  5
54B
100
AcDbEntity
  8
0
100
AcDbSpline
 62
7
  6
CONTINUOUS
 70
0
 71
3
 72
10
 73
6
 74
0
 42
0.0000001
 43
0.0000001
 44
0.0000000001
 40
0.0
 40
0.0
 40
0.0
 40
0.0
 40
0.4612261909
 40
0.720631512
 40
1.0
 40
1.0
 40
1.0
 40
1.0
 10
64.6813286198
 20
109.461919996
 30
0.0
 10
64.333938426
 20
108.9919491688
 30
0.0
 10
63.9544781227
 20
108.1324227157
 30
0.0
 10
63.7166860446
 20
106.8870106632
 30
0.0
 10
63.6779884497
 20
106.202758678
 30
0.0
 10
63.6779884497
 20
105.8487676892
 30
0.0
  0
SPLINE
  5
54C
100
AcDbEntity
  8
0
100
AcDbSpline
 62
7
  6
CONTINUOUS
 70
0
 71
3
 72
11
 73
7
 74
0
 42
0.0000001
 43
0.0000001
 44
0.0000000001
 40
0.0
 40
0.0
 40
0.0
 40
0.0
 40
0.2314807485
 40
0.4815095133
 40
0.741104972
 40
1.0
 40
1.0
 40
1.0
 40
1.0
 10
76.7422241566
 20
96.4692306062
 30
0.0
 10
76.6965890975
 20
97.3018470408
 30
0.0
 10
76.4223111474
 20
99.0258914633
 30
0.0
 10
75.5816766541
 20
101.5695779855
 30
0.0
 10
74.3408810302
 20
104.0543310601
 30
0.0
 10
73.2778517749
 20
105.5991961525
 30
0.0
 10
72.6935361288
 20
106.3260778563
 30
0.0
  0
SPLINE
  5
54D
100
AcDbEntity
  8
0
100
AcDbSpline
 62
7
  6
CONTINUOUS
 70
0
 71
3
 72
11
 73
7
 74
0
 42
0.0000001
 43
0.0000001
 44
0.0000000001
 40
0.0
 40
0.0
 40
0.0
 40
0.0
 40
0.2242772916
 40
0.4603134209
 40
0.7173347275
 40
1.0
 40
1.0
 40
1.0
 40
1.0
 10
71.8777425256
 20
94.9124837107
 30
0.0
 10
72.0601708032
 20
95.0178570321
 30
0.0
 10
72.4041784096
 20
95.2913571981
 30
0.0
 10
72.7994602939
 20
95.8460459519
 30
0.0
 10
73.0719191508
 20
96.5279380519
 30
0.0
 10
73.1650914117
 20
97.029390135
 30
0.0
 10
73.1932887894
 20
97.293409417
 30
0.0
  0
SPLINE
  5
54E
100
AcDbEntity
  8
0
100
AcDbSpline
 62
7
  6
CONTINUOUS
 70
0
 71
3
 72
11
 73
7
 74
0
 42
0.0000001
 43
0.0000001
 44
0.0000000001
 40
0.0
 40
0.0
 40
0.0
 40
0.0
 40
0.2372523758
 40
0.4999990758
 40
0.7627462798
 40
1.0
 40
1.0
 40
1.0
 40
1.0
 10
61.9102318007
 20
135.1204057344
 30
0.0
 10
61.7094424909
 20
135.2363288739
 30
0.0
 10
61.3294664487
 20
135.5560804731
 30
0.0
 10
60.886151982
 20
136.1621423758
 30
0.0
 10
60.5829407395
 20
136.8490948291
 30
0.0
 10
60.4960123504
 20
137.3380405511
 30
0.0
 10
60.4960123504
 20
137.5698920777
 30
0.0
  0
SPLINE
  5
54F
100
AcDbEntity
  8
0
100
AcDbSpline
 62
7
  6
CONTINUOUS
 70
0
 71
3
 72
14
 73
10
 74
0
 42
0.0000001
 43
0.0000001
 44
0.0000000001
 40
0.0
 40
0.0
 40
0.0
 40
0.0
 40
0.0965371834
 40
0.1974280223
 40
0.306127663
 40
0.4247724335
 40
0.5541862867
 40
0.6940804427
 40
1.0
 40
1.0
 40
1.0
 40
1.0
 10
73.6277262634
 20
91.881405184
 30
0.0
 10
73.3693772561
 20
91.7322899458
 30
0.0
 10
72.796719664
 20
91.4984275692
 30
0.0
 10
71.8496850367
 20
91.3765250424
 30
0.0
 10
70.8329636788
 20
91.4764972395
 30
0.0
 10
69.7708547343
 20
91.7913754316
 30
0.0
 10
68.6858436489
 20
92.3112021691
 30
0.0
 10
67.1969442776
 20
93.2888787483
 30
0.0
 10
66.1869729795
 20
94.2458123419
 30
0.0
 10
65.5614645561
 20
94.9545311301
 30
0.0
  0
SPLINE
  5
550
100
AcDbEntity
  8
0
100
AcDbSpline
 62
7
  6
CONTINUOUS
 70
0
 71
3
 72
15
 73
11
 74
0
 42
0.0000001
 43
0.0000001
 44
0.0000000001
 40
0.0
 40
0.0
 40
0.0
 40
0.0
 40
0.1257294614
 40
0.2602404565
 40
0.3990762715
 40
0.5372896624
 40
0.6700017897
 40
0.7929716681
 40
0.9032480543
 40
1.0
 40
1.0
 40
1.0
 40
1.0
 10
73.1932887894
 20
98.5181630427
 30
0.0
 10
73.150246242
 20
98.9708815865
 30
0.0
 10
72.9734564418
 20
99.9006112251
 30
0.0
 10
72.4935155973
 20
101.2665982349
 30
0.0
 10
71.8121730904
 20
102.5952111876
 30
0.0
 10
70.9649253466
 20
103.8166908247
 30
0.0
 10
69.9958641887
 20
104.8678157306
 30
0.0
 10
68.9537117557
 20
105.6944309077
 30
0.0
 10
67.8909490982
 20
106.2543194899
 30
0.0
 10
67.1531803051
 20
106.4387980211
 30
0.0
 10
66.8042981286
 20
106.4661048923
 30
0.0
  0
SPLINE
  5
551
100
AcDbEntity
  8
0
100
AcDbSpline
 62
7
  6
CONTINUOUS
 70
0
 71
3
 72
11
 73
7
 74
0
 42
0.0000001
 43
0.0000001
 44
0.0000000001
 40
0.0
 40
0.0
 40
0.0
 40
0.0
 40
0.2897454367
 40
0.5490200268
 40
0.7821403891
 40
1.0
 40
1.0
 40
1.0
 40
1.0
 10
65.0922255638
 20
102.582831455
 30
0.0
 10
65.0922255638
 20
102.8362109289
 30
0.0
 10
65.1305159901
 20
103.3179804153
 30
0.0
 10
65.3257953541
 20
103.9798130635
 30
0.0
 10
65.6540866703
 20
104.5170825345
 30
0.0
 10
65.9628355141
 20
104.776430391
 30
0.0
 10
66.1278217278
 20
104.8716979684
 30
0.0
  0
SPLINE
  5
552
100
AcDbEntity
  8
0
100
AcDbSpline
 62
7
  6
CONTINUOUS
 70
0
 71
3
 72
10
 73
6
 74
0
 42
0.0000001
 43
0.0000001
 44
0.0000000001
 40
0.0
 40
0.0
 40
0.0
 40
0.0
 40
0.5242786067
 40
0.7719898311
 40
1.0
 40
1.0
 40
1.0
 40
1.0
 10
66.4207192422
 20
98.6264731811
 30
0.0
 10
66.0114608008
 20
99.2403666151
 30
0.0
 10
65.5186618888
 20
100.2275190037
 30
0.0
 10
65.1597791556
 20
101.5915957128
 30
0.0
 10
65.0922255638
 20
102.2619576731
 30
0.0
 10
65.0922255638
 20
102.582831455
 30
0.0
  0
SPLINE
  5
553
100
AcDbEntity
  8
0
100
AcDbSpline
 62
7
  6
CONTINUOUS
 70
0
 71
3
 72
16
 73
12
 74
0
 42
0.0000001
 43
0.0000001
 44
0.0000000001
 40
0.0
 40
0.0
 40
0.0
 40
0.0
 40
0.0428757442
 40
0.087521923
 40
0.1869262484
 40
0.3042380343
 40
0.4379641723
 40
0.5823700573
 40
0.7295935095
 40
0.87125452
 40
1.0
 40
1.0
 40
1.0
 40
1.0
 10
32.8079493241
 20
142.9177551325
 30
0.0
 10
32.8079035823
 20
142.8038925829
 30
0.0
 10
32.8383907554
 20
142.5704733627
 30
0.0
 10
33.0231840182
 20
142.1050897994
 30
0.0
 10
33.4912005028
 20
141.5676436089
 30
0.0
 10
34.2945684931
 20
141.0800572564
 30
0.0
 10
35.2972632849
 20
140.7444267655
 30
0.0
 10
36.4213788562
 20
140.5867078616
 30
0.0
 10
37.5771371347
 20
140.618598266
 30
0.0
 10
38.6697835237
 20
140.8372310529
 30
0.0
 10
39.3402206753
 20
141.1138421584
 30
0.0
 10
39.6363166741
 20
141.2847922425
 30
0.0
  0
SPLINE
  5
554
100
AcDbEntity
  8
0
100
AcDbSpline
 62
7
  6
CONTINUOUS
 70
0
 71
3
 72
11
 73
7
 74
0
 42
0.0000001
 43
0.0000001
 44
0.0000000001
 40
0.0
 40
0.0
 40
0.0
 40
0.0
 40
0.2372428334
 40
0.4999989082
 40
0.7627555772
 40
1.0
 40
1.0
 40
1.0
 40
1.0
 10
45.6467081223
 20
147.6126522735
 30
0.0
 10
45.5463175599
 20
147.6706114805
 30
0.0
 10
45.3563506308
 20
147.8305058123
 30
0.0
 10
45.1346281634
 20
148.1334972346
 30
0.0
 10
44.9830892581
 20
148.4770102633
 30
0.0
 10
44.9395983971
 20
148.7214742876
 30
0.0
 10
44.9395983971
 20
148.8373954451
 30
0.0
  0
SPLINE
  5
555
100
AcDbEntity
  8
0
100
AcDbSpline
 62
7
  6
CONTINUOUS
 70
0
 71
3
 72
11
 73
7
 74
0
 42
0.0000001
 43
0.0000001
 44
0.0000000001
 40
0.0
 40
0.0
 40
0.0
 40
0.0
 40
0.2177827477
 40
0.4509152641
 40
0.7103063952
 40
1.0
 40
1.0
 40
1.0
 40
1.0
 10
50.293171486
 20
134.3446053863
 30
0.0
 10
50.2931454651
 20
134.1541645932
 30
0.0
 10
50.222809744
 20
133.7572211468
 30
0.0
 10
49.9218713562
 20
133.2041488416
 30
0.0
 10
49.4461588708
 20
132.7042127943
 30
0.0
 10
49.0481279849
 20
132.4300627224
 30
0.0
 10
48.828743101
 20
132.3034015567
 30
0.0
  0
SPLINE
  5
556
100
AcDbEntity
  8
0
100
AcDbSpline
 62
7
  6
CONTINUOUS
 70
0
 71
3
 72
11
 73
7
 74
0
 42
0.0000001
 43
0.0000001
 44
0.0000000001
 40
0.0
 40
0.0
 40
0.0
 40
0.0
 40
0.2372523758
 40
0.4999990758
 40
0.7627462798
 40
1.0
 40
1.0
 40
1.0
 40
1.0
 10
69.6884387773
 20
130.6297574347
 30
0.0
 10
69.4876494675
 20
130.7456805742
 30
0.0
 10
69.1076734253
 20
131.0654321734
 30
0.0
 10
68.6643589586
 20
131.6714940761
 30
0.0
 10
68.3611477161
 20
132.3584465294
 30
0.0
 10
68.274219327
 20
132.8473922514
 30
0.0
 10
68.274219327
 20
133.079243778
 30
0.0
  0
SPLINE
  5
557
100
AcDbEntity
  8
0
100
AcDbSpline
 62
7
  6
CONTINUOUS
 70
0
 71
3
 72
11
 73
7
 74
0
 42
0.0000001
 43
0.0000001
 44
0.0000000001
 40
0.0
 40
0.0
 40
0.0
 40
0.0
 40
0.2897986295
 40
0.5490450379
 40
0.7822239579
 40
1.0
 40
1.0
 40
1.0
 40
1.0
 10
61.5566769381
 20
104.6240352276
 30
0.0
 10
61.5566769381
 20
105.1308916805
 30
0.0
 10
61.6332225288
 20
106.0944844747
 30
0.0
 10
62.0238945437
 20
107.4183084412
 30
0.0
 10
62.6805807588
 20
108.4926408175
 30
0.0
 10
63.297907971
 20
109.0114999106
 30
0.0
 10
63.6278031339
 20
109.2018832805
 30
0.0
  0
SPLINE
  5
558
100
AcDbEntity
  8
0
100
AcDbSpline
 62
7
  6
CONTINUOUS
 70
0
 71
3
 72
11
 73
7
 74
0
 42
0.0000001
 43
0.0000001
 44
0.0000000001
 40
0.0
 40
0.0
 40
0.0
 40
0.0
 40
0.2631398883
 40
0.523863918
 40
0.7722640137
 40
1.0
 40
1.0
 40
1.0
 40
1.0
 10
64.6429020782
 20
96.0972282394
 30
0.0
 10
64.165991258
 20
96.7482396266
 30
0.0
 10
63.3084536752
 20
98.114140051
 30
0.0
 10
62.3349972632
 20
100.2816956892
 30
0.0
 10
61.7166083683
 20
102.4637802632
 30
0.0
 10
61.5566769381
 20
103.9256064949
 30
0.0
 10
61.5566769381
 20
104.6240352276
 30
0.0
  0
SPLINE
  5
559
100
AcDbEntity
  8
0
100
AcDbSpline
 62
7
  6
CONTINUOUS
 70
0
 71
3
 72
17
 73
13
 74
0
 42
0.0000001
 43
0.0000001
 44
0.0000000001
 40
0.0
 40
0.0
 40
0.0
 40
0.0
 40
0.0428584629
 40
0.08748393
 40
0.135317815
 40
0.1872795469
 40
0.3045398917
 40
0.4382057949
 40
0.5825481992
 40
0.7297130515
 40
0.8713063844
 40
1.0
 40
1.0
 40
1.0
 40
1.0
 10
40.2932115205
 20
138.8353686139
 30
0.0
 10
40.2932007461
 20
138.6930359102
 30
0.0
 10
40.3313532388
 20
138.4012775686
 30
0.0
 10
40.4985931888
 20
137.9799568523
 30
0.0
 10
40.7701674082
 20
137.5805654253
 30
0.0
 10
41.2813070189
 20
137.0675451003
 30
0.0
 10
42.1523162365
 20
136.5373565176
 30
0.0
 10
43.4046654769
 20
136.1190248959
 30
0.0
 10
44.8101210902
 20
135.9214890891
 30
0.0
 10
46.2547271968
 20
135.9614788345
 30
0.0
 10
47.6205796049
 20
136.2346869127
 30
0.0
 10
48.4586113077
 20
136.580470436
 30
0.0
 10
48.828743101
 20
136.7941648509
 30
0.0
  0
SPLINE
  5
55A
100
AcDbEntity
  8
0
100
AcDbSpline
 62
7
  6
CONTINUOUS
 70
0
 71
3
 72
9
 73
5
 74
0
 42
0.0000001
 43
0.0000001
 44
0.0000000001
 40
0.0
 40
0.0
 40
0.0
 40
0.0
 40
0.2363318736
 40
1.0
 40
1.0
 40
1.0
 40
1.0
 10
40.299127353
 20
138.1164165179
 30
0.0
 10
40.2533264655
 20
138.0691638228
 30
0.0
 10
40.0512394898
 20
137.8772817704
 30
0.0
 10
39.8204721333
 20
137.7168529347
 30
0.0
 10
39.6363166741
 20
137.6105313654
 30
0.0
  0
SPLINE
  5
55B
100
AcDbEntity
  8
0
100
AcDbSpline
 62
7
  6
CONTINUOUS
 70
0
 71
3
 72
11
 73
7
 74
0
 42
0.0000001
 43
0.0000001
 44
0.0000000001
 40
0.0
 40
0.0
 40
0.0
 40
0.0
 40
0.2896428702
 40
0.5491125874
 40
0.7822368
 40
1.0
 40
1.0
 40
1.0
 40
1.0
 10
39.6363166741
 20
141.2847922425
 30
0.0
 10
39.811793266
 20
141.3861030954
 30
0.0
 10
40.1301916927
 20
141.6054919237
 30
0.0
 10
40.5108194797
 20
142.0053771183
 30
0.0
 10
40.7516705143
 20
142.4478622475
 30
0.0
 10
40.8077450242
 20
142.7654169418
 30
0.0
 10
40.8078062228
 20
142.9177553887
 30
0.0
  0
SPLINE
  5
55C
100
AcDbEntity
  8
0
100
AcDbSpline
 62
7
  6
CONTINUOUS
 70
0
 71
3
 72
11
 73
7
 74
0
 42
0.0000001
 43
0.0000001
 44
0.0000000001
 40
0.0
 40
0.0
 40
0.0
 40
0.0
 40
0.2897031353
 40
0.5490914015
 40
0.7822201129
 40
1.0
 40
1.0
 40
1.0
 40
1.0
 10
48.828743101
 20
136.7941648509
 30
0.0
 10
49.0481353901
 20
136.920830292
 30
0.0
 10
49.4461705848
 20
137.1949840864
 30
0.0
 10
49.9218871476
 20
137.6949243146
 30
0.0
 10
50.2228036025
 20
138.2479940038
 30
0.0
 10
50.293163014
 20
138.6449301771
 30
0.0
 10
50.29317743
 20
138.8353686331
 30
0.0
  0
SPLINE
  5
55D
100
AcDbEntity
  8
0
100
AcDbSpline
 62
7
  6
CONTINUOUS
 70
0
 71
3
 72
11
 73
7
 74
0
 42
0.0000001
 43
0.0000001
 44
0.0000000001
 40
0.0
 40
0.0
 40
0.0
 40
0.0
 40
0.2896428702
 40
0.5491125874
 40
0.7822368
 40
1.0
 40
1.0
 40
1.0
 40
1.0
 10
85.5984488086
 20
114.7491431987
 30
0.0
 10
85.7739254006
 20
114.8504540515
 30
0.0
 10
86.0923238273
 20
115.0698428799
 30
0.0
 10
86.4729516142
 20
115.4697280745
 30
0.0
 10
86.7138026489
 20
115.9122132037
 30
0.0
 10
86.7698771587
 20
116.229767898
 30
0.0
 10
86.7699383574
 20
116.3821063449
 30
0.0
  0
SPLINE
  5
55E
100
AcDbEntity
  8
0
100
AcDbSpline
 62
7
  6
CONTINUOUS
 70
0
 71
3
 72
11
 73
7
 74
0
 42
0.0000001
 43
0.0000001
 44
0.0000000001
 40
0.0
 40
0.0
 40
0.0
 40
0.0
 40
0.2177460211
 40
0.4508843679
 40
0.7104607696
 40
1.0
 40
1.0
 40
1.0
 40
1.0
 10
58.6675130208
 20
137.4708986174
 30
0.0
 10
58.6015541873
 20
137.4328175098
 30
0.0
 10
58.4500531785
 20
137.3776426166
 30
0.0
 10
58.1981903578
 20
137.3713158323
 30
0.0
 10
57.9299020044
 20
137.4362538141
 30
0.0
 10
57.7552799776
 20
137.5192140196
 30
0.0
 10
57.6675734498
 20
137.5698502615
 30
0.0
  0
SPLINE
  5
55F
100
AcDbEntity
  8
0
100
AcDbSpline
 62
7
  6
CONTINUOUS
 70
0
 71
3
 72
11
 73
7
 74
0
 42
0.0000001
 43
0.0000001
 44
0.0000000001
 40
0.0
 40
0.0
 40
0.0
 40
0.0
 40
0.2177648073
 40
0.4508950352
 40
0.7103684932
 40
1.0
 40
1.0
 40
1.0
 40
1.0
 10
86.7699260607
 20
112.7078456096
 30
0.0
 10
86.7698655489
 20
112.5555062551
 30
0.0
 10
86.7138074158
 20
112.2379431327
 30
0.0
 10
86.4729381258
 20
111.7954564153
 30
0.0
 10
86.0923118076
 20
111.3955751212
 30
0.0
 10
85.7739182662
 20
111.1761890555
 30
0.0
 10
85.5984488086
 20
111.0748823216
 30
0.0
  0
SPLINE
  5
560
100
AcDbEntity
  8
0
100
AcDbSpline
 62
7
  6
CONTINUOUS
 70
0
 71
3
 72
11
 73
7
 74
0
 42
0.0000001
 43
0.0000001
 44
0.0000000001
 40
0.0
 40
0.0
 40
0.0
 40
0.0
 40
0.2372523758
 40
0.4999990758
 40
0.7627462798
 40
1.0
 40
1.0
 40
1.0
 40
1.0
 10
77.4666457539
 20
126.139109135
 30
0.0
 10
77.2658564441
 20
126.2550322745
 30
0.0
 10
76.885880402
 20
126.5747838737
 30
0.0
 10
76.4425659352
 20
127.1808457763
 30
0.0
 10
76.1393546927
 20
127.8677982296
 30
0.0
 10
76.0524263036
 20
128.3567439517
 30
0.0
 10
76.0524263036
 20
128.5885954783
 30
0.0
  0
SPLINE
  5
561
100
AcDbEntity
  8
0
100
AcDbSpline
 62
7
  6
CONTINUOUS
 70
0
 71
3
 72
11
 73
7
 74
0
 42
0.0000001
 43
0.0000001
 44
0.0000000001
 40
0.0
 40
0.0
 40
0.0
 40
0.0
 40
0.2177460211
 40
0.4508843679
 40
0.7104607696
 40
1.0
 40
1.0
 40
1.0
 40
1.0
 10
66.4457199974
 20
132.9802503177
 30
0.0
 10
66.3797611639
 20
132.9421692101
 30
0.0
 10
66.2282601551
 20
132.8869943169
 30
0.0
 10
65.9763973344
 20
132.8806675325
 30
0.0
 10
65.708108981
 20
132.9456055143
 30
0.0
 10
65.5334869543
 20
133.0285657199
 30
0.0
 10
65.4457804264
 20
133.0792019618
 30
0.0
  0
SPLINE
  5
562
100
AcDbEntity
  8
0
100
AcDbSpline
 62
7
  6
CONTINUOUS
 70
0
 71
3
 72
11
 73
7
 74
0
 42
0.0000001
 43
0.0000001
 44
0.0000000001
 40
0.0
 40
0.0
 40
0.0
 40
0.0
 40
0.2177460211
 40
0.4508843679
 40
0.7104607696
 40
1.0
 40
1.0
 40
1.0
 40
1.0
 10
74.2239269741
 20
128.4896020179
 30
0.0
 10
74.1579681406
 20
128.4515209104
 30
0.0
 10
74.0064671317
 20
128.3963460172
 30
0.0
 10
73.754604311
 20
128.3900192328
 30
0.0
 10
73.4863159576
 20
128.4549572146
 30
0.0
 10
73.3116939309
 20
128.5379174202
 30
0.0
 10
73.223987403
 20
128.5885536621
 30
0.0
  0
SPLINE
  5
563
100
AcDbEntity
  8
0
100
AcDbSpline
 62
7
  6
CONTINUOUS
 70
0
 71
3
 72
16
 73
12
 74
0
 42
0.0000001
 43
0.0000001
 44
0.0000000001
 40
0.0
 40
0.0
 40
0.0
 40
0.0
 40
0.1287443602
 40
0.2703971121
 40
0.4176139114
 40
0.5620190713
 40
0.6957499754
 40
0.8130650626
 40
0.9124721117
 40
0.9571211941
 40
1.0
 40
1.0
 40
1.0
 40
1.0
 10
39.6363166741
 20
137.6105313654
 30
0.0
 10
39.3402235186
 20
137.4395829228
 30
0.0
 10
38.669811356
 20
137.1629787912
 30
0.0
 10
37.577209495
 20
136.9443500512
 30
0.0
 10
36.4214951269
 20
136.9124397441
 30
0.0
 10
35.2973845154
 20
137.0701399153
 30
0.0
 10
34.2946665592
 20
137.4057539216
 30
0.0
 10
33.4912576162
 20
137.8933359478
 30
0.0
 10
33.0232299987
 20
138.4307936269
 30
0.0
 10
32.8383870655
 20
138.8961851101
 30
0.0
 10
32.8079163895
 20
139.1296235361
 30
0.0
 10
32.8079616208
 20
139.2434941136
 30
0.0
  0
SPLINE
  5
564
100
AcDbEntity
  8
0
100
AcDbSpline
 62
7
  6
CONTINUOUS
 70
0
 71
3
 72
17
 73
13
 74
0
 42
0.0000001
 43
0.0000001
 44
0.0000000001
 40
0.0
 40
0.0
 40
0.0
 40
0.0
 40
0.1286926208
 40
0.2702795078
 40
0.4174383051
 40
0.5617803148
 40
0.6954501289
 40
0.8127134773
 40
0.8646759206
 40
0.9125113962
 40
0.9571388332
 40
1.0
 40
1.0
 40
1.0
 40
1.0
 10
48.828743101
 20
132.3034015567
 30
0.0
 10
48.4586142083
 20
132.0897088164
 30
0.0
 10
47.6206065632
 20
131.7439327975
 30
0.0
 10
46.2548002701
 20
131.4707272616
 30
0.0
 10
44.8102387947
 20
131.4307193121
 30
0.0
 10
43.4047874914
 20
131.6282309413
 30
0.0
 10
42.1524141752
 20
132.0465486148
 30
0.0
 10
41.2813602824
 20
132.5767224912
 30
0.0
 10
40.7702181363
 20
133.0897616384
 30
0.0
 10
40.4986061551
 20
133.489146437
 30
0.0
 10
40.3313734987
 20
133.91049147
 30
0.0
 10
40.2931980156
 20
134.202263605
 30
0.0
 10
40.2932174645
 20
134.3446052722
 30
0.0
  0
SPLINE
  5
565
100
AcDbEntity
  8
0
100
AcDbSpline
 62
7
  6
CONTINUOUS
 70
0
 71
3
 72
11
 73
7
 74
0
 42
0.0000001
 43
0.0000001
 44
0.0000000001
 40
0.0
 40
0.0
 40
0.0
 40
0.0
 40
0.2177460211
 40
0.4508843679
 40
0.7104607696
 40
1.0
 40
1.0
 40
1.0
 40
1.0
 10
82.0021339507
 20
123.9989537182
 30
0.0
 10
81.9361751172
 20
123.9608726107
 30
0.0
 10
81.7846741083
 20
123.9056977174
 30
0.0
 10
81.5328112877
 20
123.8993709331
 30
0.0
 10
81.2645229343
 20
123.9643089149
 30
0.0
 10
81.0899009075
 20
124.0472691205
 30
0.0
 10
81.0021943796
 20
124.0979053624
 30
0.0
  0
SPLINE
  5
566
100
AcDbEntity
  8
0
100
AcDbSpline
 62
7
  6
CONTINUOUS
 70
0
 71
3
 72
16
 73
12
 74
0
 42
0.0000001
 43
0.0000001
 44
0.0000000001
 40
0.0
 40
0.0
 40
0.0
 40
0.0
 40
0.1287443602
 40
0.2703971121
 40
0.4176139114
 40
0.5620190713
 40
0.6957499754
 40
0.8130650626
 40
0.9124721117
 40
0.9571211941
 40
1.0
 40
1.0
 40
1.0
 40
1.0
 10
85.5984488086
 20
111.0748823216
 30
0.0
 10
85.3023556531
 20
110.903933879
 30
0.0
 10
84.6319434905
 20
110.6273297474
 30
0.0
 10
83.5393416296
 20
110.4087010074
 30
0.0
 10
82.3836272614
 20
110.3767907003
 30
0.0
 10
81.25951665
 20
110.5344908714
 30
0.0
 10
80.2567986937
 20
110.8701048778
 30
0.0
 10
79.4533897507
 20
111.357686904
 30
0.0
 10
78.9853621332
 20
111.8951445831
 30
0.0
 10
78.8005192001
 20
112.3605360663
 30
0.0
 10
78.770048524
 20
112.5939744922
 30
0.0
 10
78.7700937554
 20
112.7078450697
 30
0.0
  0
SPLINE
  5
567
100
AcDbEntity
  8
0
100
AcDbSpline
 62
7
  6
CONTINUOUS
 70
0
 71
3
 72
11
 73
7
 74
0
 42
0.0000001
 43
0.0000001
 44
0.0000000001
 40
0.0
 40
0.0
 40
0.0
 40
0.0
 40
0.2177460211
 40
0.4508843679
 40
0.7104607696
 40
1.0
 40
1.0
 40
1.0
 40
1.0
 10
89.7803409273
 20
119.5083054185
 30
0.0
 10
89.7143820938
 20
119.4702243109
 30
0.0
 10
89.562881085
 20
119.4150494177
 30
0.0
 10
89.3110182643
 20
119.4087226334
 30
0.0
 10
89.0427299109
 20
119.4736606152
 30
0.0
 10
88.8681078841
 20
119.5566208207
 30
0.0
 10
88.7804013563
 20
119.6072570627
 30
0.0
  0
SPLINE
  5
568
100
AcDbEntity
  8
0
100
AcDbSpline
 62
7
  6
CONTINUOUS
 70
0
 71
3
 72
16
 73
12
 74
0
 42
0.0000001
 43
0.0000001
 44
0.0000000001
 40
0.0
 40
0.0
 40
0.0
 40
0.0
 40
0.0428757442
 40
0.087521923
 40
0.1869262484
 40
0.3042380343
 40
0.4379641723
 40
0.5823700573
 40
0.7295935095
 40
0.87125452
 40
1.0
 40
1.0
 40
1.0
 40
1.0
 10
78.7700814587
 20
116.3821060887
 30
0.0
 10
78.7700357168
 20
116.2682435391
 30
0.0
 10
78.80052289
 20
116.0348243188
 30
0.0
 10
78.9853161528
 20
115.5694407556
 30
0.0
 10
79.4533326374
 20
115.0319945651
 30
0.0
 10
80.2567006277
 20
114.5444082126
 30
0.0
 10
81.2593954195
 20
114.2087777217
 30
0.0
 10
82.3835109907
 20
114.0510588177
 30
0.0
 10
83.5392692693
 20
114.0829492221
 30
0.0
 10
84.6319156583
 20
114.301582009
 30
0.0
 10
85.3023528099
 20
114.5781931145
 30
0.0
 10
85.5984488086
 20
114.7491431987
 30
0.0
  0
SPLINE
  5
569
100
AcDbEntity
  8
0
100
AcDbSpline
 62
7
  6
CONTINUOUS
 70
0
 71
3
 72
11
 73
7
 74
0
 42
0.0000001
 43
0.0000001
 44
0.0000000001
 40
0.0
 40
0.0
 40
0.0
 40
0.0
 40
0.2875713797
 40
0.5472096584
 40
0.782024678
 40
1.0
 40
1.0
 40
1.0
 40
1.0
 10
58.0211283124
 20
106.6652390002
 30
0.0
 10
58.0211283124
 20
107.3693780742
 30
0.0
 10
58.1202874451
 20
108.7130458342
 30
0.0
 10
58.6200090836
 20
110.5758168147
 30
0.0
 10
59.4577001524
 20
112.1269981514
 30
0.0
 10
60.2519508197
 20
112.9289529536
 30
0.0
 10
60.6834390269
 20
113.2430925222
 30
0.0
  0
SPLINE
  5
56A
100
AcDbEntity
  8
0
100
AcDbSpline
 62
7
  6
CONTINUOUS
 70
0
 71
3
 72
11
 73
7
 74
0
 42
0.0000001
 43
0.0000001
 44
0.0000000001
 40
0.0
 40
0.0
 40
0.0
 40
0.0
 40
0.2625524121
 40
0.5234452153
 40
0.772211261
 40
1.0
 40
1.0
 40
1.0
 40
1.0
 10
62.8718033141
 20
93.5775413553
 30
0.0
 10
62.1241363254
 20
94.5669863846
 30
0.0
 10
60.7781448577
 20
96.6529666427
 30
0.0
 10
59.248370433
 20
99.977828328
 30
0.0
 10
58.274147616
 20
103.3357888895
 30
0.0
 10
58.0211283124
 20
105.5892806772
 30
0.0
 10
58.0211283124
 20
106.6652390002
 30
0.0
  0
SPLINE
  5
56B
100
AcDbEntity
  8
0
100
AcDbSpline
 62
7
  6
CONTINUOUS
 70
0
 71
3
 72
11
 73
7
 74
0
 42
0.0000001
 43
0.0000001
 44
0.0000000001
 40
0.0
 40
0.0
 40
0.0
 40
0.0
 40
0.2372523758
 40
0.4999990758
 40
0.7627462798
 40
1.0
 40
1.0
 40
1.0
 40
1.0
 10
54.1320248241
 20
139.6110540341
 30
0.0
 10
53.9312355143
 20
139.7269771737
 30
0.0
 10
53.5512594721
 20
140.0467287729
 30
0.0
 10
53.1079450054
 20
140.6527906755
 30
0.0
 10
52.8047337628
 20
141.3397431288
 30
0.0
 10
52.7178053738
 20
141.8286888509
 30
0.0
 10
52.7178053738
 20
142.0605403774
 30
0.0
  0
SPLINE
  5
56C
100
AcDbEntity
  8
0
100
AcDbSpline
 62
7
  6
CONTINUOUS
 70
0
 71
3
 72
9
 73
5
 74
0
 42
0.0000001
 43
0.0000001
 44
0.0000000001
 40
0.0
 40
0.0
 40
0.0
 40
0.0
 40
0.5424480254
 40
1.0
 40
1.0
 40
1.0
 40
1.0
 10
69.4605932317
 20
98.7085085334
 30
0.0
 10
69.8223386823
 20
98.3361875045
 30
0.0
 10
70.5619102274
 20
97.7150960037
 30
0.0
 10
71.4613332637
 20
97.3221050862
 30
0.0
 10
71.8920468699
 20
97.2432495453
 30
0.0
  0
SPLINE
  5
56D
100
AcDbEntity
  8
0
100
AcDbSpline
 62
7
  6
CONTINUOUS
 70
0
 71
3
 72
9
 73
5
 74
0
 42
0.0000001
 43
0.0000001
 44
0.0000000001
 40
0.0
 40
0.0
 40
0.0
 40
0.0
 40
0.2303929296
 40
1.0
 40
1.0
 40
1.0
 40
1.0
 10
68.9256096402
 20
107.690837354
 30
0.0
 10
69.0633007385
 20
107.6800603256
 30
0.0
 10
69.6578378906
 20
107.5930894855
 30
0.0
 10
70.2249183322
 20
107.3622913952
 30
0.0
 10
70.6296214143
 20
107.1407949749
 30
0.0
  0
SPLINE
  5
56E
100
AcDbEntity
  8
0
100
AcDbSpline
 62
7
  6
CONTINUOUS
 70
0
 71
3
 72
15
 73
11
 74
0
 42
0.0000001
 43
0.0000001
 44
0.0000000001
 40
0.0
 40
0.0
 40
0.0
 40
0.0
 40
0.1288244605
 40
0.2705976782
 40
0.4178986235
 40
0.5623949216
 40
0.69620836
 40
0.8136001012
 40
0.9130679301
 40
1.0
 40
1.0
 40
1.0
 40
1.0
 10
104.6903289565
 20
73.5158082705
 30
0.0
 10
104.8753797891
 20
73.6226467808
 30
0.0
 10
105.2944328973
 20
73.7955038854
 30
0.0
 10
105.977311663
 20
73.9321979156
 30
0.0
 10
106.6996546199
 20
73.952096851
 30
0.0
 10
107.4021739698
 20
73.8534534247
 30
0.0
 10
108.0288860601
 20
73.6440463601
 30
0.0
 10
108.5308745351
 20
73.3381595666
 30
0.0
 10
108.8709995123
 20
72.9514199702
 30
0.0
 10
108.9579884684
 20
72.6393982984
 30
0.0
 10
108.957994036
 20
72.4952062034
 30
0.0
  0
SPLINE
  5
56F
100
AcDbEntity
  8
0
100
AcDbSpline
 62
7
  6
CONTINUOUS
 70
0
 71
3
 72
11
 73
7
 74
0
 42
0.0000001
 43
0.0000001
 44
0.0000000001
 40
0.0
 40
0.0
 40
0.0
 40
0.0
 40
0.2404152469
 40
0.5032078625
 40
0.7642652281
 40
1.0
 40
1.0
 40
1.0
 40
1.0
 10
109.8037378873
 20
75.0487005369
 30
0.0
 10
109.2978293398
 20
75.3116903836
 30
0.0
 10
108.1481788614
 20
75.6903112764
 30
0.0
 10
106.330359648
 20
75.854727611
 30
0.0
 10
104.5292242255
 20
75.6381815615
 30
0.0
 10
103.4067309346
 20
75.224191954
 30
0.0
 10
102.9225516997
 20
74.944652611
 30
0.0
  0
SPLINE
  5
570
100
AcDbEntity
  8
0
100
AcDbSpline
 62
7
  6
CONTINUOUS
 70
0
 71
3
 72
9
 73
5
 74
0
 42
0.0000001
 43
0.0000001
 44
0.0000000001
 40
0.0
 40
0.0
 40
0.0
 40
0.0
 40
0.2432640788
 40
1.0
 40
1.0
 40
1.0
 40
1.0
 10
56.6068911983
 20
109.9311752344
 30
0.0
 10
56.6068911983
 20
109.7219197812
 30
0.0
 10
56.6212847511
 20
108.8617510047
 30
0.0
 10
56.6911292757
 20
108.0027595395
 30
0.0
 10
56.7709141259
 20
107.3567242964
 30
0.0
  0
SPLINE
  5
571
100
AcDbEntity
  8
0
100
AcDbSpline
 62
7
  6
CONTINUOUS
 70
0
 71
3
 72
11
 73
7
 74
0
 42
0.0000001
 43
0.0000001
 44
0.0000000001
 40
0.0
 40
0.0
 40
0.0
 40
0.0
 40
0.2749621122
 40
0.5296804027
 40
0.7690467525
 40
1.0
 40
1.0
 40
1.0
 40
1.0
 10
82.0982749332
 20
92.0896055513
 30
0.0
 10
81.9789476692
 20
91.5802441232
 30
0.0
 10
81.6758745916
 20
90.6134677464
 30
0.0
 10
80.9906154622
 20
89.3104037617
 30
0.0
 10
80.102860717
 20
88.2403876704
 30
0.0
 10
79.3795441991
 20
87.6967206604
 30
0.0
 10
78.9990127928
 20
87.47698176
 30
0.0
  0
SPLINE
  5
572
100
AcDbEntity
  8
0
100
AcDbSpline
 62
7
  6
CONTINUOUS
 70
0
 71
3
 72
13
 73
9
 74
0
 42
0.0000001
 43
0.0000001
 44
0.0000000001
 40
0.0
 40
0.0
 40
0.0
 40
0.0
 40
0.2934813072
 40
0.5565375355
 40
0.6767126688
 40
0.7898803533
 40
0.8971211695
 40
1.0
 40
1.0
 40
1.0
 40
1.0
 10
68.1554227517
 20
87.2107175584
 30
0.0
 10
69.1003584735
 20
86.4616030084
 30
0.0
 10
71.0013218099
 20
85.169997738
 30
0.0
 10
73.5737236162
 20
84.054012898
 30
0.0
 10
75.5672305106
 20
83.5984387802
 30
0.0
 10
76.9661809554
 20
83.4747270306
 30
0.0
 10
78.2971066072
 20
83.5617877874
 30
0.0
 10
79.1418408684
 20
83.7641871483
 30
0.0
 10
79.5421181166
 20
83.9000513847
 30
0.0
  0
SPLINE
  5
573
100
AcDbEntity
  8
0
100
AcDbSpline
 62
7
  6
CONTINUOUS
 70
0
 71
3
 72
9
 73
5
 74
0
 42
0.0000001
 43
0.0000001
 44
0.0000000001
 40
0.0
 40
0.0
 40
0.0
 40
0.0
 40
0.2546458945
 40
1.0
 40
1.0
 40
1.0
 40
1.0
 10
82.2808172323
 20
97.1556519135
 30
0.0
 10
82.2965562696
 20
97.0283448476
 30
0.0
 10
82.3533635031
 20
96.5278085519
 30
0.0
 10
82.3898813167
 20
96.0249158835
 30
0.0
 10
82.4043369273
 20
95.6497267546
 30
0.0
  0
SPLINE
  5
574
100
AcDbEntity
  8
0
100
AcDbSpline
 62
7
  6
CONTINUOUS
 70
0
 71
3
 72
9
 73
5
 74
0
 42
0.0000001
 43
0.0000001
 44
0.0000000001
 40
0.0
 40
0.0
 40
0.0
 40
0.0
 40
0.2415778709
 40
1.0
 40
1.0
 40
1.0
 40
1.0
 10
102.9225516997
 20
78.6189134881
 30
0.0
 10
102.9826113486
 20
78.6535887356
 30
0.0
 10
103.2343826886
 20
78.7916293855
 30
0.0
 10
103.4976721855
 20
78.9082929292
 30
0.0
 10
103.7010881251
 20
78.9859169509
 30
0.0
  0
SPLINE
  5
575
100
AcDbEntity
  8
0
100
AcDbSpline
 62
7
  6
CONTINUOUS
 70
0
 71
3
 72
9
 73
5
 74
0
 42
0.0000001
 43
0.0000001
 44
0.0000000001
 40
0.0
 40
0.0
 40
0.0
 40
0.0
 40
0.2418719205
 40
1.0
 40
1.0
 40
1.0
 40
1.0
 10
60.142439824
 20
107.8899714618
 30
0.0
 10
60.142439824
 20
107.6970206028
 30
0.0
 10
60.1588869832
 20
106.8993172404
 30
0.0
 10
60.238012497
 20
106.1033073922
 30
0.0
 10
60.3275317197
 20
105.5051803324
 30
0.0
  0
SPLINE
  5
576
100
AcDbEntity
  8
0
100
AcDbSpline
 62
7
  6
CONTINUOUS
 70
0
 71
3
 72
10
 73
6
 74
0
 42
0.0000001
 43
0.0000001
 44
0.0000000001
 40
0.0
 40
0.0
 40
0.0
 40
0.0
 40
0.5201433082
 40
0.7629306508
 40
1.0
 40
1.0
 40
1.0
 40
1.0
 10
78.4153120207
 20
94.2088735235
 30
0.0
 10
78.2261977668
 20
93.700817322
 30
0.0
 10
77.8441507779
 20
92.9827048832
 30
0.0
 10
77.1227940445
 20
92.2239084859
 30
0.0
 10
76.7130230379
 20
91.9306227412
 30
0.0
 10
76.4990282954
 20
91.8071082622
 30
0.0
  0
SPLINE
  5
577
100
AcDbEntity
  8
0
100
AcDbSpline
 62
7
  6
CONTINUOUS
 70
0
 71
3
 72
11
 73
7
 74
0
 42
0.0000001
 43
0.0000001
 44
0.0000000001
 40
0.0
 40
0.0
 40
0.0
 40
0.0
 40
0.2929060037
 40
0.5564822891
 40
0.7902859312
 40
1.0
 40
1.0
 40
1.0
 40
1.0
 10
68.6230888575
 20
90.9947921971
 30
0.0
 10
69.3190018874
 20
90.4286337762
 30
0.0
 10
70.7218483705
 20
89.4452696233
 30
0.0
 10
72.9359385482
 20
88.4278665221
 30
0.0
 10
75.0786124024
 20
87.9842457619
 30
0.0
 10
76.4599169906
 20
88.1104058898
 30
0.0
 10
77.0782422986
 20
88.2843277422
 30
0.0
  0
SPLINE
  5
578
100
AcDbEntity
  8
0
100
AcDbSpline
 62
7
  6
CONTINUOUS
 70
0
 71
3
 72
13
 73
9
 74
0
 42
0.0000001
 43
0.0000001
 44
0.0000000001
 40
0.0
 40
0.0
 40
0.0
 40
0.0
 40
0.0982471571
 40
0.2004214164
 40
0.30972825
 40
0.4282797391
 40
0.6953870821
 40
1.0
 40
1.0
 40
1.0
 40
1.0
 10
71.127711534
 20
96.2115834896
 30
0.0
 10
71.0065162109
 20
96.1416161706
 30
0.0
 10
70.7399459267
 20
96.0299701582
 30
0.0
 10
70.3001098905
 20
95.9628708664
 30
0.0
 10
69.8277983638
 20
95.9933927323
 30
0.0
 10
69.1415031387
 20
96.1685408873
 30
0.0
 10
68.2617672786
 20
96.6362257445
 30
0.0
 10
67.6416342944
 20
97.1725842618
 30
0.0
 10
67.3392817201
 20
97.4837760718
 30
0.0
  0
SPLINE
  5
579
100
AcDbEntity
  8
0
100
AcDbSpline
 62
7
  6
CONTINUOUS
 70
0
 71
3
 72
9
 73
5
 74
0
 42
0.0000001
 43
0.0000001
 44
0.0000000001
 40
0.0
 40
0.0
 40
0.0
 40
0.0
 40
0.2384600592
 40
1.0
 40
1.0
 40
1.0
 40
1.0
 10
63.6779884497
 20
105.8487676892
 30
0.0
 10
63.6779884497
 20
105.6500889433
 30
0.0
 10
63.704476299
 20
104.8169752064
 30
0.0
 10
63.8295311294
 20
103.9882630606
 30
0.0
 10
63.9675517422
 20
103.368961302
 30
0.0
  0
SPLINE
  5
57A
100
AcDbEntity
  8
0
100
AcDbSpline
 62
7
  6
CONTINUOUS
 70
0
 71
3
 72
9
 73
5
 74
0
 42
0.0000001
 43
0.0000001
 44
0.0000000001
 40
0.0
 40
0.0
 40
0.0
 40
0.0
 40
0.2533146839
 40
1.0
 40
1.0
 40
1.0
 40
1.0
 10
74.4977360039
 20
96.5312773478
 30
0.0
 10
74.4606493534
 20
96.4923435655
 30
0.0
 10
74.3090552347
 20
96.343688866
 30
0.0
 10
74.1363006087
 20
96.216491913
 30
0.0
 10
73.9990540216
 20
96.137216199
 30
0.0
  0
SPLINE
  5
57B
100
AcDbEntity
  8
0
100
AcDbSpline
 62
7
  6
CONTINUOUS
 70
0
 71
3
 72
11
 73
7
 74
0
 42
0.0000001
 43
0.0000001
 44
0.0000000001
 40
0.0
 40
0.0
 40
0.0
 40
0.0
 40
0.29082063
 40
0.5547177922
 40
0.7900203398
 40
1.0
 40
1.0
 40
1.0
 40
1.0
 10
68.9503056232
 20
94.9084787677
 30
0.0
 10
69.4002129221
 20
94.5119805721
 30
0.0
 10
70.3116894419
 20
93.8124314734
 30
0.0
 10
71.7588143248
 20
93.0446096028
 30
0.0
 10
73.1749449326
 20
92.6338846375
 30
0.0
 10
74.1091967928
 20
92.6185035698
 30
0.0
 10
74.5370711872
 20
92.6848685107
 30
0.0
  0
SPLINE
  5
57C
100
AcDbEntity
  8
0
100
AcDbSpline
 62
7
  6
CONTINUOUS
 70
0
 71
3
 72
11
 73
7
 74
0
 42
0.0000001
 43
0.0000001
 44
0.0000000001
 40
0.0
 40
0.0
 40
0.0
 40
0.0
 40
0.2369247699
 40
0.4964791639
 40
0.7578278011
 40
1.0
 40
1.0
 40
1.0
 40
1.0
 10
109.8037378871
 20
154.1757190811
 30
0.0
 10
109.2988548751
 20
154.4350586748
 30
0.0
 10
108.1399743004
 20
154.7861337321
 30
0.0
 10
106.3096626284
 20
154.8511628541
 30
0.0
 10
104.5013814913
 20
154.4898967134
 30
0.0
 10
103.3963546547
 20
153.9593384
 30
0.0
 10
102.9225516997
 20
153.6245200953
 30
0.0
  0
SPLINE
  5
57D
100
AcDbEntity
  8
0
100
AcDbSpline
 62
7
  6
CONTINUOUS
 70
0
 71
3
 72
9
 73
5
 74
0
 42
0.0000001
 43
0.0000001
 44
0.0000000001
 40
0.0
 40
0.0
 40
0.0
 40
0.0
 40
0.2446508949
 40
1.0
 40
1.0
 40
1.0
 40
1.0
 10
67.434685512
 20
102.2587445795
 30
0.0
 10
67.4636239786
 20
102.1520498685
 30
0.0
 10
67.591925601
 20
101.7186947196
 30
0.0
 10
67.7586660599
 20
101.296916631
 30
0.0
 10
67.9029222601
 20
100.9875828921
 30
0.0
  0
SPLINE
  5
57E
100
AcDbEntity
  8
0
100
AcDbSpline
 62
7
  6
CONTINUOUS
 70
0
 71
3
 72
9
 73
5
 74
0
 42
0.0000001
 43
0.0000001
 44
0.0000000001
 40
0.0
 40
0.0
 40
0.0
 40
0.0
 40
0.2319976458
 40
1.0
 40
1.0
 40
1.0
 40
1.0
 10
57.4801543452
 20
115.0764025442
 30
0.0
 10
57.3325058514
 20
114.6993264613
 30
0.0
 10
56.7906901467
 20
113.0368850662
 30
0.0
 10
56.6068911983
 20
111.2717250454
 30
0.0
 10
56.6068911983
 20
109.9311752344
 30
0.0
  0
SPLINE
  5
57F
100
AcDbEntity
  8
0
100
AcDbSpline
 62
7
  6
CONTINUOUS
 70
0
 71
3
 72
9
 73
5
 74
0
 42
0.0000001
 43
0.0000001
 44
0.0000000001
 40
0.0
 40
0.0
 40
0.0
 40
0.0
 40
0.4780080464
 40
1.0
 40
1.0
 40
1.0
 40
1.0
 10
80.2830254156
 20
94.424994293
 30
0.0
 10
80.2253200187
 20
95.9227129438
 30
0.0
 10
79.6902039358
 20
99.0430222969
 30
0.0
 10
78.5655721754
 20
101.9893830364
 30
0.0
 10
77.8532418023
 20
103.462990423
 30
0.0
  0
SPLINE
  5
580
100
AcDbEntity
  8
0
100
AcDbSpline
 62
7
  6
CONTINUOUS
 70
0
 71
3
 72
15
 73
11
 74
0
 42
0.0000001
 43
0.0000001
 44
0.0000000001
 40
0.0
 40
0.0
 40
0.0
 40
0.0
 40
0.0957251903
 40
0.1960174961
 40
0.3044578842
 40
0.4231795817
 40
0.5529204769
 40
0.6932532558
 40
0.8429356994
 40
1.0
 40
1.0
 40
1.0
 40
1.0
 10
78.6277145055
 20
83.2211196078
 30
0.0
 10
78.0951402424
 20
82.9136824193
 30
0.0
 10
76.9099604935
 20
82.4357950146
 30
0.0
 10
74.9481205808
 20
82.2063142157
 30
0.0
 10
72.8425286447
 20
82.448075109
 30
0.0
 10
70.6459016238
 20
83.1444204375
 30
0.0
 10
68.4075905869
 20
84.2725126069
 30
0.0
 10
66.1788412328
 20
85.8029028163
 30
0.0
 10
64.0130577266
 20
87.697681275
 30
0.0
 10
62.6708698692
 20
89.1457533892
 30
0.0
 10
62.0209317914
 20
89.9175257691
 30
0.0
  0
SPLINE
  5
581
100
AcDbEntity
  8
0
100
AcDbSpline
 62
7
  6
CONTINUOUS
 70
0
 71
3
 72
11
 73
7
 74
0
 42
0.0000001
 43
0.0000001
 44
0.0000000001
 40
0.0
 40
0.0
 40
0.0
 40
0.0
 40
0.2203070731
 40
0.4545659682
 40
0.7128847183
 40
1.0
 40
1.0
 40
1.0
 40
1.0
 10
76.8777012812
 20
86.2522492984
 30
0.0
 10
77.3899786479
 20
86.5480652637
 30
0.0
 10
78.3516321333
 20
87.3386611716
 30
0.0
 10
79.4076025983
 20
88.9640178045
 30
0.0
 10
80.0772344336
 20
90.9663379032
 30
0.0
 10
80.251964155
 20
92.4299247077
 30
0.0
 10
80.2830254156
 20
93.2002406673
 30
0.0
  0
SPLINE
  5
582
100
AcDbEntity
  8
0
100
AcDbSpline
 62
7
  6
CONTINUOUS
 70
0
 71
3
 72
11
 73
7
 74
0
 42
0.0000001
 43
0.0000001
 44
0.0000000001
 40
0.0
 40
0.0
 40
0.0
 40
0.0
 40
0.2372523758
 40
0.4999990758
 40
0.7627462798
 40
1.0
 40
1.0
 40
1.0
 40
1.0
 10
85.2448527305
 20
121.6484608353
 30
0.0
 10
85.0440634208
 20
121.7643839748
 30
0.0
 10
84.6640873786
 20
122.084135574
 30
0.0
 10
84.2207729118
 20
122.6901974766
 30
0.0
 10
83.9175616693
 20
123.3771499299
 30
0.0
 10
83.8306332802
 20
123.866095652
 30
0.0
 10
83.8306332802
 20
124.0979471786
 30
0.0
  0
SPLINE
  5
583
100
AcDbEntity
  8
0
100
AcDbSpline
 62
7
  6
CONTINUOUS
 70
0
 71
3
 72
10
 73
6
 74
0
 42
0.0000001
 43
0.0000001
 44
0.0000000001
 40
0.0
 40
0.0
 40
0.0
 40
0.0
 40
0.2253919049
 40
0.5930266953
 40
1.0
 40
1.0
 40
1.0
 40
1.0
 10
61.343728655
 20
112.8577929277
 30
0.0
 10
61.1414083349
 20
112.5264865932
 30
0.0
 10
60.6878824131
 20
111.6052652038
 30
0.0
 10
60.2407202457
 20
109.9285560541
 30
0.0
 10
60.142439824
 20
108.5909108857
 30
0.0
 10
60.142439824
 20
107.8899714618
 30
0.0
  0
ELLIPSE
  5
584
100
AcDbEntity
  8
0
100
AcDbEllipse
 62
7
  6
CONTINUOUS
 10
149.5777431769
 20
-666.4333016045
 30
0.0
 11
564.6248654168
 21
944.1326051004
 31
0.0
 40
0.5873387238
 41
7.1660862676
 42
7.1711837144
  0
ENDSEC
  0
SECTION
  2
OBJECTS
  0
DICTIONARY
  5
C
100
AcDbDictionary
280
0
281
1
  3
ACAD_GROUP
350
D
  3
ACAD_MLINESTYLE
350
17
  3
ACAD_LAYOUT
350
1A
  3
ACAD_PLOTSETTINGS
350
19
  3
ACAD_PLOTSTYLENAME
350
E
  0
DICTIONARY
  5
D
102
{ACAD_REACTORS
330
C
102
}
100
AcDbDictionary
280
0
281
1
  0
ACDBDICTIONARYWDFLT
  5
E
102
{ACAD_REACTORS
330
C
102
}
100
AcDbDictionary
281
1
  3
Normal
350
F
100
AcDbDictionaryWithDefault
340
F
  0
DICTIONARY
  5
17
102
{ACAD_REACTORS
330
C
102
}
100
AcDbDictionary
280
0
281
1
  3
Standard
350
18
  0
DICTIONARY
  5
19
102
{ACAD_REACTORS
330
C
102
}
100
AcDbDictionary
281
1
  0
DICTIONARY
  5
1A
102
{ACAD_REACTORS
330
C
102
}
100
AcDbDictionary
281
1
  3
Model
350
585
  3
Layout1
350
586
  0
ACDBPLACEHOLDER
  5
F
102
{ACAD_REACTORS
330
E
102
}
  0
MLINESTYLE
  5
18
102
{ACAD_REACTORS
330
17
102
}
100
AcDbMlineStyle
  2
STANDARD
 70
0
  3

 62
256
 51
90.0
 52
90.0
 71
2
 49
0.5
 62
256
  6
BYLAYER
 49
-0.5
 62
256
  6
BYLAYER
  0
LAYOUT
  5
585
102
{ACAD_REACTORS
330
1A
102
}
100
AcDbPlotSettings
  1

  2
none_device
  4

  6

 40
0.0
 41
0.0
 42
0.0
 43
0.0
 44
210.0
 45
297.0
 46
0.0
 47
0.0
 48
0.0
 49
0.0
140
0.0
141
0.0
142
1.0
143
1.0
 70
1024
 72
1
 73
0
 74
0
  7

 75
0
147
1.0
148
0.0
149
0.0
100
AcDbLayout
  1
Model
 70
0
 71
0
 10
0.0
 20
0.0
 11
210.0
 21
297.0
 12
0.0
 22
0.0
 32
0.0
 14
0.0
 24
0.0
 34
0.0
 15
0.0
 25
0.0
 35
0.0
146
0.0
 13
0.0
 23
0.0
 33
0.0
 16
1.0
 26
0.0
 36
0.0
 17
0.0
 27
1.0
 37
0.0
 76
0
330
210
345
0
346
0
  0
LAYOUT
  5
586
102
{ACAD_REACTORS
330
1A
102
}
100
AcDbPlotSettings
  1

  2
none_device
  4

  6

 40
0.0
 41
0.0
 42
0.0
 43
0.0
 44
210.0
 45
297.0
 46
0.0
 47
0.0
 48
0.0
 49
0.0
140
0.0
141
0.0
142
1.0
143
1.0
 70
0
 72
1
 73
0
 74
0
  7

 75
0
147
1.0
148
0.0
149
0.0
100
AcDbLayout
  1
Layout1
 70
0
 71
1
 10
0.0
 20
0.0
 11
210.0
 21
297.0
 12
0.0
 22
0.0
 32
0.0
 14
0.0
 24
0.0
 34
0.0
 15
0.0
 25
0.0
 35
0.0
146
0.0
 13
0.0
 23
0.0
 33
0.0
 16
1.0
 26
0.0
 36
0.0
 17
0.0
 27
1.0
 37
0.0
 76
0
330
211
345
0
346
0
  0
ENDSEC
  0
EOF
