999
DXF file: C:\Users\sesa63760\Dev\_Creo\CAD\MCADID0004819_3D-CAD\drw0001_1.dxf
999
Pro/ENGINEER 2019471 by Parametric Technology Corporation
  0
SECTION
  2
HEADER
  9
$ACADVER
  1
AC1024
  9
$DWGCODEPAGE
  3
ANSI_1252
  9
$EXTMAX
 10
70.3953083663
 20
99.5590789752
 30
0.0
  9
$EXTMIN
 10
0.0
 20
0.0
 30
0.0
  9
$LIMMIN
 10
0.0
 20
0.0
  9
$LIMMAX
 10
70.3953083663
 20
99.5590789752
  9
$VIEWCTR
 10
35.1976541832
 20
49.7795394876
  9
$VIEWSIZE
 40
99.5590789752
  9
$CLAYER
  8
0
  9
$LTSCALE
 40
6.4897769999
  9
$CELTYPE
  6
BYLAYER
  9
$DIMSCALE
 40
1.0
  9
$DIMASZ
 40
0.8380393853
  9
$DIMEXO
 40
1.0
  9
$DIMDLI
 40
4.4838459272
  9
$DIMEXE
 40
1.0
  9
$DIMCEN
 40
1.0619635091
  9
$DIMLFAC
 40
1.0
  9
$DIMBLK
  1
_FILLED
  9
$DIMALT
 70
0
  9
$DIMALTF
 40
0.0393700787
  9
$DIMTXT
 40
1.1732551394
  9
$DIMTOL
 70
1
  9
$DIMLIM
 70
0
  9
$DIMTFAC
 40
1.0
  9
$DIMTP
 40
0.01
  9
$DIMTM
 40
0.01
  9
$DIMGAP
 40
0.625
  9
$DIMDSEP
 70
46
  9
$AUNITS
 70
0
  9
$PDMODE
 70
3
  9
$PDSIZE
 40
0.3125
  9
$HANDSEED
  5
30E
  9
$TILEMODE
 70
1
  9
$MEASUREMENT
 70
1
  9
$INSUNITS
 70
4
  0
ENDSEC
  0
SECTION
  2
CLASSES
  0
CLASS
  1
ACDBDICTIONARYWDFLT
  2
AcDbDictionaryWithDefault
  3
AutoCAD 2000
 90
0
 91
1
280
0
281
0
  0
CLASS
  1
ACDBPLACEHOLDER
  2
AcDbPlaceHolder
  3
AutoCAD 2000
 90
0
 91
1
280
0
281
0
  0
CLASS
  1
LAYOUT
  2
AcDbLayout
  3
AutoCAD 2000
 90
0
 91
0
280
0
281
0
  0
ENDSEC
  0
SECTION
  2
TABLES
  0
TABLE
  2
VPORT
  5
8
100
AcDbSymbolTable
 70
2
  0
VPORT
  5
1F4
100
AcDbSymbolTableRecord
100
AcDbViewportTableRecord
  2
*ACTIVE
 70
0
 10
0.0
 20
0.0
 11
1.0
 21
1.0
 12
35.1976541832
 22
49.7795394876
 13
0.0
 23
0.0
 14
1.0
 24
1.0
 15
0.0
 25
0.0
 16
0.0
 26
0.0
 36
1.0
 17
0.0
 27
0.0
 37
0.0
 40
99.5590789752
 41
0.7070707071
 42
50.0
 43
0.0
 44
0.0
 50
0.0
 51
0.0
 71
0
 72
100
 73
1
 74
1
 75
0
 76
0
 77
0
 78
0
  0
ENDTAB
  0
TABLE
  2
LTYPE
  5
5
100
AcDbSymbolTable
 70
6
  0
LTYPE
  5
14
100
AcDbSymbolTableRecord
100
AcDbLinetypeTableRecord
  2
BYBLOCK
 70
0
  3

 72
65
 73
0
 40
0.0
  0
LTYPE
  5
15
100
AcDbSymbolTableRecord
100
AcDbLinetypeTableRecord
  2
BYLAYER
 70
0
  3

 72
65
 73
0
 40
0.0
  0
LTYPE
  5
16
100
AcDbSymbolTableRecord
100
AcDbLinetypeTableRecord
  2
CONTINUOUS
 70
64
  3
Solid line
 72
65
 73
0
 40
0.0
  0
LTYPE
  5
1F5
100
AcDbSymbolTableRecord
100
AcDbLinetypeTableRecord
  2
CENTER
 70
64
  3
____ _ ____ _ ____ _ ____ _ ____ _ ____ _ ____
 72
65
 73
4
 40
0.6
 49
0.375
 74
0
 49
-0.075
 74
0
 49
0.075
 74
0
 49
-0.075
 74
0
  0
LTYPE
  5
1F6
100
AcDbSymbolTableRecord
100
AcDbLinetypeTableRecord
  2
HIDDEN
 70
64
  3
- - - - - - - - - - - - - - - - - - - -
 72
65
 73
2
 40
0.2
 49
0.1
 74
0
 49
-0.1
 74
0
  0
LTYPE
  5
1F7
100
AcDbSymbolTableRecord
100
AcDbLinetypeTableRecord
  2
PHANTOM
 70
64
  3
_____ _ _ _____ _ _ _____ _ _ _____
 72
65
 73
6
 40
0.8
 49
0.45
 74
0
 49
-0.05
 74
0
 49
0.1
 74
0
 49
-0.05
 74
0
 49
0.1
 74
0
 49
-0.05
 74
0
  0
LTYPE
  5
1F8
100
AcDbSymbolTableRecord
100
AcDbLinetypeTableRecord
  2
DOT
 70
64
  3
. . . . . . . . . . . . . . . . . . . .
 72
65
 73
2
 40
0.2
 49
0.1
 74
0
 49
-0.1
 74
0
  0
LTYPE
  5
1F9
100
AcDbSymbolTableRecord
100
AcDbLinetypeTableRecord
  2
DASHED
 70
64
  3
- - - - - - - - - - - - - - - - - - - -
 72
65
 73
2
 40
0.2
 49
0.1
 74
0
 49
-0.1
 74
0
  0
ENDTAB
  0
TABLE
  2
LAYER
  5
2
100
AcDbSymbolTable
 70
36
  0
LAYER
  5
10
100
AcDbSymbolTableRecord
100
AcDbLayerTableRecord
  2
0
 70
0
 62
7
  6
CONTINUOUS
370
-3
390
F
  0
LAYER
  5
1FA
100
AcDbSymbolTableRecord
100
AcDbLayerTableRecord
  2
DEFAULT_1
 70
0
 62
7
  6
CENTER
370
-3
390
F
  0
LAYER
  5
1FB
100
AcDbSymbolTableRecord
100
AcDbLayerTableRecord
  2
DEFAULT_2
 70
0
 62
7
  6
HIDDEN
370
-3
390
F
  0
LAYER
  5
1FC
100
AcDbSymbolTableRecord
100
AcDbLayerTableRecord
  2
DEFAULT_3
 70
0
 62
7
  6
PHANTOM
370
-3
390
F
  0
LAYER
  5
1FD
100
AcDbSymbolTableRecord
100
AcDbLayerTableRecord
  2
00_COMPONENTS
 70
0
 62
7
  6
CONTINUOUS
370
-3
390
F
  0
LAYER
  5
1FE
100
AcDbSymbolTableRecord
100
AcDbLayerTableRecord
  2
01_1_DEFAULT_DATUMS
 70
0
 62
7
  6
CONTINUOUS
370
-3
390
F
  0
LAYER
  5
1FF
100
AcDbSymbolTableRecord
100
AcDbLayerTableRecord
  2
01_PLANES
 70
0
 62
7
  6
CONTINUOUS
370
-3
390
F
  0
LAYER
  5
200
100
AcDbSymbolTableRecord
100
AcDbLayerTableRecord
  2
02_COORD_SYS
 70
0
 62
7
  6
CONTINUOUS
370
-3
390
F
  0
LAYER
  5
201
100
AcDbSymbolTableRecord
100
AcDbLayerTableRecord
  2
03_AXES
 70
0
 62
7
  6
CONTINUOUS
370
-3
390
F
  0
LAYER
  5
202
100
AcDbSymbolTableRecord
100
AcDbLayerTableRecord
  2
04_POINTS
 70
0
 62
7
  6
CONTINUOUS
370
-3
390
F
  0
LAYER
  5
203
100
AcDbSymbolTableRecord
100
AcDbLayerTableRecord
  2
05_CURVES
 70
0
 62
7
  6
CONTINUOUS
370
-3
390
F
  0
LAYER
  5
204
100
AcDbSymbolTableRecord
100
AcDbLayerTableRecord
  2
06_SURFS
 70
0
 62
7
  6
CONTINUOUS
370
-3
390
F
  0
LAYER
  5
205
100
AcDbSymbolTableRecord
100
AcDbLayerTableRecord
  2
07_COSMETICS
 70
0
 62
7
  6
CONTINUOUS
370
-3
390
F
  0
LAYER
  5
206
100
AcDbSymbolTableRecord
100
AcDbLayerTableRecord
  2
10_NOTES
 70
0
 62
7
  6
CONTINUOUS
370
-3
390
F
  0
LAYER
  5
207
100
AcDbSymbolTableRecord
100
AcDbLayerTableRecord
  2
11_NOTES_PUB
 70
0
 62
7
  6
CONTINUOUS
370
-3
390
F
  0
LAYER
  5
208
100
AcDbSymbolTableRecord
100
AcDbLayerTableRecord
  2
13_REF_GTOL
 70
0
 62
7
  6
CONTINUOUS
370
-3
390
F
  0
LAYER
  5
209
100
AcDbSymbolTableRecord
100
AcDbLayerTableRecord
  2
16_MISC
 70
0
 62
7
  6
CONTINUOUS
370
-3
390
F
  0
LAYER
  5
20A
100
AcDbSymbolTableRecord
100
AcDbLayerTableRecord
  2
17_NO_PRINT
 70
0
 62
7
  6
CONTINUOUS
370
-3
390
F
  0
LAYER
  5
20B
100
AcDbSymbolTableRecord
100
AcDbLayerTableRecord
  2
18_DATUM_CAMS_JOINTS
 70
0
 62
7
  6
CONTINUOUS
370
-3
390
F
  0
LAYER
  5
20C
100
AcDbSymbolTableRecord
100
AcDbLayerTableRecord
  2
19_DATUM_FUNCTIONAL
 70
0
 62
7
  6
CONTINUOUS
370
-3
390
F
  0
LAYER
  5
20D
100
AcDbSymbolTableRecord
100
AcDbLayerTableRecord
  2
20_DATUM_KINEMATIC_SCHEME
 70
0
 62
7
  6
CONTINUOUS
370
-3
390
F
  0
ENDTAB
  0
TABLE
  2
STYLE
  5
3
100
AcDbSymbolTable
 70
1
  0
STYLE
  5
11
100
AcDbSymbolTableRecord
100
AcDbTextStyleTableRecord
  2
STANDARD
 70
0
 40
0.0
 41
1.0
 50
0.0
 71
0
 42
0.2
  3
ARIAL.TTF
  4

  0
STYLE
  5
20E
100
AcDbSymbolTableRecord
100
AcDbTextStyleTableRecord
  2
TEXTSTYLE_1
 70
0
 40
0.0
 41
0.8
 50
0.0
 71
0
 42
0.2
  3
gdt
  4

  0
ENDTAB
  0
TABLE
  2
VIEW
  5
6
100
AcDbSymbolTable
 70
0
  0
ENDTAB
  0
TABLE
  2
UCS
  5
7
100
AcDbSymbolTable
 70
0
  0
ENDTAB
  0
TABLE
  2
APPID
  5
9
100
AcDbSymbolTable
 70
1
  0
APPID
  5
20F
100
AcDbSymbolTableRecord
100
AcDbRegAppTableRecord
  2
ACAD
 70
0
  0
ENDTAB
  0
TABLE
  2
BLOCK_RECORD
  5
1
100
AcDbSymbolTable
 70
0
  0
BLOCK_RECORD
  5
210
100
AcDbSymbolTableRecord
100
AcDbBlockTableRecord
  2
*Model_Space
  0
BLOCK_RECORD
  5
211
100
AcDbSymbolTableRecord
100
AcDbBlockTableRecord
  2
*Paper_Space
  0
BLOCK_RECORD
  5
212
100
AcDbSymbolTableRecord
100
AcDbBlockTableRecord
  2
_FILLED
  0
ENDTAB
  0
TABLE
  2
DIMSTYLE
  5
A
100
AcDbSymbolTable
 70
1
100
AcDbDimStyleTable
 71
0
  0
DIMSTYLE
105
213
100
AcDbSymbolTableRecord
100
AcDbDimStyleTableRecord
  2
STANDARD
 70
0
  3

  4

 40
1.0
 41
0.8380393853
 42
1.0
 43
0.38
 44
1.0
 45
0.0
 46
0.0
 47
0.01
 48
0.01
140
1.1732551394
141
0.09
142
0.0
143
25.4
144
1.0
145
0.0
146
1.0
147
0.625
 71
1
 72
0
 73
0
 74
0
 75
0
 76
0
 77
1
 78
8
 79
2
170
0
171
1
172
0
173
0
174
0
175
0
176
0
177
0
178
0
270
2
179
2
271
2
272
2
273
2
274
2
275
0
280
0
281
0
282
0
283
1
284
8
285
0
286
0
287
3
288
0
340
11
278
46
341
212
342
212
343
212
344
212
  0
ENDTAB
  0
ENDSEC
  0
SECTION
  2
BLOCKS
  0
BLOCK
  5
20
100
AcDbEntity
  8
0
100
AcDbBlockBegin
  2
*Model_Space
 70
0
 10
0.0
 20
0.0
 30
0.0
  3
*Model_Space
  1

  0
ENDBLK
  5
21
100
AcDbEntity
  8
0
100
AcDbBlockEnd
  0
BLOCK
  5
1C
100
AcDbEntity
  8
0
100
AcDbBlockBegin
  2
*Paper_Space
 70
0
 10
0.0
 20
0.0
 30
0.0
  3
*Paper_Space
  1

  0
ENDBLK
  5
1D
100
AcDbEntity
  8
0
100
AcDbBlockEnd
  0
BLOCK
  5
214
100
AcDbEntity
  8
0
100
AcDbBlockBegin
  2
_FILLED
 70
64
 10
0.0
 20
0.0
  3
_FILLED
  1

  0
SOLID
  5
215
100
AcDbEntity
  8
0
  6
BYBLOCK
 62
0
100
AcDbTrace
 10
0.0
 20
0.0
 11
-1.0
 21
0.25
 12
-1.0
 22
-0.25
 13
-1.0
 23
-0.25
  0
ENDBLK
  5
216
100
AcDbEntity
  8
0
  6
BYBLOCK
 62
0
100
AcDbBlockEnd
  0
ENDSEC
  0
SECTION
  2
ENTITIES
  0
LINE
  5
217
100
AcDbEntity
  8
0
100
AcDbLine
 62
7
  6
BYLAYER
 10
8.1666656877
 20
41.2006708718
 11
8.1666656877
 21
54.2647095458
  0
LINE
  5
218
100
AcDbEntity
  8
0
100
AcDbLine
 62
7
  6
BYLAYER
 10
9.0151972168
 20
40.955732773
 11
9.0151973579
 21
41.5272843835
  0
LINE
  5
219
100
AcDbEntity
  8
0
100
AcDbLine
 62
7
  6
BYLAYER
 10
9.0151973579
 20
52.9583182233
 11
9.0151972217
 21
53.5298699939
  0
LINE
  5
21A
100
AcDbEntity
  8
0
100
AcDbLine
 62
7
  6
BYLAYER
 10
42.3173513423
 20
73.6383649241
 11
42.3172146413
 21
73.6383141316
  0
LINE
  5
21B
100
AcDbEntity
  8
0
100
AcDbLine
 62
7
  6
BYLAYER
 10
42.7382248507
 20
73.6317412997
 11
42.6367646162
 21
73.5943698316
  0
LINE
  5
21C
100
AcDbEntity
  8
0
100
AcDbLine
 62
7
  6
BYLAYER
 10
29.3799574422
 20
28.9534482362
 11
8.1666656877
 21
41.2006708718
  0
LINE
  5
21D
100
AcDbEntity
  8
0
100
AcDbLine
 62
7
  6
BYLAYER
 10
25.8444088492
 20
31.239602715
 11
9.0151972168
 21
40.955732773
  0
LINE
  5
21E
100
AcDbEntity
  8
0
100
AcDbLine
 62
7
  6
BYLAYER
 10
9.0151973579
 20
41.5272843835
 11
25.8444088164
 21
31.8111544259
  0
LINE
  5
21F
100
AcDbEntity
  8
0
100
AcDbLine
 62
7
  6
BYLAYER
 10
29.3799574422
 20
31.1580047624
 11
30.4689064189
 21
30.5293140005
  0
LINE
  5
220
100
AcDbEntity
  8
0
100
AcDbLine
 62
7
  6
BYLAYER
 10
8.1666656877
 20
54.2647095458
 11
8.873769525
 21
54.6729536997
  0
LINE
  5
221
100
AcDbEntity
  8
0
100
AcDbLine
 62
7
  6
BYLAYER
 10
9.163722731
 20
54.5055529253
 11
42.2369950076
 21
73.6003015968
  0
LINE
  5
222
100
AcDbEntity
  8
0
100
AcDbLine
 62
7
  6
BYLAYER
 10
9.0293441672
 20
54.1912324097
 11
36.3754366322
 21
69.9794120132
  0
LINE
  5
223
100
AcDbEntity
  8
0
100
AcDbLine
 62
7
  6
BYLAYER
 10
37.5161553348
 20
70.6380023322
 11
42.6367646162
 21
73.5943698316
  0
LINE
  5
224
100
AcDbEntity
  8
0
100
AcDbLine
 62
7
  6
BYLAYER
 10
42.3172146413
 20
73.6383141316
 11
42.2913653381
 21
73.6256181345
  0
LINE
  5
225
100
AcDbEntity
  8
0
100
AcDbLine
 62
7
  6
BYLAYER
 10
42.3172301551
 20
73.6383199039
 11
42.2367021417
 21
73.6001193582
  0
LINE
  5
226
100
AcDbEntity
  8
0
100
AcDbLine
 62
7
  6
BYLAYER
 10
42.2913653098
 20
73.6256181245
 11
42.2366030222
 21
73.600075274
  0
LWPOLYLINE
  5
227
100
AcDbEntity
  8
0
100
AcDbPolyline
 62
7
  6
BYLAYER
 90
4
 70
0
 10
30.5866602193
 20
30.4215091587
 10
31.0424321996
 20
30.5212810531
 10
31.5685968124
 20
30.6758584133
 10
31.9910822491
 20
30.8353001102
  0
LINE
  5
228
100
AcDbEntity
  8
0
100
AcDbLine
 62
7
  6
BYLAYER
 10
30.5866804986
 20
30.4215129443
 11
30.5866602193
 21
30.4215091587
  0
LINE
  5
229
100
AcDbEntity
  8
0
100
AcDbLine
 62
7
  6
BYLAYER
 10
30.0870612794
 20
30.3833843746
 11
30.586680504
 21
30.421512951
  0
LINE
  5
22A
100
AcDbEntity
  8
0
100
AcDbLine
 62
7
  6
BYLAYER
 10
30.4689093629
 20
31.8765517431
 11
29.0264055236
 21
32.7093628823
  0
LINE
  5
22B
100
AcDbEntity
  8
0
100
AcDbLine
 62
7
  6
BYLAYER
 10
45.869716923
 20
71.4396996587
 11
44.002479762
 21
70.3616562162
  0
LINE
  5
22C
100
AcDbEntity
  8
0
100
AcDbLine
 62
7
  6
BYLAYER
 10
44.4941674978
 20
70.0739788764
 11
44.6709344035
 21
70.1760346878
  0
LINE
  5
22D
100
AcDbEntity
  8
0
100
AcDbLine
 62
7
  6
BYLAYER
 10
30.4689093629
 20
37.020516971
 11
29.0264055236
 21
37.8533281102
  0
LINE
  5
22E
100
AcDbEntity
  8
0
100
AcDbLine
 62
7
  6
BYLAYER
 10
29.3799574422
 20
38.0574501872
 11
30.8224612815
 21
37.2246390479
  0
LINE
  5
22F
100
AcDbEntity
  8
0
100
AcDbLine
 62
7
  6
BYLAYER
 10
30.4689064189
 20
39.184239622
 11
29.3799574422
 21
39.812930384
  0
LINE
  5
230
100
AcDbEntity
  8
0
100
AcDbLine
 62
7
  6
BYLAYER
 10
25.8444088164
 20
31.8111544259
 11
25.8444088492
 21
31.239602715
  0
LINE
  5
231
100
AcDbEntity
  8
0
100
AcDbLine
 62
7
  6
BYLAYER
 10
25.8444088494
 20
43.8137399387
 11
25.8444088164
 21
43.2421882657
  0
LINE
  5
232
100
AcDbEntity
  8
0
100
AcDbLine
 62
7
  6
BYLAYER
 10
31.1760102561
 20
39.5924837759
 11
30.0870612794
 21
40.2211745379
  0
LINE
  5
233
100
AcDbEntity
  8
0
100
AcDbLine
 62
7
  6
BYLAYER
 10
25.8444088164
 20
43.2421882657
 11
9.0151973579
 21
52.9583182233
  0
LINE
  5
234
100
AcDbEntity
  8
0
100
AcDbLine
 62
7
  6
BYLAYER
 10
9.0151972217
 20
53.5298699939
 11
25.8444088494
 21
43.8137399387
  0
LINE
  5
235
100
AcDbEntity
  8
0
100
AcDbLine
 62
7
  6
BYLAYER
 10
8.1666656877
 20
54.2647095458
 11
29.3799574422
 21
42.0174869102
  0
LINE
  5
236
100
AcDbEntity
  8
0
100
AcDbLine
 62
7
  6
BYLAYER
 10
26.0565399676
 20
44.181163929
 11
9.2273285091
 21
53.8972938866
  0
LINE
  5
237
100
AcDbEntity
  8
0
100
AcDbLine
 62
7
  6
BYLAYER
 10
8.873769525
 20
54.6729536997
 11
30.0870612794
 21
42.4257310641
  0
LINE
  5
238
100
AcDbEntity
  8
0
100
AcDbLine
 62
7
  6
BYLAYER
 10
34.0159089306
 20
41.1637356586
 11
31.4167637439
 21
42.664318884
  0
LINE
  5
239
100
AcDbEntity
  8
0
100
AcDbLine
 62
7
  6
BYLAYER
 10
29.0264055236
 20
32.7093628823
 11
29.0264055236
 21
37.8533281102
  0
LINE
  5
23A
100
AcDbEntity
  8
0
100
AcDbLine
 62
7
  6
BYLAYER
 10
29.3799574422
 20
42.0174869102
 11
29.3799574422
 21
39.812930384
  0
LINE
  5
23B
100
AcDbEntity
  8
0
100
AcDbLine
 62
7
  6
BYLAYER
 10
29.3799574422
 20
31.1580047624
 11
29.3799574422
 21
28.9534482362
  0
LINE
  5
23C
100
AcDbEntity
  8
0
100
AcDbLine
 62
7
  6
BYLAYER
 10
30.0870612794
 20
42.4257310641
 11
30.0870612794
 21
40.2211745379
  0
LINE
  5
23D
100
AcDbEntity
  8
0
100
AcDbLine
 62
7
  6
BYLAYER
 10
30.0870612794
 20
30.7497674072
 11
30.0870612794
 21
29.36169239
  0
LINE
  5
23E
100
AcDbEntity
  8
0
100
AcDbLine
 62
7
  6
BYLAYER
 10
30.4689093629
 20
31.8765517431
 11
30.4689093629
 21
37.020516971
  0
LINE
  5
23F
100
AcDbEntity
  8
0
100
AcDbLine
 62
7
  6
BYLAYER
 10
30.8224612815
 20
30.7334448318
 11
30.8224612815
 21
32.08067382
  0
LINE
  5
240
100
AcDbEntity
  8
0
100
AcDbLine
 62
7
  6
BYLAYER
 10
30.8224612815
 20
37.2246390479
 11
30.8224612815
 21
38.5718680362
  0
LINE
  5
241
100
AcDbEntity
  8
0
100
AcDbLine
 62
7
  6
BYLAYER
 10
51.3230488823
 20
63.6890041894
 11
51.292375306
 21
63.6739944575
  0
LINE
  5
242
100
AcDbEntity
  8
0
100
AcDbLine
 62
7
  6
BYLAYER
 10
31.5295651187
 20
31.1416889856
 11
31.5295651187
 21
32.4889179739
  0
LINE
  5
243
100
AcDbEntity
  8
0
100
AcDbLine
 62
7
  6
BYLAYER
 10
31.5295651187
 20
37.6328832018
 11
31.5295651187
 21
38.9801121901
  0
LINE
  5
244
100
AcDbEntity
  8
0
100
AcDbLine
 62
7
  6
BYLAYER
 10
32.9154766282
 20
31.5662206975
 11
32.9154766282
 21
31.8111714226
  0
LINE
  5
245
100
AcDbEntity
  8
0
100
AcDbLine
 62
7
  6
BYLAYER
 10
32.9154893095
 20
43.4871629721
 11
32.9154766282
 21
43.2422052625
  0
LINE
  5
246
100
AcDbEntity
  8
0
100
AcDbLine
 62
7
  6
BYLAYER
 10
52.9561278496
 20
67.8764510141
 11
52.3607438416
 21
67.3693950483
  0
LINE
  5
247
100
AcDbEntity
  8
0
100
AcDbLine
 62
7
  6
BYLAYER
 10
45.7315901594
 20
71.1966521271
 11
45.869716923
 21
71.4396996587
  0
LINE
  5
248
100
AcDbEntity
  8
0
100
AcDbLine
 62
7
  6
BYLAYER
 10
57.2607871085
 20
62.7071420689
 11
59.1280242695
 21
63.7851855115
  0
LINE
  5
249
100
AcDbEntity
  8
0
100
AcDbLine
 62
7
  6
BYLAYER
 10
56.4885316879
 20
58.3377854855
 11
56.4885714628
 21
58.3378012104
  0
LINE
  5
24A
100
AcDbEntity
  8
0
100
AcDbLine
 62
7
  6
BYLAYER
 10
37.547006762
 20
45.9162044703
 11
37.547006762
 21
39.3786420483
  0
LWPOLYLINE
  5
24B
100
AcDbEntity
  8
0
100
AcDbPolyline
 62
7
  6
BYLAYER
 90
4
 70
0
 10
57.0722158676
 20
58.611518995
 10
56.9006478465
 20
58.5191270242
 10
56.6578122389
 20
58.4070861014
 10
56.4885838481
 20
58.337831258
  0
LINE
  5
24C
100
AcDbEntity
  8
0
100
AcDbLine
 62
7
  6
BYLAYER
 10
57.0721037323
 20
58.6114447821
 11
57.072219957
 21
58.6115118915
  0
LINE
  5
24D
100
AcDbEntity
  8
0
100
AcDbLine
 62
7
  6
BYLAYER
 10
62.8601027554
 20
61.9186842523
 11
57.739493475
 21
58.9623167528
  0
LINE
  5
24E
100
AcDbEntity
  8
0
100
AcDbLine
 62
7
  6
BYLAYER
 10
56.5987747716
 20
58.3037264335
 11
31.7592936923
 21
43.9627309503
  0
LINE
  5
24F
100
AcDbEntity
  8
0
100
AcDbLine
 62
7
  6
BYLAYER
 10
29.3799574422
 20
42.0174869102
 11
30.0870612794
 21
42.4257310641
  0
LINE
  5
250
100
AcDbEntity
  8
0
100
AcDbLine
 62
7
  6
BYLAYER
 10
32.9154893095
 20
43.4871629721
 11
63.1766090571
 21
60.9583246526
  0
LINE
  5
251
100
AcDbEntity
  8
0
100
AcDbLine
 62
7
  6
BYLAYER
 10
32.9154766282
 20
43.2422052625
 11
37.547006762
 21
45.9162044703
  0
LINE
  5
252
100
AcDbEntity
  8
0
100
AcDbLine
 62
7
  6
BYLAYER
 10
57.5460017373
 20
58.9466277721
 11
57.5461748094
 21
58.9467735922
  0
LWPOLYLINE
  5
253
100
AcDbEntity
  8
0
100
AcDbPolyline
 62
7
  6
BYLAYER
 90
4
 70
0
 10
57.5461075538
 20
58.9467382085
 10
57.4152024738
 20
58.8411520562
 10
57.2186684145
 20
58.7015441131
 10
57.0721037323
 20
58.6114447821
  0
LINE
  5
254
100
AcDbEntity
  8
0
100
AcDbLine
 62
7
  6
BYLAYER
 10
29.3799574422
 20
39.812930384
 11
30.0870612794
 21
40.2211745379
  0
LINE
  5
255
100
AcDbEntity
  8
0
100
AcDbLine
 62
7
  6
BYLAYER
 10
31.1760102561
 20
39.5924837759
 11
30.4689064189
 21
39.184239622
  0
LINE
  5
256
100
AcDbEntity
  8
0
100
AcDbLine
 62
7
  6
BYLAYER
 10
29.0264055236
 20
37.8533281102
 11
29.3799574422
 21
38.0574501872
  0
LINE
  5
257
100
AcDbEntity
  8
0
100
AcDbLine
 62
7
  6
BYLAYER
 10
30.8224612815
 20
38.5718680362
 11
31.5295651187
 21
38.9801121901
  0
LINE
  5
258
100
AcDbEntity
  8
0
100
AcDbLine
 62
7
  6
BYLAYER
 10
45.7315901594
 20
71.1966521271
 11
45.7315901594
 21
69.563678655
  0
LINE
  5
259
100
AcDbEntity
  8
0
100
AcDbLine
 62
7
  6
BYLAYER
 10
30.4689093629
 20
37.020516971
 11
30.8224612815
 21
37.2246390479
  0
LINE
  5
25A
100
AcDbEntity
  8
0
100
AcDbLine
 62
7
  6
BYLAYER
 10
31.5295651187
 20
37.6328832018
 11
31.6123134764
 21
37.6806577032
  0
LINE
  5
25B
100
AcDbEntity
  8
0
100
AcDbLine
 62
7
  6
BYLAYER
 10
31.6123134764
 20
32.5366924753
 11
31.5295651187
 21
32.4889179739
  0
LINE
  5
25C
100
AcDbEntity
  8
0
100
AcDbLine
 62
7
  6
BYLAYER
 10
30.8224612815
 20
32.08067382
 11
30.4689093629
 21
31.8765517431
  0
LINE
  5
25D
100
AcDbEntity
  8
0
100
AcDbLine
 62
7
  6
BYLAYER
 10
31.5295651187
 20
31.1416889856
 11
30.8224612815
 21
30.7334448318
  0
LINE
  5
25E
100
AcDbEntity
  8
0
100
AcDbLine
 62
7
  6
BYLAYER
 10
32.9154766282
 20
31.8111714226
 11
34.4193970102
 21
32.679455077
  0
LINE
  5
25F
100
AcDbEntity
  8
0
100
AcDbLine
 62
7
  6
BYLAYER
 10
30.7189052997
 20
30.5045518609
 11
31.4260091369
 21
30.9127960148
  0
LINE
  5
260
100
AcDbEntity
  8
0
100
AcDbLine
 62
7
  6
BYLAYER
 10
63.1766090571
 20
49.0373893625
 11
42.7098090916
 21
37.2209474276
  0
LINE
  5
261
100
AcDbEntity
  8
0
100
AcDbLine
 62
7
  6
BYLAYER
 10
34.645536988
 20
32.5650655497
 11
32.9154766282
 21
31.5662206975
  0
LINE
  5
262
100
AcDbEntity
  8
0
100
AcDbLine
 62
7
  6
BYLAYER
 10
32.5321720735
 20
31.1081736754
 11
34.8641035656
 21
32.4545069136
  0
LINE
  5
263
100
AcDbEntity
  8
0
100
AcDbLine
 62
7
  6
BYLAYER
 10
42.9703431477
 20
37.1346185819
 11
63.1603300124
 21
48.7912433525
  0
LINE
  5
264
100
AcDbEntity
  8
0
100
AcDbLine
 62
7
  6
BYLAYER
 10
56.4885714628
 20
58.3378012104
 11
56.5987747718
 21
58.3037264336
  0
LWPOLYLINE
  5
265
100
AcDbEntity
  8
0
100
AcDbPolyline
 62
7
  6
BYLAYER
 90
4
 70
0
 10
63.1592262906
 20
48.7906275154
 10
63.2214487934
 20
48.8365330578
 10
63.3230186727
 20
49.0763320304
 10
63.3230574039
 20
49.0713493664
  0
LINE
  5
266
100
AcDbEntity
  8
0
100
AcDbLine
 62
7
  6
BYLAYER
 10
29.3799574422
 20
28.9534482362
 11
30.0870612794
 21
29.36169239
  0
LWPOLYLINE
  5
267
100
AcDbEntity
  8
0
100
AcDbPolyline
 62
7
  6
BYLAYER
 90
3
 70
0
 10
31.9909440509
 20
30.8352421989
 10
32.4160698488
 20
31.0426746678
 10
32.532175606
 20
31.1081757241
  0
LINE
  5
268
100
AcDbEntity
  8
0
100
AcDbLine
 62
7
  6
BYLAYER
 10
31.9910824083
 20
30.8353001698
 11
31.9909440509
 21
30.8352421989
  0
LINE
  5
269
100
AcDbEntity
  8
0
100
AcDbLine
 62
7
  6
BYLAYER
 10
48.6699710242
 20
67.1290121705
 11
45.6772208751
 21
66.9158696096
  0
LINE
  5
26A
100
AcDbEntity
  8
0
100
AcDbLine
 62
7
  6
BYLAYER
 10
48.6699700759
 20
67.1290136803
 11
48.9663269941
 21
67.0673095843
  0
LINE
  5
26B
100
AcDbEntity
  8
0
100
AcDbLine
 62
7
  6
BYLAYER
 10
48.9937021386
 20
67.0564640998
 11
48.9662850376
 21
67.0672355721
  0
LINE
  5
26C
100
AcDbEntity
  8
0
100
AcDbLine
 62
7
  6
BYLAYER
 10
57.2607871085
 20
62.7071420689
 11
57.0754726113
 21
62.7884054762
  0
LWPOLYLINE
  5
26D
100
AcDbEntity
  8
0
100
AcDbPolyline
 62
7
  6
BYLAYER
 90
3
 70
0
 10
53.0802888401
 20
64.6892194823
 10
51.9970912856
 20
65.2932871975
 10
50.4517221499
 20
66.1857712997
  0
LINE
  5
26E
100
AcDbEntity
  8
0
100
AcDbLine
 62
7
  6
BYLAYER
 10
57.2333581556
 20
62.7191701089
 11
53.5772782849
 21
64.8299610539
  0
LINE
  5
26F
100
AcDbEntity
  8
0
100
AcDbLine
 62
7
  6
BYLAYER
 10
44.6709344035
 20
70.1760346878
 11
48.232828322
 21
68.1196207974
  0
LINE
  5
270
100
AcDbEntity
  8
0
100
AcDbLine
 62
7
  6
BYLAYER
 10
54.3673452409
 20
64.5779359265
 11
57.434256389
 21
62.8072940069
  0
LWPOLYLINE
  5
271
100
AcDbEntity
  8
0
100
AcDbPolyline
 62
7
  6
BYLAYER
 90
3
 70
0
 10
47.9622421128
 20
68.0717303607
 10
44.157952839
 20
70.2681003835
 10
44.1172595949
 20
70.2922254333
  0
LINE
  5
272
100
AcDbEntity
  8
0
100
AcDbLine
 62
7
  6
BYLAYER
 10
50.4517221499
 20
66.1857712997
 11
48.9937392228
 21
67.0564416427
  0
LINE
  5
273
100
AcDbEntity
  8
0
100
AcDbLine
 62
7
  6
BYLAYER
 10
49.0596782351
 20
67.0109541514
 11
48.9662849567
 21
67.0672356796
  0
LINE
  5
274
100
AcDbEntity
  8
0
100
AcDbLine
 62
7
  6
BYLAYER
 10
44.002479762
 20
70.3616562162
 11
44.1172595949
 21
70.2922254333
  0
LINE
  5
275
100
AcDbEntity
  8
0
100
AcDbLine
 62
7
  6
BYLAYER
 10
49.0591372052
 20
67.0104113441
 11
48.9662849567
 21
67.0672356796
  0
LWPOLYLINE
  5
276
100
AcDbEntity
  8
0
100
AcDbPolyline
 62
7
  6
BYLAYER
 90
4
 70
0
 10
48.9995972867
 20
67.0525526407
 10
48.6913776028
 20
67.3512194165
 10
48.520762066
 20
67.5959517303
 10
48.3290383966
 20
68.0148027571
  0
LINE
  5
277
100
AcDbEntity
  8
0
100
AcDbLine
 62
7
  6
BYLAYER
 10
42.7121241989
 20
73.5649297837
 11
42.6367646162
 21
73.5943698316
  0
LINE
  5
278
100
AcDbEntity
  8
0
100
AcDbLine
 62
7
  6
BYLAYER
 10
45.7315901594
 20
71.1966521271
 11
58.848473117
 21
63.6237875417
  0
LWPOLYLINE
  5
279
100
AcDbEntity
  8
0
100
AcDbPolyline
 62
7
  6
BYLAYER
 90
4
 70
0
 10
42.7383652515
 20
73.6316906365
 10
42.637911557
 20
73.659798181
 10
42.4408600744
 20
73.6682484742
 10
42.3173513423
 20
73.6383649241
  0
LINE
  5
27A
100
AcDbEntity
  8
0
100
AcDbLine
 62
7
  6
BYLAYER
 10
42.7139253768
 20
73.5665949996
 11
42.6367646162
 21
73.5943698316
  0
LINE
  5
27B
100
AcDbEntity
  8
0
100
AcDbLine
 62
7
  6
BYLAYER
 10
42.738417946
 20
73.6316715036
 11
42.7382248507
 21
73.6317412997
  0
LINE
  5
27C
100
AcDbEntity
  8
0
100
AcDbLine
 62
7
  6
BYLAYER
 10
63.1766090571
 20
60.9583246526
 11
63.1766090571
 21
49.0373893625
  0
LINE
  5
27D
100
AcDbEntity
  8
0
100
AcDbLine
 62
7
  6
BYLAYER
 10
63.3230539228
 20
61.333017284
 11
63.3230541945
 21
49.0712625314
  0
LINE
  5
27E
100
AcDbEntity
  8
0
100
AcDbLine
 62
7
  6
BYLAYER
 10
63.0641083123
 20
61.8936920068
 11
63.0634772064
 21
61.8942738545
  0
LINE
  5
27F
100
AcDbEntity
  8
0
100
AcDbLine
 62
7
  6
BYLAYER
 10
63.3230573156
 20
61.3331965925
 11
63.2645414785
 21
61.6086422065
  0
LWPOLYLINE
  5
280
100
AcDbEntity
  8
0
100
AcDbPolyline
 62
7
  6
BYLAYER
 90
4
 70
0
 10
63.2645529062
 20
61.6086177177
 10
63.2176654083
 20
61.6976284367
 10
63.1182710302
 20
61.8375430117
 10
63.0635236384
 20
61.8942312829
  0
LINE
  5
281
100
AcDbEntity
  8
0
100
AcDbLine
 62
7
  6
BYLAYER
 10
63.2645539647
 20
61.6086154424
 11
63.2645414785
 21
61.6086422065
  0
ARC
  5
282
100
AcDbEntity
  8
0
100
AcDbCircle
 62
7
  6
BYLAYER
 10
23.8870318251
 20
16.4237723272
 40
60.0470346624
100
AcDbArc
 50
60.0013749416
 51
60.7867167008
  0
ARC
  5
283
100
AcDbEntity
  8
0
100
AcDbCircle
 62
7
  6
BYLAYER
 10
24.7374547952
 20
17.8898030134
 40
58.35220355
100
AcDbArc
 50
58.9168281035
 51
60.0048245615
  0
ARC
  5
284
100
AcDbEntity
  8
0
100
AcDbCircle
 62
7
  6
BYLAYER
 10
75.8979289594
 20
112.1855937892
 40
52.5981127624
100
AcDbArc
 50
232.6704075149
 51
232.8741126014
  0
ARC
  5
285
100
AcDbEntity
  8
0
100
AcDbCircle
 62
7
  6
BYLAYER
 10
43.6805483795
 20
85.1320934948
 40
17.5894546223
100
AcDbArc
 50
282.322286264
 51
284.088733032
  0
ARC
  5
286
100
AcDbEntity
  8
0
100
AcDbCircle
 62
7
  6
BYLAYER
 10
57.8174676552
 20
48.9797037702
 40
16.407620992
100
AcDbArc
 50
104.9768317061
 51
106.7827635492
  0
ARC
  5
287
100
AcDbEntity
  8
0
100
AcDbCircle
 62
7
  6
BYLAYER
 10
52.2934728946
 20
76.8397999269
 40
12.3340147748
100
AcDbArc
 50
277.6986650386
 51
278.1905209006
  0
ARC
  5
288
100
AcDbEntity
  8
0
100
AcDbCircle
 62
7
  6
BYLAYER
 10
46.3611329009
 20
57.6608754146
 40
10.7705612034
100
AcDbArc
 50
38.2556630948
 51
40.9532620406
  0
ARC
  5
289
100
AcDbEntity
  8
0
100
AcDbCircle
 62
7
  6
BYLAYER
 10
29.8312996969
 20
53.365173686
 40
10.4714695932
100
AcDbArc
 50
266.5767572493
 51
274.2995007613
  0
ARC
  5
28A
100
AcDbEntity
  8
0
100
AcDbCircle
 62
7
  6
BYLAYER
 10
49.2607486907
 20
60.3928102298
 40
9.507132176
100
AcDbArc
 50
50.3746140835
 51
53.3997629247
  0
ARC
  5
28B
100
AcDbEntity
  8
0
100
AcDbCircle
 62
7
  6
BYLAYER
 10
28.9989077699
 20
38.1046639834
 40
7.6582761074
100
AcDbArc
 50
286.3843032223
 51
288.6542882482
  0
ARC
  5
28C
100
AcDbEntity
  8
0
100
AcDbCircle
 62
7
  6
BYLAYER
 10
29.0898997724
 20
37.6208786255
 40
7.1669672561
100
AcDbArc
 50
278.0761546374
 51
280.2499705416
  0
ARC
  5
28D
100
AcDbEntity
  8
0
100
AcDbCircle
 62
7
  6
BYLAYER
 10
29.6432954083
 20
38.1069718785
 40
7.1154730313
100
AcDbArc
 50
285.1359481633
 51
285.5464705121
  0
ARC
  5
28E
100
AcDbEntity
  8
0
100
AcDbCircle
 62
7
  6
BYLAYER
 10
51.127369728
 20
63.6200664598
 40
5.7660851063
100
AcDbArc
 50
68.4188138289
 51
69.3981947326
  0
ARC
  5
28F
100
AcDbEntity
  8
0
100
AcDbCircle
 62
7
  6
BYLAYER
 10
51.2146932603
 20
63.8559725395
 40
5.5145391013
100
AcDbArc
 50
69.3850048532
 51
71.4666808341
  0
ARC
  5
290
100
AcDbEntity
  8
0
100
AcDbCircle
 62
7
  6
BYLAYER
 10
54.6402917098
 20
63.2627697649
 40
5.3317695624
100
AcDbArc
 50
290.5656649075
 51
291.5506311927
  0
ARC
  5
291
100
AcDbEntity
  8
0
100
AcDbCircle
 62
7
  6
BYLAYER
 10
28.1791476782
 20
35.2838891348
 40
4.6698241985
100
AcDbArc
 50
240.0024545349
 51
241.2337372951
  0
ARC
  5
292
100
AcDbEntity
  8
0
100
AcDbCircle
 62
7
  6
BYLAYER
 10
40.934284152
 20
70.4870954266
 40
4.2943618457
100
AcDbArc
 50
297.7323315674
 51
299.3487254295
  0
ARC
  5
293
100
AcDbEntity
  8
0
100
AcDbCircle
 62
7
  6
BYLAYER
 10
41.0420586761
 20
70.2967503156
 40
4.0756241829
100
AcDbArc
 50
299.3395978143
 51
301.1436524658
  0
ARC
  5
294
100
AcDbEntity
  8
0
100
AcDbCircle
 62
7
  6
BYLAYER
 10
53.113077302
 20
58.5737669389
 40
3.7331310968
100
AcDbArc
 50
119.9897496019
 51
121.635345253
  0
ARC
  5
295
100
AcDbEntity
  8
0
100
AcDbCircle
 62
7
  6
BYLAYER
 10
53.1076297252
 20
55.5627129132
 40
3.7217427555
100
AcDbArc
 50
119.9941014501
 51
122.2574680322
  0
ARC
  5
296
100
AcDbEntity
  8
0
100
AcDbCircle
 62
7
  6
BYLAYER
 10
38.9584851992
 20
63.7393372041
 40
3.7080406901
100
AcDbArc
 50
119.9923135739
 51
122.5813902411
  0
ARC
  5
297
100
AcDbEntity
  8
0
100
AcDbCircle
 62
7
  6
BYLAYER
 10
41.0506530662
 20
63.798960376
 40
3.6381981328
100
AcDbArc
 50
56.9361330938
 51
60.0044368248
  0
ARC
  5
298
100
AcDbEntity
  8
0
100
AcDbCircle
 62
7
  6
BYLAYER
 10
55.2595214049
 20
55.7378722142
 40
3.5148929999
100
AcDbArc
 50
56.7687442388
 51
57.2802553201
  0
ARC
  5
299
100
AcDbEntity
  8
0
100
AcDbCircle
 62
7
  6
BYLAYER
 10
51.1404517233
 20
65.3043163824
 40
2.4412431166
100
AcDbArc
 50
133.7125283941
 51
138.8424949176
  0
ARC
  5
29A
100
AcDbEntity
  8
0
100
AcDbCircle
 62
7
  6
BYLAYER
 10
56.1094162912
 20
60.6020279215
 40
2.3371976863
100
AcDbArc
 50
293.9451578159
 51
295.8964430804
  0
ARC
  5
29B
100
AcDbEntity
  8
0
100
AcDbCircle
 62
7
  6
BYLAYER
 10
56.2043910732
 20
60.4068798899
 40
2.1201656245
100
AcDbArc
 50
295.890828315
 51
299.9210328989
  0
ARC
  5
29C
100
AcDbEntity
  8
0
100
AcDbCircle
 62
7
  6
BYLAYER
 10
56.2676344203
 20
60.2498969794
 40
1.9555643473
100
AcDbArc
 50
314.5901314684
 51
318.820611371
  0
ARC
  5
29D
100
AcDbEntity
  8
0
100
AcDbCircle
 62
7
  6
BYLAYER
 10
56.3128609251
 20
60.2042449434
 40
1.8913030133
100
AcDbArc
 50
313.0650136775
 51
314.585320689
  0
ARC
  5
29E
100
AcDbEntity
  8
0
100
AcDbCircle
 62
7
  6
BYLAYER
 10
56.8492041688
 20
60.1434828822
 40
1.3543582492
100
AcDbArc
 50
359.4320684469
 51
0.0009827528
  0
ARC
  5
29F
100
AcDbEntity
  8
0
100
AcDbCircle
 62
7
  6
BYLAYER
 10
42.3987674071
 20
73.3218028587
 40
0.3222404314
100
AcDbArc
 50
104.6623144197
 51
109.4691129171
  0
SPLINE
  5
2A0
100
AcDbEntity
  8
0
100
AcDbSpline
 62
7
  6
BYLAYER
 70
0
 71
3
 72
28
 73
24
 74
0
 42
0.0000001
 43
0.0000001
 44
0.0000000001
 40
0.0
 40
0.0
 40
0.0
 40
0.0
 40
0.0096540855
 40
0.0200786442
 40
0.0318832783
 40
0.045471923
 40
0.061080094
 40
0.0788377099
 40
0.0987933818
 40
0.120946977
 40
0.1452664553
 40
0.1716845966
 40
0.2304606059
 40
0.2964102231
 40
0.3684519204
 40
0.4453485827
 40
0.5257458657
 40
0.6082086045
 40
0.6912594303
 40
0.7734082627
 40
0.8531721094
 40
0.9291641676
 40
1.0
 40
1.0
 40
1.0
 40
1.0
 10
56.2592129382
 20
26.1274675957
 30
0.0
 10
56.2786834015
 20
26.1241717994
 30
0.0
 10
56.3204643962
 20
26.1236564382
 30
0.0
 10
56.3839497956
 20
26.1412535192
 30
0.0
 10
56.4488688879
 20
26.1762029081
 30
0.0
 10
56.5152375493
 20
26.2279449643
 30
0.0
 10
56.5830993267
 20
26.2961818131
 30
0.0
 10
56.6522522487
 20
26.3806947244
 30
0.0
 10
56.7224727331
 20
26.4811312628
 30
0.0
 10
56.7934545717
 20
26.59707716
 30
0.0
 10
56.864855302
 20
26.7280277493
 30
0.0
 10
56.963745798
 20
26.929087517
 30
0.0
 10
57.0847252894
 20
27.2138544493
 30
0.0
 10
57.2217328774
 20
27.5924595328
 30
0.0
 10
57.3525822177
 20
28.0122226404
 30
0.0
 10
57.4747530178
 20
28.465247308
 30
0.0
 10
57.585890298
 20
28.9430058737
 30
0.0
 10
57.6838726659
 20
29.4364680809
 30
0.0
 10
57.7668306518
 20
29.9363082237
 30
0.0
 10
57.8331844272
 20
30.433054583
 30
0.0
 10
57.8817247406
 20
30.9173592844
 30
0.0
 10
57.9115182278
 20
31.3799928524
 30
0.0
 10
57.9188843603
 20
31.6803529208
 30
0.0
 10
57.9188843603
 20
31.8252476436
 30
0.0
  0
SPLINE
  5
2A1
100
AcDbEntity
  8
0
100
AcDbSpline
 62
7
  6
BYLAYER
 70
0
 71
3
 72
9
 73
5
 74
0
 42
0.0000001
 43
0.0000001
 44
0.0000000001
 40
0.0
 40
0.0
 40
0.0
 40
0.0
 40
0.4951533427
 40
1.0
 40
1.0
 40
1.0
 40
1.0
 10
45.2184158998
 20
28.6018239793
 30
0.0
 10
47.0162388195
 20
28.0939906392
 30
0.0
 10
50.6767708158
 20
27.1711575702
 30
0.0
 10
54.3812239128
 20
26.445590691
 30
0.0
 10
56.2592121968
 20
26.1274632121
 30
0.0
  0
SPLINE
  5
2A2
100
AcDbEntity
  8
0
100
AcDbSpline
 62
7
  6
BYLAYER
 70
0
 71
3
 72
19
 73
15
 74
0
 42
0.0000001
 43
0.0000001
 44
0.0000000001
 40
0.0
 40
0.0
 40
0.0
 40
0.0
 40
0.1957261068
 40
0.3731014448
 40
0.5299928125
 40
0.6650903126
 40
0.7242593631
 40
0.7778100604
 40
0.8258504898
 40
0.868630043
 40
0.9065676916
 40
0.9403512821
 40
0.9710234935
 40
1.0
 40
1.0
 40
1.0
 40
1.0
 10
57.9188843603
 20
31.8252476436
 30
0.0
 10
57.9188843603
 20
31.9380883334
 30
0.0
 10
57.9147625391
 20
32.1532259595
 30
0.0
 10
57.8944756162
 20
32.4582492507
 30
0.0
 10
57.8606379051
 20
32.7268957198
 30
0.0
 10
57.8200745226
 20
32.9255762918
 30
0.0
 10
57.7799159773
 20
33.0627728358
 30
0.0
 10
57.7480650924
 20
33.1498966098
 30
0.0
 10
57.7132396992
 20
33.2256151686
 30
0.0
 10
57.6755255508
 20
33.2897346274
 30
0.0
 10
57.6349346107
 20
33.3420785621
 30
0.0
 10
57.591395775
 20
33.3824371136
 30
0.0
 10
57.5449054986
 20
33.4104889376
 30
0.0
 10
57.5116204419
 20
33.4207284105
 30
0.0
 10
57.4951491153
 20
33.4235165381
 30
0.0
  0
SPLINE
  5
2A3
100
AcDbEntity
  8
0
100
AcDbSpline
 62
7
  6
BYLAYER
 70
0
 71
3
 72
9
 73
5
 74
0
 42
0.0000001
 43
0.0000001
 44
0.0000000001
 40
0.0
 40
0.0
 40
0.0
 40
0.0
 40
0.4943565831
 40
1.0
 40
1.0
 40
1.0
 40
1.0
 10
47.22999151
 20
35.7231696081
 30
0.0
 10
48.8987932786
 20
35.2517810376
 30
0.0
 10
52.3021843112
 20
34.3941060831
 30
0.0
 10
55.7463706409
 20
33.7197606415
 30
0.0
 10
57.4951498567
 20
33.4235209217
 30
0.0
  0
SPLINE
  5
2A4
100
AcDbEntity
  8
0
100
AcDbSpline
 62
7
  6
BYLAYER
 70
0
 71
3
 72
11
 73
7
 74
0
 42
0.0000001
 43
0.0000001
 44
0.0000000001
 40
0.0
 40
0.0
 40
0.0
 40
0.0
 40
0.2351016838
 40
0.4807789748
 40
0.736096146
 40
1.0
 40
1.0
 40
1.0
 40
1.0
 10
34.0159089306
 20
41.1637356586
 30
0.0
 10
34.9880745094
 20
40.6024682975
 30
0.0
 10
37.0187523754
 20
39.5272652471
 30
0.0
 10
40.228590714
 20
38.0900361898
 30
0.0
 10
43.649064048
 20
36.8038462563
 30
0.0
 10
46.0173637948
 20
36.0657021101
 30
0.0
 10
47.22999151
 20
35.7231696081
 30
0.0
  0
SPLINE
  5
2A5
100
AcDbEntity
  8
0
100
AcDbSpline
 62
7
  6
BYLAYER
 70
0
 71
3
 72
11
 73
7
 74
0
 42
0.0000001
 43
0.0000001
 44
0.0000000001
 40
0.0
 40
0.0
 40
0.0
 40
0.0
 40
0.2387284268
 40
0.4853135992
 40
0.7392859006
 40
1.0
 40
1.0
 40
1.0
 40
1.0
 10
30.3159717086
 20
34.7551114261
 30
0.0
 10
31.429735047
 20
34.1120944098
 30
0.0
 10
33.7418581324
 20
32.8864854865
 30
0.0
 10
37.3781238792
 20
31.255849222
 30
0.0
 10
41.2182944048
 20
29.8097761364
 30
0.0
 10
43.8668085107
 20
28.9836142476
 30
0.0
 10
45.2184158998
 20
28.6018239793
 30
0.0
  0
SPLINE
  5
2A6
100
AcDbEntity
  8
0
100
AcDbSpline
 62
7
  6
BYLAYER
 70
0
 71
3
 72
19
 73
15
 74
0
 42
0.0000001
 43
0.0000001
 44
0.0000000001
 40
0.0
 40
0.0
 40
0.0
 40
0.0
 40
0.1957261068
 40
0.3731014448
 40
0.5299928125
 40
0.6650903126
 40
0.7242593631
 40
0.7778100604
 40
0.8258504898
 40
0.868630043
 40
0.9065676916
 40
0.9403512821
 40
0.9710234935
 40
1.0
 40
1.0
 40
1.0
 40
1.0
 10
55.8354776933
 20
27.7257364902
 30
0.0
 10
55.8354776933
 20
27.6128958004
 30
0.0
 10
55.8395995144
 20
27.3977581743
 30
0.0
 10
55.8598864373
 20
27.0927348831
 30
0.0
 10
55.8937241484
 20
26.824088414
 30
0.0
 10
55.934287531
 20
26.625407842
 30
0.0
 10
55.9744460762
 20
26.488211298
 30
0.0
 10
56.0062969611
 20
26.401087524
 30
0.0
 10
56.0411223544
 20
26.3253689652
 30
0.0
 10
56.0788365028
 20
26.2612495064
 30
0.0
 10
56.1194274428
 20
26.2089055717
 30
0.0
 10
56.1629662786
 20
26.1685470202
 30
0.0
 10
56.2094565549
 20
26.1404951962
 30
0.0
 10
56.2427416117
 20
26.1302557233
 30
0.0
 10
56.2592129382
 20
26.1274675957
 30
0.0
  0
SPLINE
  5
2A7
100
AcDbEntity
  8
0
100
AcDbSpline
 62
7
  6
BYLAYER
 70
0
 71
3
 72
15
 73
11
 74
0
 42
0.0000001
 43
0.0000001
 44
0.0000000001
 40
0.0
 40
0.0
 40
0.0
 40
0.0
 40
0.1011196542
 40
0.2054978703
 40
0.3159016125
 40
0.4343158751
 40
0.5618790682
 40
0.6989516654
 40
0.8452543205
 40
1.0
 40
1.0
 40
1.0
 40
1.0
 10
34.0159054739
 20
41.1637296709
 30
0.0
 10
33.935842218
 20
41.2099436856
 30
0.0
 10
33.7618628704
 20
41.2856077575
 30
0.0
 10
33.476291739
 20
41.3406358114
 30
0.0
 10
33.1699019974
 20
41.3380122438
 30
0.0
 10
32.8481351136
 20
41.2785757579
 30
0.0
 10
32.5160625613
 20
41.1639275318
 30
0.0
 10
32.1788530954
 20
40.9962767553
 30
0.0
 10
31.8418261913
 20
40.7785371251
 30
0.0
 10
31.6262672759
 20
40.6066551488
 30
0.0
 10
31.5196252195
 20
40.5136986567
 30
0.0
  0
SPLINE
  5
2A8
100
AcDbEntity
  8
0
100
AcDbSpline
 62
7
  6
BYLAYER
 70
0
 71
3
 72
9
 73
5
 74
0
 42
0.0000001
 43
0.0000001
 44
0.0000000001
 40
0.0
 40
0.0
 40
0.0
 40
0.0
 40
0.4907497593
 40
1.0
 40
1.0
 40
1.0
 40
1.0
 10
31.5196252195
 20
40.5136986567
 30
0.0
 10
31.3977585552
 20
40.4074713576
 30
0.0
 10
31.1602042459
 20
40.1784381812
 30
0.0
 10
30.9441832037
 20
39.9291274044
 30
0.0
 10
30.8397131652
 20
39.7978664916
 30
0.0
  0
SPLINE
  5
2A9
100
AcDbEntity
  8
0
100
AcDbSpline
 62
7
  6
BYLAYER
 70
0
 71
3
 72
28
 73
24
 74
0
 42
0.0000001
 43
0.0000001
 44
0.0000000001
 40
0.0
 40
0.0
 40
0.0
 40
0.0
 40
0.0096540855
 40
0.0200786442
 40
0.0318832783
 40
0.045471923
 40
0.061080094
 40
0.0788377099
 40
0.0987933818
 40
0.120946977
 40
0.1452664553
 40
0.1716845966
 40
0.2304606059
 40
0.2964102231
 40
0.3684519204
 40
0.4453485827
 40
0.5257458657
 40
0.6082086045
 40
0.6912594303
 40
0.7734082627
 40
0.8531721094
 40
0.9291641676
 40
1.0
 40
1.0
 40
1.0
 40
1.0
 10
57.4951491153
 20
33.4235165381
 30
0.0
 10
57.475678652
 20
33.4268123344
 30
0.0
 10
57.4338976574
 20
33.4273276956
 30
0.0
 10
57.3704122579
 20
33.4097306146
 30
0.0
 10
57.3054931656
 20
33.3747812257
 30
0.0
 10
57.2391245042
 20
33.3230391695
 30
0.0
 10
57.1712627269
 20
33.2548023207
 30
0.0
 10
57.1021098049
 20
33.1702894094
 30
0.0
 10
57.0318893205
 20
33.069852871
 30
0.0
 10
56.9609074819
 20
32.9539069738
 30
0.0
 10
56.8895067515
 20
32.8229563845
 30
0.0
 10
56.7906162556
 20
32.6218966168
 30
0.0
 10
56.6696367642
 20
32.3371296845
 30
0.0
 10
56.5326291762
 20
31.958524601
 30
0.0
 10
56.4017798358
 20
31.5387614934
 30
0.0
 10
56.2796090357
 20
31.0857368258
 30
0.0
 10
56.1684717555
 20
30.6079782601
 30
0.0
 10
56.0704893876
 20
30.1145160529
 30
0.0
 10
55.9875314017
 20
29.6146759102
 30
0.0
 10
55.9211776263
 20
29.1179295508
 30
0.0
 10
55.872637313
 20
28.6336248494
 30
0.0
 10
55.8428438258
 20
28.1709912815
 30
0.0
 10
55.8354776933
 20
27.870631213
 30
0.0
 10
55.8354776933
 20
27.7257364902
 30
0.0
  0
SPLINE
  5
2AA
100
AcDbEntity
  8
0
100
AcDbSpline
 62
7
  6
BYLAYER
 70
0
 71
3
 72
28
 73
24
 74
0
 42
0.0000001
 43
0.0000001
 44
0.0000000001
 40
0.0
 40
0.0
 40
0.0
 40
0.0
 40
0.0678806034
 40
0.140563597
 40
0.2168504383
 40
0.2955117034
 40
0.3752121392
 40
0.4545974463
 40
0.5323228726
 40
0.6070882653
 40
0.6776776758
 40
0.7430042294
 40
0.8021624003
 40
0.8292207947
 40
0.8545180723
 40
0.8780276408
 40
0.8997614023
 40
0.9197665604
 40
0.938146649
 40
0.9550712051
 40
0.9707849229
 40
0.9856237166
 40
1.0
 40
1.0
 40
1.0
 40
1.0
 10
44.5981265227
 20
30.2436814318
 30
0.0
 10
44.5981265227
 20
30.3903790271
 30
0.0
 10
44.6099208941
 20
30.6942148286
 30
0.0
 10
44.6578045111
 20
31.1606562302
 30
0.0
 10
44.7357915207
 20
31.6466241349
 30
0.0
 10
44.8423370766
 20
32.1426311681
 30
0.0
 10
44.9754467922
 20
32.6391092259
 30
0.0
 10
45.132521924
 20
33.1264100674
 30
0.0
 10
45.3105030215
 20
33.5950945746
 30
0.0
 10
45.5059203164
 20
34.0360920441
 30
0.0
 10
45.7149699925
 20
34.4409213708
 30
0.0
 10
45.9335751529
 20
34.8017983922
 30
0.0
 10
46.1255411816
 20
35.0677744906
 30
0.0
 10
46.281451477
 20
35.2516851121
 30
0.0
 10
46.3946091295
 20
35.3704745856
 30
0.0
 10
46.5069795278
 20
35.4736843886
 30
0.0
 10
46.6180203991
 20
35.5608618908
 30
0.0
 10
46.7272750495
 20
35.6315642849
 30
0.0
 10
46.8342876868
 20
35.6854274466
 30
0.0
 10
46.9386179184
 20
35.7221631634
 30
0.0
 10
47.039872944
 20
35.7413670376
 30
0.0
 10
47.137470991
 20
35.7427807398
 30
0.0
 10
47.2000931682
 20
35.7316169169
 30
0.0
 10
47.2299910125
 20
35.723167847
 30
0.0
  0
SPLINE
  5
2AB
100
AcDbEntity
  8
0
100
AcDbSpline
 62
7
  6
BYLAYER
 70
0
 71
3
 72
16
 73
12
 74
0
 42
0.0000001
 43
0.0000001
 44
0.0000000001
 40
0.0
 40
0.0
 40
0.0
 40
0.0
 40
0.0404938524
 40
0.0818454635
 40
0.170010859
 40
0.2697339904
 40
0.384040016
 40
0.5143004785
 40
0.6608130691
 40
0.823142063
 40
1.0
 40
1.0
 40
1.0
 40
1.0
 10
45.2184163973
 20
28.6018257405
 30
0.0
 10
45.1942941785
 20
28.6086426305
 30
0.0
 10
45.1465542898
 20
28.6263384388
 30
0.0
 10
45.0543798898
 20
28.6778737892
 30
0.0
 10
44.9476393498
 20
28.7742116048
 30
0.0
 10
44.8411677143
 20
28.9294927442
 30
0.0
 10
44.7531132847
 20
29.1245084678
 30
0.0
 10
44.6838814805
 20
29.3570652345
 30
0.0
 10
44.6340577434
 20
29.62468573
 30
0.0
 10
44.6042377623
 20
29.9241515086
 30
0.0
 10
44.5981265227
 20
30.1342009342
 30
0.0
 10
44.5981265227
 20
30.2436814318
 30
0.0
  0
SPLINE
  5
2AC
100
AcDbEntity
  8
0
100
AcDbSpline
 62
7
  6
BYLAYER
 70
0
 71
3
 72
11
 73
7
 74
0
 42
0.0000001
 43
0.0000001
 44
0.0000000001
 40
0.0
 40
0.0
 40
0.0
 40
0.0
 40
0.2764171466
 40
0.5322206104
 40
0.7719222693
 40
1.0
 40
1.0
 40
1.0
 40
1.0
 10
31.6123134764
 20
32.5366924753
 30
0.0
 10
31.7231428681
 20
32.6115135536
 30
0.0
 10
31.9266742403
 20
32.7710490007
 30
0.0
 10
32.1836098797
 20
33.0438999804
 30
0.0
 10
32.3839788575
 20
33.332380054
 30
0.0
 10
32.4860355844
 20
33.5352672423
 30
0.0
 10
32.5289010142
 20
33.6369364723
 30
0.0
  0
SPLINE
  5
2AD
100
AcDbEntity
  8
0
100
AcDbSpline
 62
7
  6
BYLAYER
 70
0
 71
3
 72
19
 73
15
 74
0
 42
0.0000001
 43
0.0000001
 44
0.0000000001
 40
0.0
 40
0.0
 40
0.0
 40
0.0
 40
0.1732578831
 40
0.3446163431
 40
0.5085919384
 40
0.6593689529
 40
0.7278659512
 40
0.7906066781
 40
0.8466716771
 40
0.895150515
 40
0.9351622535
 40
0.9660931475
 40
0.9876114048
 40
1.0
 40
1.0
 40
1.0
 40
1.0
 10
32.3136966423
 20
38.3796899975
 30
0.0
 10
32.1889153868
 20
38.1918649436
 30
0.0
 10
31.958765346
 20
37.805941324
 30
0.0
 10
31.6753268792
 20
37.2066428533
 30
0.0
 10
31.4624162823
 20
36.6097347906
 30
0.0
 10
31.3454814838
 20
36.1235904725
 30
0.0
 10
31.2930669954
 20
35.7600859729
 30
0.0
 10
31.2741387243
 20
35.5168527622
 30
0.0
 10
31.2725705152
 20
35.2989424751
 30
0.0
 10
31.2856912757
 20
35.1110487882
 30
0.0
 10
31.3096392725
 20
34.9572820407
 30
0.0
 10
31.3388914496
 20
34.8403436584
 30
0.0
 10
31.367770761
 20
34.7608991733
 30
0.0
 10
31.3870049516
 20
34.7210767427
 30
0.0
 10
31.3950083225
 20
34.707079442
 30
0.0
  0
SPLINE
  5
2AE
100
AcDbEntity
  8
0
100
AcDbSpline
 62
7
  6
BYLAYER
 70
0
 71
3
 72
11
 73
7
 74
0
 42
0.0000001
 43
0.0000001
 44
0.0000000001
 40
0.0
 40
0.0
 40
0.0
 40
0.0
 40
0.289702329
 40
0.5490881649
 40
0.7822156415
 40
1.0
 40
1.0
 40
1.0
 40
1.0
 10
30.4689064189
 20
30.5293140005
 30
0.0
 10
30.4908458309
 20
30.5166475616
 30
0.0
 10
30.5344903959
 20
30.4958849863
 30
0.0
 10
30.6015729608
 20
30.4796857488
 30
0.0
 10
30.6645160318
 20
30.481279456
 30
0.0
 10
30.7024111212
 20
30.4950318774
 30
0.0
 10
30.7189040522
 20
30.5045540216
 30
0.0
  0
SPLINE
  5
2AF
100
AcDbEntity
  8
0
100
AcDbSpline
 62
7
  6
BYLAYER
 70
0
 71
3
 72
15
 73
11
 74
0
 42
0.0000001
 43
0.0000001
 44
0.0000000001
 40
0.0
 40
0.0
 40
0.0
 40
0.0
 40
0.1141232787
 40
0.2373467935
 40
0.3669716251
 40
0.4999988493
 40
0.6330262331
 40
0.7626515288
 40
0.885875802
 40
1.0
 40
1.0
 40
1.0
 40
1.0
 10
31.1760102561
 20
39.5924837759
 30
0.0
 10
31.2002071594
 20
39.5785140033
 30
0.0
 10
31.248011105
 20
39.54499111
 30
0.0
 10
31.3138004688
 20
39.4834628272
 30
0.0
 10
31.3744153602
 20
39.4107032942
 30
0.0
 10
31.4275967568
 20
39.3294902466
 30
0.0
 10
31.4713390929
 20
39.2428273941
 30
0.0
 10
31.5040438446
 20
39.1539534517
 30
0.0
 10
31.5244348924
 20
39.0662136719
 30
0.0
 10
31.5295651187
 20
39.0080524344
 30
0.0
 10
31.5295651187
 20
38.9801121901
 30
0.0
  0
SPLINE
  5
2B0
100
AcDbEntity
  8
0
100
AcDbSpline
 62
7
  6
BYLAYER
 70
0
 71
3
 72
11
 73
7
 74
0
 42
0.0000001
 43
0.0000001
 44
0.0000000001
 40
0.0
 40
0.0
 40
0.0
 40
0.0
 40
0.2897033281
 40
0.5490895198
 40
0.7822165953
 40
1.0
 40
1.0
 40
1.0
 40
1.0
 10
31.5295651187
 20
31.1416889856
 30
0.0
 10
31.5295651187
 20
31.1163549134
 30
0.0
 10
31.5257241006
 20
31.0681748774
 30
0.0
 10
31.5062117641
 20
31.0019780328
 30
0.0
 10
31.4733594696
 20
30.9482630369
 30
0.0
 10
31.4425011935
 20
30.9223205249
 30
0.0
 10
31.4260078894
 20
30.9127981755
 30
0.0
  0
SPLINE
  5
2B1
100
AcDbEntity
  8
0
100
AcDbSpline
 62
7
  6
BYLAYER
 70
0
 71
3
 72
19
 73
15
 74
0
 42
0.0000001
 43
0.0000001
 44
0.0000000001
 40
0.0
 40
0.0
 40
0.0
 40
0.0
 40
0.0457661094
 40
0.0929249272
 40
0.1419278168
 40
0.1931683425
 40
0.3032943104
 40
0.3625632619
 40
0.4246091826
 40
0.4893548993
 40
0.5566537706
 40
0.6980090269
 40
0.8466544773
 40
1.0
 40
1.0
 40
1.0
 40
1.0
 10
31.6123134764
 20
32.5366924753
 30
0.0
 10
31.5484533944
 20
32.5907218006
 30
0.0
 10
31.4267024857
 20
32.7101128442
 30
0.0
 10
31.2677806765
 20
32.9160626116
 30
0.0
 10
31.1316807588
 20
33.1494052112
 30
0.0
 10
30.9782195191
 20
33.5027491339
 30
0.0
 10
30.8795842174
 20
33.8969720746
 30
0.0
 10
30.8304703776
 20
34.3173750668
 30
0.0
 10
30.818194589
 20
34.6576172799
 30
0.0
 10
30.8315469176
 20
35.012404175
 30
0.0
 10
30.8841371002
 20
35.5096622818
 30
0.0
 10
31.0149226949
 20
36.1512437227
 30
0.0
 10
31.2641795245
 20
36.9237460504
 30
0.0
 10
31.4870062457
 20
37.4299490707
 30
0.0
 10
31.6123134764
 20
37.6806577032
 30
0.0
  0
SPLINE
  5
2B2
100
AcDbEntity
  8
0
100
AcDbSpline
 62
7
  6
BYLAYER
 70
0
 71
3
 72
11
 73
7
 74
0
 42
0.0000001
 43
0.0000001
 44
0.0000000001
 40
0.0
 40
0.0
 40
0.0
 40
0.0
 40
0.2177833598
 40
0.4509104088
 40
0.7102966711
 40
1.0
 40
1.0
 40
1.0
 40
1.0
 10
30.7189040522
 20
30.5045540216
 30
0.0
 10
30.7353973484
 20
30.5140763767
 30
0.0
 10
30.7662556276
 20
30.5400188705
 30
0.0
 10
30.7991079232
 20
30.5937338696
 30
0.0
 10
30.8186202548
 20
30.6599307182
 30
0.0
 10
30.8224612815
 20
30.7081107596
 30
0.0
 10
30.8224612815
 20
30.7334448318
 30
0.0
  0
SPLINE
  5
2B3
100
AcDbEntity
  8
0
100
AcDbSpline
 62
7
  6
BYLAYER
 70
0
 71
3
 72
9
 73
5
 74
0
 42
0.0000001
 43
0.0000001
 44
0.0000000001
 40
0.0
 40
0.0
 40
0.0
 40
0.0
 40
0.5242819427
 40
1.0
 40
1.0
 40
1.0
 40
1.0
 10
31.6123134764
 20
37.6806577032
 30
0.0
 10
31.7564373406
 20
37.7779559268
 30
0.0
 10
32.0149626285
 20
37.9896522218
 30
0.0
 10
32.226375474
 20
38.2482726997
 30
0.0
 10
32.3136948012
 20
38.3796935975
 30
0.0
  0
SPLINE
  5
2B4
100
AcDbEntity
  8
0
100
AcDbSpline
 62
7
  6
BYLAYER
 70
0
 71
3
 72
15
 73
11
 74
0
 42
0.0000001
 43
0.0000001
 44
0.0000000001
 40
0.0
 40
0.0
 40
0.0
 40
0.0
 40
0.1141241598
 40
0.2373483675
 40
0.3669736385
 40
0.5000010132
 40
0.6330282465
 40
0.7626531028
 40
0.8858766831
 40
1.0
 40
1.0
 40
1.0
 40
1.0
 10
30.8224612815
 20
38.5718680362
 30
0.0
 10
30.8224612815
 20
38.5998082712
 30
0.0
 10
30.8173310662
 20
38.657969484
 30
0.0
 10
30.7969400242
 20
38.745709233
 30
0.0
 10
30.7642352915
 20
38.834583156
 30
0.0
 10
30.7204929683
 20
38.9212460084
 30
0.0
 10
30.667311578
 20
39.0024590671
 30
0.0
 10
30.6066966793
 20
39.0752186263
 30
0.0
 10
30.5409072918
 20
39.1367469296
 30
0.0
 10
30.4931033303
 20
39.1702698447
 30
0.0
 10
30.4689064189
 20
39.184239622
 30
0.0
  0
SPLINE
  5
2B5
100
AcDbEntity
  8
0
100
AcDbSpline
 62
7
  6
BYLAYER
 70
0
 71
3
 72
17
 73
13
 74
0
 42
0.0000001
 43
0.0000001
 44
0.0000000001
 40
0.0
 40
0.0
 40
0.0
 40
0.0
 40
0.0477186086
 40
0.096340481
 40
0.1463155109
 40
0.1980329119
 40
0.3077395152
 40
0.4272105013
 40
0.5569268485
 40
0.6964643031
 40
0.8447017278
 40
1.0
 40
1.0
 40
1.0
 40
1.0
 10
49.176088238
 20
66.9718465299
 30
0.0
 10
49.2652196259
 20
67.0119788884
 30
0.0
 10
49.4506128356
 20
67.0814378601
 30
0.0
 10
49.7428736206
 20
67.1509924858
 30
0.0
 10
50.0494656566
 20
67.1863216066
 30
0.0
 10
50.4832733436
 20
67.187581393
 30
0.0
 10
51.0556420228
 20
67.0979675314
 30
0.0
 10
51.7539194279
 20
66.8586868811
 30
0.0
 10
52.463573024
 20
66.4920854425
 30
0.0
 10
53.1698480649
 20
66.0063819286
 30
0.0
 10
53.8580138504
 20
65.4122023615
 30
0.0
 10
54.2870087412
 20
64.960609141
 30
0.0
 10
54.4955399786
 20
64.7203661986
 30
0.0
  0
SPLINE
  5
2B6
100
AcDbEntity
  8
0
100
AcDbSpline
 62
7
  6
BYLAYER
 70
0
 71
3
 72
10
 73
6
 74
0
 42
0.0000001
 43
0.0000001
 44
0.0000000001
 40
0.0
 40
0.0
 40
0.0
 40
0.0
 40
0.4925712017
 40
0.7430218136
 40
1.0
 40
1.0
 40
1.0
 40
1.0
 10
53.0798841598
 20
64.6886364023
 30
0.0
 10
52.7959408843
 20
64.5167002241
 30
0.0
 10
52.3697605197
 20
64.2537032564
 30
0.0
 10
51.7834595328
 20
63.9212352236
 30
0.0
 10
51.4794199769
 20
63.7644126805
 30
0.0
 10
51.3235282254
 20
63.6889936989
 30
0.0
  0
SPLINE
  5
2B7
100
AcDbEntity
  8
0
100
AcDbSpline
 62
7
  6
BYLAYER
 70
0
 71
3
 72
9
 73
5
 74
0
 42
0.0000001
 43
0.0000001
 44
0.0000000001
 40
0.0
 40
0.0
 40
0.0
 40
0.0
 40
0.4887746095
 40
1.0
 40
1.0
 40
1.0
 40
1.0
 10
53.2232682579
 20
68.915438737
 30
0.0
 10
51.5850769161
 20
69.826895523
 30
0.0
 10
48.1472208996
 20
71.5394383078
 30
0.0
 10
44.583469448
 20
72.9685926358
 30
0.0
 10
42.7382248507
 20
73.6317412997
 30
0.0
  0
SPLINE
  5
2B8
100
AcDbEntity
  8
0
100
AcDbSpline
 62
7
  6
BYLAYER
 70
0
 71
3
 72
23
 73
19
 74
0
 42
0.0000001
 43
0.0000001
 44
0.0000000001
 40
0.0
 40
0.0
 40
0.0
 40
0.0
 40
0.0620324458
 40
0.1288152256
 40
0.1994480476
 40
0.2729244725
 40
0.3481228658
 40
0.4238715083
 40
0.4989822485
 40
0.5722862987
 40
0.6426717833
 40
0.7091258386
 40
0.7707823025
 40
0.8269966858
 40
0.8774424886
 40
0.9222631344
 40
0.9625466284
 40
1.0
 40
1.0
 40
1.0
 40
1.0
 10
42.9947378942
 20
66.8203321455
 30
0.0
 10
42.850079863
 20
66.7329037984
 30
0.0
 10
42.5370687562
 20
66.5717839037
 30
0.0
 10
42.0280202871
 20
66.3788170924
 30
0.0
 10
41.472039292
 20
66.230020183
 30
0.0
 10
40.8822136303
 20
66.1293204674
 30
0.0
 10
40.2719970089
 20
66.0793224858
 30
0.0
 10
39.6553034094
 20
66.0812543383
 30
0.0
 10
39.0461222024
 20
66.1350573097
 30
0.0
 10
38.4583198427
 20
66.2393878873
 30
0.0
 10
37.9053939954
 20
66.3915976886
 30
0.0
 10
37.4002142176
 20
66.5876766738
 30
0.0
 10
36.9546344191
 20
66.8221221609
 30
0.0
 10
36.5790970872
 20
67.0881136667
 30
0.0
 10
36.2820028914
 20
67.3774737612
 30
0.0
 10
36.0681823042
 20
67.6818149638
 30
0.0
 10
35.9401735185
 20
67.9935550851
 30
0.0
 10
35.911367802
 20
68.2062684877
 30
0.0
 10
35.911367802
 20
68.308321203
 30
0.0
  0
SPLINE
  5
2B9
100
AcDbEntity
  8
0
100
AcDbSpline
 62
7
  6
BYLAYER
 70
0
 71
3
 72
15
 73
11
 74
0
 42
0.0000001
 43
0.0000001
 44
0.0000000001
 40
0.0
 40
0.0
 40
0.0
 40
0.0
 40
0.1008488793
 40
0.2052911528
 40
0.3154299196
 40
0.4331615726
 40
0.5600632797
 40
0.6968002345
 40
0.8435234429
 40
1.0
 40
1.0
 40
1.0
 40
1.0
 10
44.061367802
 20
68.308321203
 30
0.0
 10
44.061367802
 20
68.2440679631
 30
0.0
 10
44.0503259452
 20
68.1130287902
 30
0.0
 10
44.0007258738
 20
67.9174302585
 30
0.0
 10
43.9171620623
 20
67.7220208635
 30
0.0
 10
43.7991775906
 20
67.5284076016
 30
0.0
 10
43.6466744661
 20
67.338478341
 30
0.0
 10
43.4603956649
 20
67.1542821321
 30
0.0
 10
43.2414386183
 20
66.9785999071
 30
0.0
 10
43.0800603283
 20
66.8718992746
 30
0.0
 10
42.9947378942
 20
66.8203321455
 30
0.0
  0
SPLINE
  5
2BA
100
AcDbEntity
  8
0
100
AcDbSpline
 62
7
  6
BYLAYER
 70
0
 71
3
 72
9
 73
5
 74
0
 42
0.0000001
 43
0.0000001
 44
0.0000000001
 40
0.0
 40
0.0
 40
0.0
 40
0.0
 40
0.485749985
 40
1.0
 40
1.0
 40
1.0
 40
1.0
 10
63.0641083123
 20
61.8936920068
 30
0.0
 10
61.8557129162
 20
63.0144461423
 30
0.0
 10
59.228630005
 20
65.1741172288
 30
0.0
 10
56.3948992295
 20
67.0506432146
 30
0.0
 10
54.8984517468
 20
67.9478882707
 30
0.0
  0
SPLINE
  5
2BB
100
AcDbEntity
  8
0
100
AcDbSpline
 62
7
  6
BYLAYER
 70
0
 71
3
 72
9
 73
5
 74
0
 42
0.0000001
 43
0.0000001
 44
0.0000000001
 40
0.0
 40
0.0
 40
0.0
 40
0.0
 40
0.4812721509
 40
1.0
 40
1.0
 40
1.0
 40
1.0
 10
53.2482467027
 20
68.9819335144
 30
0.0
 10
53.5373894374
 20
68.8675844177
 30
0.0
 10
54.1198701183
 20
68.5823989323
 30
0.0
 10
54.6600832403
 20
68.2250437204
 30
0.0
 10
54.9291689649
 20
68.0252786253
 30
0.0
  0
SPLINE
  5
2BC
100
AcDbEntity
  8
0
100
AcDbSpline
 62
7
  6
BYLAYER
 70
0
 71
3
 72
11
 73
7
 74
0
 42
0.0000001
 43
0.0000001
 44
0.0000000001
 40
0.0
 40
0.0
 40
0.0
 40
0.0
 40
0.2299109099
 40
0.4755039546
 40
0.7334809694
 40
1.0
 40
1.0
 40
1.0
 40
1.0
 10
32.9154766282
 20
43.2422052625
 30
0.0
 10
32.7191065778
 20
43.1288312311
 30
0.0
 10
32.295847437
 20
42.9233228087
 30
0.0
 10
31.6109203354
 20
42.6862692257
 30
0.0
 10
30.8696769558
 20
42.5149755978
 30
0.0
 10
30.3558132603
 20
42.4480975796
 30
0.0
 10
30.0938665414
 20
42.4262884589
 30
0.0
  0
SPLINE
  5
2BD
100
AcDbEntity
  8
0
100
AcDbSpline
 62
7
  6
BYLAYER
 70
0
 71
3
 72
23
 73
19
 74
0
 42
0.0000001
 43
0.0000001
 44
0.0000000001
 40
0.0
 40
0.0
 40
0.0
 40
0.0
 40
0.0374049072
 40
0.0772388269
 40
0.1209730478
 40
0.1696882819
 40
0.2236899333
 40
0.2828364508
 40
0.3467068825
 40
0.4146716595
 40
0.4859621692
 40
0.5597105405
 40
0.6349789001
 40
0.7107925532
 40
0.78615897
 40
0.8600929953
 40
0.9316841277
 40
1.0
 40
1.0
 40
1.0
 40
1.0
 10
50.053562305
 20
60.1435061126
 30
0.0
 10
50.053562305
 20
60.0505817618
 30
0.0
 10
50.0772269718
 20
59.8580028855
 30
0.0
 10
50.1828206908
 20
59.5741180536
 30
0.0
 10
50.3598460062
 20
59.2947708837
 30
0.0
 10
50.6072733485
 20
59.0258252325
 30
0.0
 10
50.9219730522
 20
58.773413475
 30
0.0
 10
51.2986371475
 20
58.5443903543
 30
0.0
 10
51.7298823792
 20
58.3444820908
 30
0.0
 10
52.2072113834
 20
58.1784822584
 30
0.0
 10
52.7212608325
 20
58.0501678941
 30
0.0
 10
53.262090533
 20
57.9623680977
 30
0.0
 10
53.8193550404
 20
57.9169326943
 30
0.0
 10
54.3824747141
 20
57.9147902512
 30
0.0
 10
54.9407692793
 20
57.9559970707
 30
0.0
 10
55.4837262051
 20
58.0396988325
 30
0.0
 10
56.0008099961
 20
58.1641533769
 30
0.0
 10
56.3307212343
 20
58.2754570254
 30
0.0
 10
56.4885714628
 20
58.3378012104
 30
0.0
  0
SPLINE
  5
2BE
100
AcDbEntity
  8
0
100
AcDbSpline
 62
7
  6
BYLAYER
 70
0
 71
3
 72
11
 73
7
 74
0
 42
0.0000001
 43
0.0000001
 44
0.0000000001
 40
0.0
 40
0.0
 40
0.0
 40
0.0
 40
0.2913887674
 40
0.5504116616
 40
0.7832805848
 40
1.0
 40
1.0
 40
1.0
 40
1.0
 10
57.5460017373
 20
58.9466277721
 30
0.0
 10
57.6504634807
 20
59.0347894429
 30
0.0
 10
57.8360034339
 20
59.2164117726
 30
0.0
 10
58.0480355937
 20
59.5195589997
 30
0.0
 10
58.1750062555
 20
59.8300515287
 30
0.0
 10
58.203562305
 20
60.0418418073
 30
0.0
 10
58.203562305
 20
60.1435061126
 30
0.0
  0
SPLINE
  5
2BF
100
AcDbEntity
  8
0
100
AcDbSpline
 62
7
  6
BYLAYER
 70
0
 71
3
 72
11
 73
7
 74
0
 42
0.0000001
 43
0.0000001
 44
0.0000000001
 40
0.0
 40
0.0
 40
0.0
 40
0.0
 40
0.227776115
 40
0.4765597478
 40
0.737688421
 40
1.0
 40
1.0
 40
1.0
 40
1.0
 10
54.3673452409
 20
64.5779359265
 30
0.0
 10
54.3458888677
 20
64.5903234891
 30
0.0
 10
54.2980488386
 20
64.6112239637
 30
0.0
 10
54.2199396444
 20
64.6308448001
 30
0.0
 10
54.1360224796
 20
64.6387926422
 30
0.0
 10
54.0788816326
 20
64.6356585564
 30
0.0
 10
54.0506405505
 20
64.6315943956
 30
0.0
  0
SPLINE
  5
2C0
100
AcDbEntity
  8
0
100
AcDbSpline
 62
7
  6
BYLAYER
 70
0
 71
3
 72
9
 73
5
 74
0
 42
0.0000001
 43
0.0000001
 44
0.0000000001
 40
0.0
 40
0.0
 40
0.0
 40
0.0
 40
0.5170468488
 40
1.0
 40
1.0
 40
1.0
 40
1.0
 10
48.1342644425
 20
67.5641642606
 30
0.0
 10
48.0888908628
 20
67.6451040757
 30
0.0
 10
48.0149960837
 20
67.8098389948
 30
0.0
 10
47.9728307773
 20
67.9857079486
 30
0.0
 10
47.9622421128
 20
68.0717303607
 30
0.0
  0
SPLINE
  5
2C1
100
AcDbEntity
  8
0
100
AcDbSpline
 62
7
  6
BYLAYER
 70
0
 71
3
 72
9
 73
5
 74
0
 42
0.0000001
 43
0.0000001
 44
0.0000000001
 40
0.0
 40
0.0
 40
0.0
 40
0.0
 40
0.283871631
 40
1.0
 40
1.0
 40
1.0
 40
1.0
 10
48.232828322
 20
68.1196207974
 30
0.0
 10
48.2446187239
 20
68.1128137597
 30
0.0
 10
48.2843973113
 20
68.0865217276
 30
0.0
 10
48.3184331654
 20
68.0474652124
 30
0.0
 10
48.3290580075
 20
68.0148048913
 30
0.0
  0
SPLINE
  5
2C2
100
AcDbEntity
  8
0
100
AcDbSpline
 62
7
  6
BYLAYER
 70
0
 71
3
 72
11
 73
7
 74
0
 42
0.0000001
 43
0.0000001
 44
0.0000000001
 40
0.0
 40
0.0
 40
0.0
 40
0.0
 40
0.2307930079
 40
0.4747061996
 40
0.732743439
 40
1.0
 40
1.0
 40
1.0
 40
1.0
 10
57.5461840848
 20
58.9467628926
 30
0.0
 10
57.5581084299
 20
58.9568503154
 30
0.0
 10
57.5866311438
 20
58.9731727695
 30
0.0
 10
57.6359293903
 20
58.9831111875
 30
0.0
 10
57.6883537111
 20
58.9791729532
 30
0.0
 10
57.7226672616
 20
58.968976122
 30
0.0
 10
57.7394891237
 20
58.9623320546
 30
0.0
  0
SPLINE
  5
2C3
100
AcDbEntity
  8
0
100
AcDbSpline
 62
7
  6
BYLAYER
 70
0
 71
3
 72
28
 73
24
 74
0
 42
0.0000001
 43
0.0000001
 44
0.0000000001
 40
0.0
 40
0.0
 40
0.0
 40
0.0
 40
0.071679924
 40
0.1470969989
 40
0.2246893805
 40
0.3027579168
 40
0.3795643648
 40
0.4534594111
 40
0.5230034895
 40
0.5871137275
 40
0.6452366778
 40
0.6975638474
 40
0.7219320399
 40
0.7453786457
 40
0.7682140833
 40
0.7907929422
 40
0.8134922125
 40
0.836678834
 40
0.8606815043
 40
0.8857668632
 40
0.9121418404
 40
0.9399511809
 40
1.0
 40
1.0
 40
1.0
 40
1.0
 10
37.5161553348
 20
70.6380023322
 30
0.0
 10
37.7440166751
 20
70.7279979545
 30
0.0
 10
38.224713229
 20
70.8805876971
 30
0.0
 10
38.9803307652
 20
71.0258155714
 30
0.0
 10
39.7690308013
 20
71.090010722
 30
0.0
 10
40.5647938333
 20
71.0710656805
 30
0.0
 10
41.3416260036
 20
70.9695818835
 30
0.0
 10
42.0741443834
 20
70.7888636087
 30
0.0
 10
42.7385960747
 20
70.5347007822
 30
0.0
 10
43.3137325293
 20
70.2147821363
 30
0.0
 10
43.7810948857
 20
69.8386430871
 30
0.0
 10
44.0746544121
 20
69.4772299136
 30
0.0
 10
44.2339345199
 20
69.1731538391
 30
0.0
 10
44.3147622588
 20
68.9446687796
 30
0.0
 10
44.3588638191
 20
68.7125132823
 30
0.0
 10
44.3656555617
 20
68.4788185097
 30
0.0
 10
44.3350691359
 20
68.245843036
 30
0.0
 10
44.2674818729
 20
68.0157869229
 30
0.0
 10
44.1636689533
 20
67.7907389268
 30
0.0
 10
44.0248107104
 20
67.5725546169
 30
0.0
 10
43.8521020687
 20
67.3629893287
 30
0.0
 10
43.5717588911
 20
67.0904086608
 30
0.0
 10
43.3255613145
 20
66.9146908676
 30
0.0
 10
43.1499126148
 20
66.8085323962
 30
0.0
  0
SPLINE
  5
2C4
100
AcDbEntity
  8
0
100
AcDbSpline
 62
7
  6
BYLAYER
 70
0
 71
3
 72
15
 73
11
 74
0
 42
0.0000001
 43
0.0000001
 44
0.0000000001
 40
0.0
 40
0.0
 40
0.0
 40
0.0
 40
0.1120601863
 40
0.2339849009
 40
0.3632321273
 40
0.4965587018
 40
0.6303654612
 40
0.7610217929
 40
0.8851531571
 40
1.0
 40
1.0
 40
1.0
 40
1.0
 10
57.1594275063
 20
58.6950380205
 30
0.0
 10
56.9658310019
 20
58.8194220387
 30
0.0
 10
56.5361024108
 20
59.0403404799
 30
0.0
 10
55.8269660144
 20
59.278513044
 30
0.0
 10
55.0500380245
 20
59.4305171875
 30
0.0
 10
54.2364214115
 20
59.4902088863
 30
0.0
 10
53.418485742
 20
59.4552944713
 30
0.0
 10
52.6288273699
 20
59.3270839034
 30
0.0
 10
51.8990908606
 20
59.1108059974
 30
0.0
 10
51.4513279381
 20
58.9039442675
 30
0.0
 10
51.247090175
 20
58.7860282438
 30
0.0
  0
SPLINE
  5
2C5
100
AcDbEntity
  8
0
100
AcDbSpline
 62
7
  6
BYLAYER
 70
0
 71
3
 72
9
 73
5
 74
0
 42
0.0000001
 43
0.0000001
 44
0.0000000001
 40
0.0
 40
0.0
 40
0.0
 40
0.0
 40
0.4885736869
 40
1.0
 40
1.0
 40
1.0
 40
1.0
 10
53.1937089733
 20
68.8333615861
 30
0.0
 10
51.5578561249
 20
69.7481969363
 30
0.0
 10
48.1223266259
 20
71.4672990216
 30
0.0
 10
44.5595834722
 20
72.901163074
 30
0.0
 10
42.7139253768
 20
73.5665949996
 30
0.0
  0
SPLINE
  5
2C6
100
AcDbEntity
  8
0
100
AcDbSpline
 62
7
  6
BYLAYER
 70
0
 71
3
 72
9
 73
5
 74
0
 42
0.0000001
 43
0.0000001
 44
0.0000000001
 40
0.0
 40
0.0
 40
0.0
 40
0.0
 40
0.4857133149
 40
1.0
 40
1.0
 40
1.0
 40
1.0
 10
62.8601027554
 20
61.9186842523
 30
0.0
 10
61.6757170405
 20
63.0171700561
 30
0.0
 10
59.1023839779
 20
65.1359148057
 30
0.0
 10
56.3284371236
 20
66.9806366221
 30
0.0
 10
54.8636364099
 20
67.8637246172
 30
0.0
  0
SPLINE
  5
2C7
100
AcDbEntity
  8
0
100
AcDbSpline
 62
7
  6
BYLAYER
 70
0
 71
3
 72
26
 73
22
 74
0
 42
0.0000001
 43
0.0000001
 44
0.0000000001
 40
0.0
 40
0.0
 40
0.0
 40
0.0
 40
0.0714314355
 40
0.1464699995
 40
0.2237246895
 40
0.3017043918
 40
0.3788521073
 40
0.4536712031
 40
0.5248075438
 40
0.591164876
 40
0.6520311584
 40
0.7072364088
 40
0.7573370315
 40
0.7809416779
 40
0.8038835115
 40
0.8264704108
 40
0.849034261
 40
0.8719070801
 40
0.8953979174
 40
0.9451878488
 40
1.0
 40
1.0
 40
1.0
 40
1.0
 10
51.6583498395
 20
62.4731872423
 30
0.0
 10
51.8732380379
 20
62.5580590205
 30
0.0
 10
52.3255049844
 20
62.7035352144
 30
0.0
 10
53.0360328184
 20
62.8472028327
 30
0.0
 10
53.7786980154
 20
62.9187450968
 30
0.0
 10
54.5315484145
 20
62.9161242711
 30
0.0
 10
55.2726097085
 20
62.839357618
 30
0.0
 10
55.9801745807
 20
62.6907250053
 30
0.0
 10
56.6336561256
 20
62.4744771869
 30
0.0
 10
57.2141908758
 20
62.1967290958
 30
0.0
 10
57.7051921422
 20
61.8648058424
 30
0.0
 10
58.092409772
 20
61.4873005336
 30
0.0
 10
58.3227300058
 20
61.1342346358
 30
0.0
 10
58.4378598716
 20
60.8426266465
 30
0.0
 10
58.4899556939
 20
60.6243506276
 30
0.0
 10
58.5090141818
 20
60.4041051979
 30
0.0
 10
58.4946692036
 20
60.1837221263
 30
0.0
 10
58.4472353613
 20
59.9650632062
 30
0.0
 10
58.3384344716
 20
59.6727116101
 30
0.0
 10
58.1156631207
 20
59.3179721614
 30
0.0
 10
57.8749785276
 20
59.0766607654
 30
0.0
 10
57.739493475
 20
58.9623167528
 30
0.0
  0
SPLINE
  5
2C8
100
AcDbEntity
  8
0
100
AcDbSpline
 62
7
  6
BYLAYER
 70
0
 71
3
 72
9
 73
5
 74
0
 42
0.0000001
 43
0.0000001
 44
0.0000000001
 40
0.0
 40
0.0
 40
0.0
 40
0.0
 40
0.2406195812
 40
1.0
 40
1.0
 40
1.0
 40
1.0
 10
50.9360961582
 20
62.1155477485
 30
0.0
 10
50.9911717538
 20
62.1494818717
 30
0.0
 10
51.22353884
 20
62.2848412724
 30
0.0
 10
51.4684647738
 20
62.3981906473
 30
0.0
 10
51.6583498395
 20
62.4731872423
 30
0.0
  0
SPLINE
  5
2C9
100
AcDbEntity
  8
0
100
AcDbSpline
 62
7
  6
BYLAYER
 70
0
 71
3
 72
28
 73
24
 74
0
 42
0.0000001
 43
0.0000001
 44
0.0000000001
 40
0.0
 40
0.0
 40
0.0
 40
0.0
 40
0.0722972111
 40
0.1481059984
 40
0.2259001542
 40
0.3040010777
 40
0.380712806
 40
0.4544319942
 40
0.523768471
 40
0.5876860258
 40
0.6456698276
 40
0.6979342173
 40
0.7222989366
 40
0.7457568351
 40
0.7686126069
 40
0.7912132217
 40
0.8139276258
 40
0.8371154663
 40
0.8610996001
 40
0.8861437578
 40
0.9124542759
 40
0.9401772331
 40
1.0
 40
1.0
 40
1.0
 40
1.0
 10
56.5132391438
 20
58.2707927441
 30
0.0
 10
56.2847196994
 20
58.1850368389
 30
0.0
 10
55.8045073221
 20
58.0404504504
 30
0.0
 10
55.052416921
 20
57.9055715455
 30
0.0
 10
54.2706607491
 20
57.8502451316
 30
0.0
 10
53.4843859868
 20
57.8763029166
 30
0.0
 10
52.7187374383
 20
57.9829005223
 30
0.0
 10
51.998170139
 20
58.1666588488
 30
0.0
 10
51.3455300705
 20
58.4218209538
 30
0.0
 10
50.781228888
 20
58.7408464886
 30
0.0
 10
50.3229941022
 20
59.1144428855
 30
0.0
 10
50.035370865
 20
59.4723483469
 30
0.0
 10
49.8791739715
 20
59.7730711058
 30
0.0
 10
49.7997873765
 20
59.9990059865
 30
0.0
 10
49.7562811042
 20
60.2284981319
 30
0.0
 10
49.749249149
 20
60.4594995311
 30
0.0
 10
49.7787275201
 20
60.6898326374
 30
0.0
 10
49.8443934905
 20
60.9173713699
 30
0.0
 10
49.9454866872
 20
61.1401014489
 30
0.0
 10
50.080901948
 20
61.3562157251
 30
0.0
 10
50.2494903145
 20
61.5640173649
 30
0.0
 10
50.5233107816
 20
61.8346012191
 30
0.0
 10
50.7641481247
 20
62.0096041687
 30
0.0
 10
50.9360961582
 20
62.1155477485
 30
0.0
  0
SPLINE
  5
2CA
100
AcDbEntity
  8
0
100
AcDbSpline
 62
7
  6
BYLAYER
 70
0
 71
3
 72
9
 73
5
 74
0
 42
0.0000001
 43
0.0000001
 44
0.0000000001
 40
0.0
 40
0.0
 40
0.0
 40
0.0
 40
0.5146392841
 40
1.0
 40
1.0
 40
1.0
 40
1.0
 10
30.5014406248
 20
43.5630020518
 30
0.0
 10
30.7234963489
 20
43.6088948257
 30
0.0
 10
31.1509132748
 20
43.7192962923
 30
0.0
 10
31.5642967634
 20
43.8749314311
 30
0.0
 10
31.7592883487
 20
43.9627349058
 30
0.0
  0
SPLINE
  5
2CB
100
AcDbEntity
  8
0
100
AcDbSpline
 62
7
  6
BYLAYER
 70
0
 71
3
 72
11
 73
7
 74
0
 42
0.0000001
 43
0.0000001
 44
0.0000000001
 40
0.0
 40
0.0
 40
0.0
 40
0.0
 40
0.2318536065
 40
0.477217038
 40
0.7341770263
 40
1.0
 40
1.0
 40
1.0
 40
1.0
 10
26.0565399522
 20
44.1811639201
 30
0.0
 10
26.2038062154
 20
44.096141843
 30
0.0
 10
26.5173824521
 20
43.938862446
 30
0.0
 10
27.0213932187
 20
43.7470976771
 30
0.0
 10
27.5650937583
 20
43.5966760323
 30
0.0
 10
27.9426554602
 20
43.5268292433
 30
0.0
 10
28.1356778062
 20
43.4994010055
 30
0.0
  0
SPLINE
  5
2CC
100
AcDbEntity
  8
0
100
AcDbSpline
 62
7
  6
BYLAYER
 70
0
 71
3
 72
11
 73
7
 74
0
 42
0.0000001
 43
0.0000001
 44
0.0000000001
 40
0.0
 40
0.0
 40
0.0
 40
0.0
 40
0.2509985958
 40
0.5038159326
 40
0.7547998862
 40
1.0
 40
1.0
 40
1.0
 40
1.0
 10
28.1356778062
 20
43.4994010055
 30
0.0
 10
28.3326038911
 20
43.4714180513
 30
0.0
 10
28.7304543037
 20
43.4320666413
 30
0.0
 10
29.329185171
 20
43.4223253355
 30
0.0
 10
29.9220410385
 20
43.4627707012
 30
0.0
 10
30.3111529249
 20
43.5236743533
 30
0.0
 10
30.5014407361
 20
43.5630018722
 30
0.0
  0
SPLINE
  5
2CD
100
AcDbEntity
  8
0
100
AcDbSpline
 62
7
  6
BYLAYER
 70
0
 71
3
 72
9
 73
5
 74
0
 42
0.0000001
 43
0.0000001
 44
0.0000000001
 40
0.0
 40
0.0
 40
0.0
 40
0.0
 40
0.4913817072
 40
1.0
 40
1.0
 40
1.0
 40
1.0
 10
53.2233036574
 20
68.9154656757
 30
0.0
 10
53.344004712
 20
68.8483001226
 30
0.0
 10
53.5805743182
 20
68.6950791845
 30
0.0
 10
53.800611691
 20
68.5196403911
 30
0.0
 10
53.9093012361
 20
68.4267502339
 30
0.0
  0
SPLINE
  5
2CE
100
AcDbEntity
  8
0
100
AcDbSpline
 62
7
  6
BYLAYER
 70
0
 71
3
 72
10
 73
6
 74
0
 42
0.0000001
 43
0.0000001
 44
0.0000000001
 40
0.0
 40
0.0
 40
0.0
 40
0.0
 40
0.4570824327
 40
0.7190801872
 40
1.0
 40
1.0
 40
1.0
 40
1.0
 10
9.0373345383
 20
54.0875067504
 30
0.0
 10
9.0514769991
 20
54.048401233
 30
0.0
 10
9.0931621529
 20
53.9942374676
 30
0.0
 10
9.163387678
 20
53.9367319677
 30
0.0
 10
9.2051961378
 20
53.9100730873
 30
0.0
 10
9.2273295702
 20
53.8972944992
 30
0.0
  0
SPLINE
  5
2CF
100
AcDbEntity
  8
0
100
AcDbSpline
 62
7
  6
BYLAYER
 70
0
 71
3
 72
9
 73
5
 74
0
 42
0.0000001
 43
0.0000001
 44
0.0000000001
 40
0.0
 40
0.0
 40
0.0
 40
0.0
 40
0.494642118
 40
1.0
 40
1.0
 40
1.0
 40
1.0
 10
9.0293433538
 20
54.1912324537
 30
0.0
 10
9.0265735508
 20
54.1741603463
 30
0.0
 10
9.0243041485
 20
54.1389455795
 30
0.0
 10
9.0313230685
 20
54.104123306
 30
0.0
 10
9.037332268
 20
54.0875064767
 30
0.0
  0
SPLINE
  5
2D0
100
AcDbEntity
  8
0
100
AcDbSpline
 62
7
  6
BYLAYER
 70
0
 71
3
 72
26
 73
22
 74
0
 42
0.0000001
 43
0.0000001
 44
0.0000000001
 40
0.0
 40
0.0
 40
0.0
 40
0.0
 40
0.0714314355
 40
0.1464699995
 40
0.2237246894
 40
0.3017043918
 40
0.3788521073
 40
0.4536712031
 40
0.5248075437
 40
0.5911648759
 40
0.6520311584
 40
0.7072364087
 40
0.7573370314
 40
0.7809416778
 40
0.8038835113
 40
0.8264704106
 40
0.849034261
 40
0.87190708
 40
0.8953979173
 40
0.9451878485
 40
1.0
 40
1.0
 40
1.0
 40
1.0
 10
42.4565802675
 20
66.4685415235
 30
0.0
 10
42.2416920691
 20
66.3836697453
 30
0.0
 10
41.7894251226
 20
66.2381935514
 30
0.0
 10
41.0788972886
 20
66.0945259331
 30
0.0
 10
40.3362320916
 20
66.022983669
 30
0.0
 10
39.5833816924
 20
66.0256044947
 30
0.0
 10
38.8423203984
 20
66.1023711478
 30
0.0
 10
38.1347555262
 20
66.2510037606
 30
0.0
 10
37.4812739813
 20
66.467251579
 30
0.0
 10
36.9007392311
 20
66.7449996701
 30
0.0
 10
36.4097379646
 20
67.0769229235
 30
0.0
 10
36.0225203349
 20
67.4544282324
 30
0.0
 10
35.792200101
 20
67.8074941301
 30
0.0
 10
35.6770702353
 20
68.0991021194
 30
0.0
 10
35.6249744137
 20
68.3173781383
 30
0.0
 10
35.6059159257
 20
68.5376235682
 30
0.0
 10
35.6202609015
 20
68.75800664
 30
0.0
 10
35.6676947422
 20
68.976665561
 30
0.0
 10
35.776495645
 20
69.2690171521
 30
0.0
 10
35.9992669842
 20
69.6237565991
 30
0.0
 10
36.2399515475
 20
69.865068037
 30
0.0
 10
36.3754366322
 20
69.9794120132
 30
0.0
  0
SPLINE
  5
2D1
100
AcDbEntity
  8
0
100
AcDbSpline
 62
7
  6
BYLAYER
 70
0
 71
3
 72
9
 73
5
 74
0
 42
0.0000001
 43
0.0000001
 44
0.0000000001
 40
0.0
 40
0.0
 40
0.0
 40
0.0
 40
0.2443071071
 40
1.0
 40
1.0
 40
1.0
 40
1.0
 10
42.932629332
 20
66.6860218673
 30
0.0
 10
42.8948967096
 20
66.6661766068
 30
0.0
 10
42.7392766734
 20
66.5871859624
 30
0.0
 10
42.5792335751
 20
66.5169844086
 30
0.0
 10
42.4565802675
 20
66.4685415235
 30
0.0
  0
SPLINE
  5
2D2
100
AcDbEntity
  8
0
100
AcDbSpline
 62
7
  6
BYLAYER
 70
0
 71
3
 72
9
 73
5
 74
0
 42
0.0000001
 43
0.0000001
 44
0.0000000001
 40
0.0
 40
0.0
 40
0.0
 40
0.0
 40
0.2534539115
 40
1.0
 40
1.0
 40
1.0
 40
1.0
 10
47.4343112965
 20
67.9478514469
 30
0.0
 10
47.1502128829
 20
68.1323055523
 30
0.0
 10
46.0356237176
 20
68.869737136
 30
0.0
 10
44.9468636305
 20
69.6463342185
 30
0.0
 10
44.1513759398
 20
70.2485238208
 30
0.0
  0
SPLINE
  5
2D3
100
AcDbEntity
  8
0
100
AcDbSpline
 62
7
  6
BYLAYER
 70
0
 71
3
 72
15
 73
11
 74
0
 42
0.0000001
 43
0.0000001
 44
0.0000000001
 40
0.0
 40
0.0
 40
0.0
 40
0.0
 40
0.1169852148
 40
0.2407303268
 40
0.3692685918
 40
0.5002690512
 40
0.6312322346
 40
0.7596816589
 40
0.883280391
 40
1.0
 40
1.0
 40
1.0
 40
1.0
 10
52.7989285177
 20
58.0794291447
 30
0.0
 10
52.8959002479
 20
58.1243300192
 30
0.0
 10
53.101859507
 20
58.2032671568
 30
0.0
 10
53.4292306081
 20
58.2871125596
 30
0.0
 10
53.7762211367
 20
58.3381888141
 30
0.0
 10
54.1330959006
 20
58.35510652
 30
0.0
 10
54.4898497619
 20
58.337338658
 30
0.0
 10
54.8364601422
 20
58.2853708394
 30
0.0
 10
55.1631451593
 20
58.2007112277
 30
0.0
 10
55.3685428787
 20
58.1213502437
 30
0.0
 10
55.4651412933
 20
58.0762220319
 30
0.0
  0
SPLINE
  5
2D4
100
AcDbEntity
  8
0
100
AcDbSpline
 62
7
  6
BYLAYER
 70
0
 71
3
 72
10
 73
6
 74
0
 42
0.0000001
 43
0.0000001
 44
0.0000000001
 40
0.0
 40
0.0
 40
0.0
 40
0.0
 40
0.2439148081
 40
0.4931730141
 40
1.0
 40
1.0
 40
1.0
 40
1.0
 10
45.6768735117
 20
66.9163661856
 30
0.0
 10
45.8129934082
 20
67.0109627508
 30
0.0
 10
46.0943993425
 20
67.1933691427
 30
0.0
 10
46.6801884126
 20
67.5380995858
 30
0.0
 10
47.1325306193
 20
67.7820069481
 30
0.0
 10
47.4343073258
 20
67.9480379711
 30
0.0
  0
SPLINE
  5
2D5
100
AcDbEntity
  8
0
100
AcDbSpline
 62
7
  6
BYLAYER
 70
0
 71
3
 72
33
 73
29
 74
0
 42
0.0000001
 43
0.0000001
 44
0.0000000001
 40
0.0
 40
0.0
 40
0.0
 40
0.0
 40
0.0681082944
 40
0.1394658953
 40
0.2137879038
 40
0.2901662329
 40
0.3677797312
 40
0.406799702
 40
0.445747176
 40
0.4843487886
 40
0.522144961
 40
0.558373046
 40
0.5919310831
 40
0.6073940417
 40
0.6219429864
 40
0.6486664228
 40
0.67315962
 40
0.6963836623
 40
0.7190350777
 40
0.741567832
 40
0.7872692421
 40
0.8108542049
 40
0.8350799438
 40
0.8600832415
 40
0.8860171685
 40
0.912993527
 40
0.9410269598
 40
1.0
 40
1.0
 40
1.0
 40
1.0
 10
51.2923743367
 20
63.6739962022
 30
0.0
 10
51.0598243812
 20
63.5625206738
 30
0.0
 10
50.5744343441
 20
63.3527066439
 30
0.0
 10
49.804239754
 20
63.0997324957
 30
0.0
 10
48.9834335534
 20
62.9125643771
 30
0.0
 10
48.1274990352
 20
62.7861727003
 30
0.0
 10
47.3977637237
 20
62.7329527849
 30
0.0
 10
46.8085038399
 20
62.7279405635
 30
0.0
 10
46.3672767052
 20
62.7461561772
 30
0.0
 10
45.932446994
 20
62.7902212762
 30
0.0
 10
45.512078548
 20
62.865235064
 30
0.0
 10
45.1194867993
 20
62.9768631413
 30
0.0
 10
44.822725678
 20
63.1084671767
 30
0.0
 10
44.6200584522
 20
63.2392081509
 30
0.0
 10
44.4530789412
 20
63.3749162997
 30
0.0
 10
44.2865225528
 20
63.5630849645
 30
0.0
 10
44.1499990038
 20
63.8120882349
 30
0.0
 10
44.0708550843
 20
64.0681541174
 30
0.0
 10
44.038550638
 20
64.3263144909
 30
0.0
 10
44.0473908411
 20
64.6713151086
 30
0.0
 10
44.1240342746
 20
65.0141967744
 30
0.0
 10
44.2528848679
 20
65.3443179473
 30
0.0
 10
44.3774455481
 20
65.5907943619
 30
0.0
 10
44.5288731209
 20
65.832226765
 30
0.0
 10
44.7083952032
 20
66.0668582373
 30
0.0
 10
44.9155870126
 20
66.293194356
 30
0.0
 10
45.2310236809
 20
66.5882438827
 30
0.0
 10
45.4938877377
 20
66.7883883168
 30
0.0
 10
45.6772195351
 20
66.9158694805
 30
0.0
  0
SPLINE
  5
2D6
100
AcDbEntity
  8
0
100
AcDbSpline
 62
7
  6
BYLAYER
 70
0
 71
3
 72
9
 73
5
 74
0
 42
0.0000001
 43
0.0000001
 44
0.0000000001
 40
0.0
 40
0.0
 40
0.0
 40
0.0
 40
0.5123993803
 40
1.0
 40
1.0
 40
1.0
 40
1.0
 10
57.2619422766
 20
58.569303299
 30
0.0
 10
57.3250249773
 20
58.6057372735
 30
0.0
 10
57.4443088596
 20
58.6837622558
 30
0.0
 10
57.5536483889
 20
58.775163873
 30
0.0
 10
57.6042951816
 20
58.8224979879
 30
0.0
  0
SPLINE
  5
2D7
100
AcDbEntity
  8
0
100
AcDbSpline
 62
7
  6
BYLAYER
 70
0
 71
3
 72
9
 73
5
 74
0
 42
0.0000001
 43
0.0000001
 44
0.0000000001
 40
0.0
 40
0.0
 40
0.0
 40
0.0
 40
0.4981568732
 40
1.0
 40
1.0
 40
1.0
 40
1.0
 10
48.3290580075
 20
68.0148048913
 30
0.0
 10
48.3331383979
 20
68.0022619417
 30
0.0
 10
48.3372203229
 20
67.9754531027
 30
0.0
 10
48.3310413233
 20
67.9489725429
 30
0.0
 10
48.3257745074
 20
67.9367733583
 30
0.0
  0
SPLINE
  5
2D8
100
AcDbEntity
  8
0
100
AcDbSpline
 62
7
  6
BYLAYER
 70
0
 71
3
 72
11
 73
7
 74
0
 42
0.0000001
 43
0.0000001
 44
0.0000000001
 40
0.0
 40
0.0
 40
0.0
 40
0.0
 40
0.2282360119
 40
0.466194789
 40
0.7218622258
 40
1.0
 40
1.0
 40
1.0
 40
1.0
 10
35.9113676892
 20
68.308321203
 30
0.0
 10
35.9113657012
 20
68.4264984679
 30
0.0
 10
35.9436330146
 20
68.668939377
 30
0.0
 10
36.0851991813
 20
69.0185148248
 30
0.0
 10
36.3146570231
 20
69.3490307963
 30
0.0
 10
36.5129849754
 20
69.5437835504
 30
0.0
 10
36.6230433255
 20
69.636668812
 30
0.0
  0
SPLINE
  5
2D9
100
AcDbEntity
  8
0
100
AcDbSpline
 62
7
  6
BYLAYER
 70
0
 71
3
 72
9
 73
5
 74
0
 42
0.0000001
 43
0.0000001
 44
0.0000000001
 40
0.0
 40
0.0
 40
0.0
 40
0.0
 40
0.2566004451
 40
1.0
 40
1.0
 40
1.0
 40
1.0
 10
52.9561278586
 20
67.8764510089
 30
0.0
 10
53.5048407872
 20
67.5596586185
 30
0.0
 10
55.6248275056
 20
66.2936637028
 30
0.0
 10
57.668453597
 20
64.8983204063
 30
0.0
 10
59.1280360004
 20
63.7852030557
 30
0.0
  0
SPLINE
  5
2DA
100
AcDbEntity
  8
0
100
AcDbSpline
 62
7
  6
BYLAYER
 70
0
 71
3
 72
9
 73
5
 74
0
 42
0.0000001
 43
0.0000001
 44
0.0000000001
 40
0.0
 40
0.0
 40
0.0
 40
0.0
 40
0.2565636475
 40
1.0
 40
1.0
 40
1.0
 40
1.0
 10
45.8697258035
 20
71.439718848
 30
0.0
 10
46.4914692338
 20
71.1679762738
 30
0.0
 10
48.9010114824
 20
70.077696554
 30
0.0
 10
51.2533671324
 20
68.8595181317
 30
0.0
 10
52.9561278575
 20
67.876451008
 30
0.0
  0
SPLINE
  5
2DB
100
AcDbEntity
  8
0
100
AcDbSpline
 62
7
  6
BYLAYER
 70
0
 71
3
 72
9
 73
5
 74
0
 42
0.0000001
 43
0.0000001
 44
0.0000000001
 40
0.0
 40
0.0
 40
0.0
 40
0.0
 40
0.5032799382
 40
1.0
 40
1.0
 40
1.0
 40
1.0
 10
54.8984711884
 20
67.9479100322
 30
0.0
 10
54.7402197572
 20
68.0428094515
 30
0.0
 10
54.4160219319
 20
68.2153622708
 30
0.0
 10
54.0789732594
 20
68.3605763167
 30
0.0
 10
53.9093012361
 20
68.4267502339
 30
0.0
  0
SPLINE
  5
2DC
100
AcDbEntity
  8
0
100
AcDbSpline
 62
7
  6
BYLAYER
 70
0
 71
3
 72
23
 73
19
 74
0
 42
0.0000001
 43
0.0000001
 44
0.0000000001
 40
0.0
 40
0.0
 40
0.0
 40
0.0
 40
0.0671573243
 40
0.1372182311
 40
0.2093598085
 40
0.2827793344
 40
0.3565809251
 40
0.4298596262
 40
0.5017343208
 40
0.5713736698
 40
0.6380394364
 40
0.7011228031
 40
0.760190534
 40
0.8150458506
 40
0.8657880072
 40
0.9128788976
 40
0.9571948291
 40
1.0
 40
1.0
 40
1.0
 40
1.0
 10
37.6855413559
 20
70.2500986741
 30
0.0
 10
37.8413910399
 20
70.3116527279
 30
0.0
 10
38.1663799945
 20
70.4212856927
 30
0.0
 10
38.6749050593
 20
70.5434033479
 30
0.0
 10
39.2073151488
 20
70.6248946594
 30
0.0
 10
39.7537908663
 20
70.6643301515
 30
0.0
 10
40.3045110543
 20
70.6609915334
 30
0.0
 10
40.8494554589
 20
70.6149477681
 30
0.0
 10
41.3787369517
 20
70.5270203483
 30
0.0
 10
41.8827734274
 20
70.3987840472
 30
0.0
 10
42.3524788759
 20
70.2325658155
 30
0.0
 10
42.7794166979
 20
70.0312828863
 30
0.0
 10
43.1559362847
 20
69.7983805641
 30
0.0
 10
43.4753131217
 20
69.5377731861
 30
0.0
 10
43.7316820276
 20
69.2536520161
 30
0.0
 10
43.9198426098
 20
68.9503774687
 30
0.0
 10
44.0352175934
 20
68.6332993643
 30
0.0
 10
44.061373378
 20
68.4151248622
 30
0.0
 10
44.0613662701
 20
68.308321203
 30
0.0
  0
SPLINE
  5
2DD
100
AcDbEntity
  8
0
100
AcDbSpline
 62
7
  6
BYLAYER
 70
0
 71
3
 72
11
 73
7
 74
0
 42
0.0000001
 43
0.0000001
 44
0.0000000001
 40
0.0
 40
0.0
 40
0.0
 40
0.0
 40
0.2151481215
 40
0.4100797421
 40
0.6188367577
 40
1.0
 40
1.0
 40
1.0
 40
1.0
 10
36.6230450124
 20
69.6366647364
 30
0.0
 10
36.6230480617
 20
69.6684688341
 30
0.0
 10
36.6112698575
 20
69.7292320363
 30
0.0
 10
36.5716337549
 20
69.8123709623
 30
0.0
 10
36.5010348061
 20
69.9049758829
 30
0.0
 10
36.4278480481
 20
69.9587427093
 30
0.0
 10
36.3754417776
 20
69.9794395373
 30
0.0
  0
SPLINE
  5
2DE
100
AcDbEntity
  8
0
100
AcDbSpline
 62
7
  6
BYLAYER
 70
0
 71
3
 72
15
 73
11
 74
0
 42
0.0000001
 43
0.0000001
 44
0.0000000001
 40
0.0
 40
0.0
 40
0.0
 40
0.0
 40
0.1167965189
 40
0.2404043522
 40
0.3688596206
 40
0.4998375231
 40
0.6308363397
 40
0.7593749278
 40
0.8831093545
 40
1.0
 40
1.0
 40
1.0
 40
1.0
 10
38.6496012411
 20
66.2409270006
 30
0.0
 10
38.7463131014
 20
66.2861025933
 30
0.0
 10
38.9518563159
 20
66.3656053448
 30
0.0
 10
39.2788039159
 20
66.4502757057
 30
0.0
 10
39.6256226549
 20
66.5021879293
 30
0.0
 10
39.9825707132
 20
66.5199296216
 30
0.0
 10
40.3396329471
 20
66.5029460823
 30
0.0
 10
40.6867659917
 20
66.451704298
 30
0.0
 10
41.0141634042
 20
66.3676960204
 30
0.0
 10
41.2201276483
 20
66.2887308666
 30
0.0
 10
41.3170416684
 20
66.2437857542
 30
0.0
  0
SPLINE
  5
2DF
100
AcDbEntity
  8
0
100
AcDbSpline
 62
7
  6
BYLAYER
 70
0
 71
3
 72
11
 73
7
 74
0
 42
0.0000001
 43
0.0000001
 44
0.0000000001
 40
0.0
 40
0.0
 40
0.0
 40
0.0
 40
0.356829118
 40
0.6434180011
 40
0.855747271
 40
1.0
 40
1.0
 40
1.0
 40
1.0
 10
63.1766090571
 20
49.0373893625
 30
0.0
 10
63.194134684
 20
49.0360080403
 30
0.0
 10
63.225834685
 20
49.0346982835
 30
0.0
 10
63.2681019135
 20
49.0376296454
 30
0.0
 10
63.2989553884
 20
49.044607184
 30
0.0
 10
63.3149504894
 20
49.0540128832
 30
0.0
 10
63.319138814
 20
49.059754521
 30
0.0
  0
SPLINE
  5
2E0
100
AcDbEntity
  8
0
100
AcDbSpline
 62
7
  6
BYLAYER
 70
0
 71
3
 72
9
 73
5
 74
0
 42
0.0000001
 43
0.0000001
 44
0.0000000001
 40
0.0
 40
0.0
 40
0.0
 40
0.0
 40
0.2595500292
 40
1.0
 40
1.0
 40
1.0
 40
1.0
 10
63.319138814
 20
49.059754521
 30
0.0
 10
63.3197710835
 20
49.0606212787
 30
0.0
 10
63.3219879101
 20
49.0641158221
 30
0.0
 10
63.3230502159
 20
49.0683370696
 30
0.0
 10
63.323048515
 20
49.0713977542
 30
0.0
  0
SPLINE
  5
2E1
100
AcDbEntity
  8
0
100
AcDbSpline
 62
7
  6
BYLAYER
 70
0
 71
3
 72
9
 73
5
 74
0
 42
0.0000001
 43
0.0000001
 44
0.0000000001
 40
0.0
 40
0.0
 40
0.0
 40
0.0
 40
0.2560413026
 40
1.0
 40
1.0
 40
1.0
 40
1.0
 10
37.6855455524
 20
70.2501202601
 30
0.0
 10
37.6342095984
 20
70.2298389271
 30
0.0
 10
37.4355295601
 20
70.1460278438
 30
0.0
 10
37.243783093
 20
70.0463264543
 30
0.0
 10
37.1048967746
 20
69.9661214141
 30
0.0
  0
SPLINE
  5
2E2
100
AcDbEntity
  8
0
100
AcDbSpline
 62
7
  6
BYLAYER
 70
0
 71
3
 72
9
 73
5
 74
0
 42
0.0000001
 43
0.0000001
 44
0.0000000001
 40
0.0
 40
0.0
 40
0.0
 40
0.0
 40
0.5160855328
 40
1.0
 40
1.0
 40
1.0
 40
1.0
 10
37.5161553355
 20
70.6380023321
 30
0.0
 10
37.396697798
 20
70.6031352103
 30
0.0
 10
37.1699225711
 20
70.5190184658
 30
0.0
 10
36.954038936
 20
70.4104958846
 30
0.0
 10
36.8529878322
 20
70.3521520753
 30
0.0
  0
SPLINE
  5
2E3
100
AcDbEntity
  8
0
100
AcDbSpline
 62
7
  6
BYLAYER
 70
0
 71
3
 72
14
 73
10
 74
0
 42
0.0000001
 43
0.0000001
 44
0.0000000001
 40
0.0
 40
0.0
 40
0.0
 40
0.0
 40
0.2250106395
 40
0.3591140282
 40
0.5004683694
 40
0.6420570142
 40
0.7763961748
 40
0.8967884336
 40
1.0
 40
1.0
 40
1.0
 40
1.0
 10
37.6855549588
 20
70.2500988438
 30
0.0
 10
37.6855550831
 20
70.2826402068
 30
0.0
 10
37.678762787
 20
70.3346459648
 30
0.0
 10
37.6598023759
 20
70.4045275258
 30
0.0
 10
37.6387662991
 20
70.4611695608
 30
0.0
 10
37.612297706
 20
70.5154995052
 30
0.0
 10
37.5823625765
 20
70.5645037694
 30
0.0
 10
37.5505120765
 20
70.6054479849
 30
0.0
 10
37.5275583291
 20
70.6284068683
 30
0.0
 10
37.5161509748
 20
70.6380336965
 30
0.0
  0
SPLINE
  5
2E4
100
AcDbEntity
  8
0
100
AcDbSpline
 62
7
  6
BYLAYER
 70
0
 71
3
 72
9
 73
5
 74
0
 42
0.0000001
 43
0.0000001
 44
0.0000000001
 40
0.0
 40
0.0
 40
0.0
 40
0.0
 40
0.5142204107
 40
1.0
 40
1.0
 40
1.0
 40
1.0
 10
37.1048986693
 20
69.9661490091
 30
0.0
 10
37.018160107
 20
69.9160861463
 30
0.0
 10
36.8520832875
 20
69.8140614618
 30
0.0
 10
36.6953556638
 20
69.6977155139
 30
0.0
 10
36.6230477673
 20
69.6367020566
 30
0.0
  0
SPLINE
  5
2E5
100
AcDbEntity
  8
0
100
AcDbSpline
 62
7
  6
BYLAYER
 70
0
 71
3
 72
11
 73
7
 74
0
 42
0.0000001
 43
0.0000001
 44
0.0000000001
 40
0.0
 40
0.0
 40
0.0
 40
0.0
 40
0.3367643069
 40
0.6092266745
 40
0.8222215032
 40
1.0
 40
1.0
 40
1.0
 40
1.0
 10
30.6183722247
 20
30.4772688332
 30
0.0
 10
30.6171974496
 20
30.4697721775
 30
0.0
 10
30.6144058288
 20
30.4562800028
 30
0.0
 10
30.6078111947
 20
30.4388759769
 30
0.0
 10
30.598909399
 20
30.4264424991
 30
0.0
 10
30.5905930018
 20
30.4223277937
 30
0.0
 10
30.5866501751
 20
30.4216203214
 30
0.0
  0
SPLINE
  5
2E6
100
AcDbEntity
  8
0
100
AcDbSpline
 62
7
  6
BYLAYER
 70
0
 71
3
 72
13
 73
9
 74
0
 42
0.0000001
 43
0.0000001
 44
0.0000000001
 40
0.0
 40
0.0
 40
0.0
 40
0.0
 40
0.2963225354
 40
0.5628357395
 40
0.6825121611
 40
0.7936552183
 40
0.8982777218
 40
1.0
 40
1.0
 40
1.0
 40
1.0
 10
32.083326298
 20
31.0969612944
 30
0.0
 10
32.0861614034
 20
31.0679146442
 30
0.0
 10
32.0878994404
 20
31.0123149874
 30
0.0
 10
32.0773238553
 20
30.9451327797
 30
0.0
 10
32.0585867682
 20
30.8996301652
 30
0.0
 10
32.0405711492
 20
30.8716790555
 30
0.0
 10
32.0181648236
 20
30.849459216
 30
0.0
 10
32.0003148035
 20
30.8391802665
 30
0.0
 10
31.9910600672
 20
30.8353433542
 30
0.0
  0
SPLINE
  5
2E7
100
AcDbEntity
  8
0
100
AcDbSpline
 62
7
  6
BYLAYER
 70
0
 71
3
 72
9
 73
5
 74
0
 42
0.0000001
 43
0.0000001
 44
0.0000000001
 40
0.0
 40
0.0
 40
0.0
 40
0.0
 40
0.2525561289
 40
1.0
 40
1.0
 40
1.0
 40
1.0
 10
32.0833377584
 20
31.0969665354
 30
0.0
 10
32.1144634348
 20
31.1109474371
 30
0.0
 10
32.2369650104
 20
31.1679535593
 30
0.0
 10
32.3567068461
 20
31.2307858607
 30
0.0
 10
32.4448490606
 20
31.2800657824
 30
0.0
  0
SPLINE
  5
2E8
100
AcDbEntity
  8
0
100
AcDbSpline
 62
7
  6
BYLAYER
 70
0
 71
3
 72
10
 73
6
 74
0
 42
0.0000001
 43
0.0000001
 44
0.0000000001
 40
0.0
 40
0.0
 40
0.0
 40
0.0
 40
0.5595947484
 40
0.8072978504
 40
1.0
 40
1.0
 40
1.0
 40
1.0
 10
32.4448490606
 20
31.2800657824
 30
0.0
 10
32.5345341434
 20
31.330208315
 30
0.0
 10
32.6619029691
 20
31.4061682625
 30
0.0
 10
32.8172970529
 20
31.5039732157
 30
0.0
 10
32.8854756429
 20
31.5474613661
 30
0.0
 10
32.9154766277
 20
31.5662207119
 30
0.0
  0
SPLINE
  5
2E9
100
AcDbEntity
  8
0
100
AcDbSpline
 62
7
  6
BYLAYER
 70
0
 71
3
 72
9
 73
5
 74
0
 42
0.0000001
 43
0.0000001
 44
0.0000000001
 40
0.0
 40
0.0
 40
0.0
 40
0.0
 40
0.2529904325
 40
1.0
 40
1.0
 40
1.0
 40
1.0
 10
31.4484624058
 20
30.8487095305
 30
0.0
 10
31.5029425918
 20
30.8671129549
 30
0.0
 10
31.7174385908
 20
30.9423348701
 30
0.0
 10
31.9284501948
 20
31.0275760737
 30
0.0
 10
32.0833185207
 20
31.0971899446
 30
0.0
  0
SPLINE
  5
2EA
100
AcDbEntity
  8
0
100
AcDbSpline
 62
7
  6
BYLAYER
 70
0
 71
3
 72
9
 73
5
 74
0
 42
0.0000001
 43
0.0000001
 44
0.0000000001
 40
0.0
 40
0.0
 40
0.0
 40
0.0
 40
0.2436538829
 40
1.0
 40
1.0
 40
1.0
 40
1.0
 10
8.9009881476
 20
41.0325269009
 30
0.0
 10
8.9097590016
 20
41.0255883242
 30
0.0
 10
8.9463590368
 20
40.9978744521
 30
0.0
 10
8.9851322733
 20
40.9730901428
 30
0.0
 10
9.0151972874
 20
40.9557327319
 30
0.0
  0
SPLINE
  5
2EB
100
AcDbEntity
  8
0
100
AcDbSpline
 62
7
  6
BYLAYER
 70
0
 71
3
 72
10
 73
6
 74
0
 42
0.0000001
 43
0.0000001
 44
0.0000000001
 40
0.0
 40
0.0
 40
0.0
 40
0.0
 40
0.2686736669
 40
0.5237653792
 40
1.0
 40
1.0
 40
1.0
 40
1.0
 10
36.8529878322
 20
70.3521520753
 30
0.0
 10
36.8058343462
 20
70.3249291994
 30
0.0
 10
36.7153383995
 20
70.2692631731
 30
0.0
 10
36.5499878408
 20
70.1520846542
 30
0.0
 10
36.4390162757
 20
70.0520198061
 30
0.0
 10
36.3754366321
 20
69.9794120129
 30
0.0
  0
SPLINE
  5
2EC
100
AcDbEntity
  8
0
100
AcDbSpline
 62
7
  6
BYLAYER
 70
0
 71
3
 72
14
 73
10
 74
0
 42
0.0000001
 43
0.0000001
 44
0.0000000001
 40
0.0
 40
0.0
 40
0.0
 40
0.0
 40
0.2299691756
 40
0.368102045
 40
0.5126757345
 40
0.6550998696
 40
0.7873655809
 40
0.9028138855
 40
1.0
 40
1.0
 40
1.0
 40
1.0
 10
37.1048991463
 20
69.9661084324
 30
0.0
 10
37.104901787
 20
70.0032246241
 30
0.0
 10
37.0937228614
 20
70.062796133
 30
0.0
 10
37.0629811271
 20
70.1396923241
 30
0.0
 10
37.0295379601
 20
70.1998899038
 30
0.0
 10
36.9885561559
 20
70.2539883481
 30
0.0
 10
36.9440102962
 20
70.2988198554
 30
0.0
 10
36.8988097641
 20
70.3317163397
 30
0.0
 10
36.8677578407
 20
70.3468994785
 30
0.0
 10
36.8529849721
 20
70.3521717502
 30
0.0
  0
SPLINE
  5
2ED
100
AcDbEntity
  8
0
100
AcDbSpline
 62
7
  6
BYLAYER
 70
0
 71
3
 72
9
 73
5
 74
0
 42
0.0000001
 43
0.0000001
 44
0.0000000001
 40
0.0
 40
0.0
 40
0.0
 40
0.0
 40
0.5170570178
 40
1.0
 40
1.0
 40
1.0
 40
1.0
 10
31.5503834479
 20
31.251829891
 30
0.0
 10
31.7958228239
 20
31.3201121463
 30
0.0
 10
32.2638846294
 20
31.4777638038
 30
0.0
 10
32.7094037044
 20
31.6921958748
 30
0.0
 10
32.9154766282
 20
31.8111714226
 30
0.0
  0
SPLINE
  5
2EE
100
AcDbEntity
  8
0
100
AcDbSpline
 62
7
  6
BYLAYER
 70
0
 71
3
 72
9
 73
5
 74
0
 42
0.0000001
 43
0.0000001
 44
0.0000000001
 40
0.0
 40
0.0
 40
0.0
 40
0.0
 40
0.2682933082
 40
1.0
 40
1.0
 40
1.0
 40
1.0
 10
42.6367644169
 20
73.5943696874
 30
0.0
 10
42.6166089422
 20
73.6032745003
 30
0.0
 10
42.5400499068
 20
73.6328422066
 30
0.0
 10
42.4568485437
 20
73.6473989201
 30
0.0
 10
42.3967988116
 20
73.6450638187
 30
0.0
  0
SPLINE
  5
2EF
100
AcDbEntity
  8
0
100
AcDbSpline
 62
7
  6
BYLAYER
 70
0
 71
3
 72
9
 73
5
 74
0
 42
0.0000001
 43
0.0000001
 44
0.0000000001
 40
0.0
 40
0.0
 40
0.0
 40
0.0
 40
0.2560672378
 40
1.0
 40
1.0
 40
1.0
 40
1.0
 10
42.3967988116
 20
73.6450638187
 30
0.0
 10
42.389931728
 20
73.6447967844
 30
0.0
 10
42.3631474916
 20
73.643088654
 30
0.0
 10
42.3365144007
 20
73.6386117422
 30
0.0
 10
42.3172013673
 20
73.6335493531
 30
0.0
  0
SPLINE
  5
2F0
100
AcDbEntity
  8
0
100
AcDbSpline
 62
7
  6
BYLAYER
 70
0
 71
3
 72
14
 73
10
 74
0
 42
0.0000001
 43
0.0000001
 44
0.0000000001
 40
0.0
 40
0.0
 40
0.0
 40
0.0
 40
0.1051858665
 40
0.205164853
 40
0.30701901
 40
0.4169910875
 40
0.5394926853
 40
0.6769700762
 40
1.0
 40
1.0
 40
1.0
 40
1.0
 10
63.1602650573
 20
48.7913896293
 30
0.0
 10
63.1684592959
 20
48.7961853947
 30
0.0
 10
63.1834878924
 20
48.8074085834
 30
0.0
 10
63.2005685786
 20
48.8296778424
 30
0.0
 10
63.2110445981
 20
48.8561541095
 30
0.0
 10
63.2151130392
 20
48.8862900164
 30
0.0
 10
63.213293938
 20
48.9197810067
 30
0.0
 10
63.2030423446
 20
48.9715182528
 30
0.0
 10
63.1883177028
 20
49.0106862892
 30
0.0
 10
63.1766101576
 20
49.0373905115
 30
0.0
  0
SPLINE
  5
2F1
100
AcDbEntity
  8
0
100
AcDbSpline
 62
7
  6
BYLAYER
 70
0
 71
3
 72
23
 73
19
 74
0
 42
0.0000001
 43
0.0000001
 44
0.0000000001
 40
0.0
 40
0.0
 40
0.0
 40
0.0
 40
0.0624363678
 40
0.1288663772
 40
0.1985341933
 40
0.2705956163
 40
0.344051624
 40
0.4178494174
 40
0.4909227601
 40
0.5622358213
 40
0.6308326183
 40
0.695891613
 40
0.7567850184
 40
0.813147762
 40
0.8649628694
 40
0.9126593975
 40
0.9571860335
 40
1.0
 40
1.0
 40
1.0
 40
1.0
 10
51.247090175
 20
61.8070871872
 30
0.0
 10
51.3938395301
 20
61.8918124612
 30
0.0
 10
51.7084486885
 20
62.0468385048
 30
0.0
 10
52.2159431226
 20
62.2305432846
 30
0.0
 10
52.7644480188
 20
62.3694171526
 30
0.0
 10
53.3420691633
 20
62.4605847285
 30
0.0
 10
53.936572977
 20
62.502044203
 30
0.0
 10
54.5351842456
 20
62.492940626
 30
0.0
 10
55.1250815001
 20
62.4334797275
 30
0.0
 10
55.6936363084
 20
62.3249191492
 30
0.0
 10
56.2287054637
 20
62.1695452773
 30
0.0
 10
56.7189297899
 20
61.970632612
 30
0.0
 10
57.1539705129
 20
61.7322635863
 30
0.0
 10
57.5246716557
 20
61.4591287951
 30
0.0
 10
57.8230738185
 20
61.1563599562
 30
0.0
 10
58.0422411419
 20
60.829345435
 30
0.0
 10
58.1758946044
 20
60.4846132079
 30
0.0
 10
58.2046476809
 20
60.2462490434
 30
0.0
 10
58.2034958835
 20
60.1300583299
 30
0.0
  0
SPLINE
  5
2F2
100
AcDbEntity
  8
0
100
AcDbSpline
 62
7
  6
BYLAYER
 70
0
 71
3
 72
15
 73
11
 74
0
 42
0.0000001
 43
0.0000001
 44
0.0000000001
 40
0.0
 40
0.0
 40
0.0
 40
0.0
 40
0.1130559905
 40
0.2424415845
 40
0.3837019731
 40
0.5290152409
 40
0.6699720431
 40
0.7989787438
 40
0.9097056563
 40
1.0
 40
1.0
 40
1.0
 40
1.0
 10
30.6163454027
 20
42.9231729893
 30
0.0
 10
30.6190584244
 20
42.9478577406
 30
0.0
 10
30.6224661605
 20
43.0010670234
 30
0.0
 10
30.6217841633
 20
43.0854119243
 30
0.0
 10
30.6146696427
 20
43.1765709621
 30
0.0
 10
30.6014032175
 20
43.269611546
 30
0.0
 10
30.5821016756
 20
43.3588408086
 30
0.0
 10
30.5585895982
 20
43.439185481
 30
0.0
 10
30.532137932
 20
43.5067791341
 30
0.0
 10
30.5118078345
 20
43.5461277856
 30
0.0
 10
30.5013567581
 20
43.5629845168
 30
0.0
  0
SPLINE
  5
2F3
100
AcDbEntity
  8
0
100
AcDbSpline
 62
7
  6
BYLAYER
 70
0
 71
3
 72
15
 73
11
 74
0
 42
0.0000001
 43
0.0000001
 44
0.0000000001
 40
0.0
 40
0.0
 40
0.0
 40
0.0
 40
0.1102953126
 40
0.2351085026
 40
0.371224651
 40
0.5123158513
 40
0.6514944414
 40
0.7822779072
 40
0.8991238718
 40
1.0
 40
1.0
 40
1.0
 40
1.0
 10
32.0835096751
 20
43.1820933873
 30
0.0
 10
32.0864271556
 20
43.214169949
 30
0.0
 10
32.0875802301
 20
43.2830480265
 30
0.0
 10
32.0761138707
 20
43.3910970877
 30
0.0
 10
32.0498299716
 20
43.5057812464
 30
0.0
 10
32.0098895727
 20
43.620907917
 30
0.0
 10
31.9572853033
 20
43.729105554
 30
0.0
 10
31.8964473827
 20
43.8246282538
 30
0.0
 10
31.8307163804
 20
43.9027150103
 30
0.0
 10
31.783026459
 20
43.9452266047
 30
0.0
 10
31.7593493657
 20
43.9627533986
 30
0.0
  0
SPLINE
  5
2F4
100
AcDbEntity
  8
0
100
AcDbSpline
 62
7
  6
BYLAYER
 70
0
 71
3
 72
17
 73
13
 74
0
 42
0.0000001
 43
0.0000001
 44
0.0000000001
 40
0.0
 40
0.0
 40
0.0
 40
0.0
 40
0.0493309898
 40
0.1014158337
 40
0.1561709622
 40
0.2134063181
 40
0.3339500281
 40
0.4607991483
 40
0.5920208028
 40
0.7262443879
 40
0.8624945765
 40
1.0
 40
1.0
 40
1.0
 40
1.0
 10
32.9154892586
 20
43.4871631112
 30
0.0
 10
32.9090277552
 20
43.5079410153
 30
0.0
 10
32.8917565628
 20
43.5495225141
 30
0.0
 10
32.8542851326
 20
43.6076840855
 30
0.0
 10
32.8063031812
 20
43.6621663126
 30
0.0
 10
32.7293253078
 20
43.7302673153
 30
0.0
 10
32.6150780402
 20
43.8026029482
 30
0.0
 10
32.4613899075
 20
43.869144606
 30
0.0
 10
32.294956129
 20
43.9178547912
 30
0.0
 10
32.1203646824
 20
43.9496654219
 30
0.0
 10
31.940866791
 20
43.9653506502
 30
0.0
 10
31.8199361984
 20
43.9654027957
 30
0.0
 10
31.7593415612
 20
43.9627585873
 30
0.0
  0
SPLINE
  5
2F5
100
AcDbEntity
  8
0
100
AcDbSpline
 62
7
  6
BYLAYER
 70
0
 71
3
 72
9
 73
5
 74
0
 42
0.0000001
 43
0.0000001
 44
0.0000000001
 40
0.0
 40
0.0
 40
0.0
 40
0.0
 40
0.4894538455
 40
1.0
 40
1.0
 40
1.0
 40
1.0
 10
32.0834894436
 20
43.1818491301
 30
0.0
 10
31.8499055007
 20
43.1134770486
 30
0.0
 10
31.3639059951
 20
43.0028524987
 30
0.0
 10
30.86949399
 20
42.9423706102
 30
0.0
 10
30.6163470251
 20
42.9231816426
 30
0.0
  0
SPLINE
  5
2F6
100
AcDbEntity
  8
0
100
AcDbSpline
 62
7
  6
BYLAYER
 70
0
 71
3
 72
12
 73
8
 74
0
 42
0.0000001
 43
0.0000001
 44
0.0000000001
 40
0.0
 40
0.0
 40
0.0
 40
0.0
 40
0.0881250644
 40
0.1986086023
 40
0.4484263211
 40
0.7179346647
 40
1.0
 40
1.0
 40
1.0
 40
1.0
 10
32.9154829522
 20
43.4871593249
 30
0.0
 10
32.8924430676
 20
43.4749622356
 30
0.0
 10
32.8397996381
 20
43.4488277753
 30
0.0
 10
32.718812857
 20
43.3943664304
 30
0.0
 10
32.5449744822
 20
43.3269791918
 30
0.0
 10
32.3199530197
 20
43.252205884
 30
0.0
 10
32.1635823106
 20
43.2055564468
 30
0.0
 10
32.0835090015
 20
43.1820907689
 30
0.0
  0
SPLINE
  5
2F7
100
AcDbEntity
  8
0
100
AcDbSpline
 62
7
  6
BYLAYER
 70
0
 71
3
 72
9
 73
5
 74
0
 42
0.0000001
 43
0.0000001
 44
0.0000000001
 40
0.0
 40
0.0
 40
0.0
 40
0.0
 40
0.4837832597
 40
1.0
 40
1.0
 40
1.0
 40
1.0
 10
63.3230512297
 20
61.3326243389
 30
0.0
 10
63.3230559831
 20
61.2668708858
 30
0.0
 10
63.2932094968
 20
61.1303529609
 30
0.0
 10
63.2207974455
 20
61.0128227619
 30
0.0
 10
63.1766090571
 20
60.9583246526
 30
0.0
  0
SPLINE
  5
2F8
100
AcDbEntity
  8
0
100
AcDbSpline
 62
7
  6
BYLAYER
 70
0
 71
3
 72
14
 73
10
 74
0
 42
0.0000001
 43
0.0000001
 44
0.0000000001
 40
0.0
 40
0.0
 40
0.0
 40
0.0
 40
0.0543745244
 40
0.1245704834
 40
0.2185014932
 40
0.3370566049
 40
0.4781426608
 40
0.6386598751
 40
1.0
 40
1.0
 40
1.0
 40
1.0
 10
63.2645012875
 20
61.6086232153
 30
0.0
 10
63.2633600922
 20
61.6110248948
 30
0.0
 10
63.258826386
 20
61.6156124592
 30
0.0
 10
63.2485427074
 20
61.6191327384
 30
0.0
 10
63.2347228469
 20
61.6204509369
 30
0.0
 10
63.2174121277
 20
61.6197047136
 30
0.0
 10
63.1970289098
 20
61.6169713745
 30
0.0
 10
63.1652448965
 20
61.6105031994
 30
0.0
 10
63.1406456812
 20
61.6035734171
 30
0.0
 10
63.1237846385
 20
61.5982873406
 30
0.0
  0
SPLINE
  5
2F9
100
AcDbEntity
  8
0
100
AcDbSpline
 62
7
  6
BYLAYER
 70
0
 71
3
 72
11
 73
7
 74
0
 42
0.0000001
 43
0.0000001
 44
0.0000000001
 40
0.0
 40
0.0
 40
0.0
 40
0.0
 40
0.23529278
 40
0.4816145288
 40
0.7384721495
 40
1.0
 40
1.0
 40
1.0
 40
1.0
 10
63.063431899
 20
61.8942248415
 30
0.0
 10
63.0510505851
 20
61.9056289827
 30
0.0
 10
63.0212068254
 20
61.9244444028
 30
0.0
 10
62.9690308745
 20
61.9367402038
 30
0.0
 10
62.9138327162
 20
61.9345217432
 30
0.0
 10
62.8777101114
 20
61.9250121461
 30
0.0
 10
62.8601027554
 20
61.9186842523
 30
0.0
  0
SPLINE
  5
2FA
100
AcDbEntity
  8
0
100
AcDbSpline
 62
7
  6
BYLAYER
 70
0
 71
3
 72
12
 73
8
 74
0
 42
0.0000001
 43
0.0000001
 44
0.0000000001
 40
0.0
 40
0.0
 40
0.0
 40
0.0
 40
0.1219511148
 40
0.2442127487
 40
0.491306555
 40
0.7433468977
 40
1.0
 40
1.0
 40
1.0
 40
1.0
 10
32.9154766282
 20
31.5662206975
 30
0.0
 10
32.9099095382
 20
31.5418970016
 30
0.0
 10
32.8955268402
 20
31.4938462553
 30
0.0
 10
32.853518727
 20
31.4022197493
 30
0.0
 10
32.7787106602
 20
31.2978588154
 30
0.0
 10
32.6646438048
 20
31.1923408659
 30
0.0
 10
32.5776569014
 20
31.1344316001
 30
0.0
 10
32.5321777258
 20
31.1081752879
 30
0.0
  0
SPLINE
  5
2FB
100
AcDbEntity
  8
0
100
AcDbSpline
 62
7
  6
BYLAYER
 70
0
 71
3
 72
9
 73
5
 74
0
 42
0.0000001
 43
0.0000001
 44
0.0000000001
 40
0.0
 40
0.0
 40
0.0
 40
0.0
 40
0.2536499531
 40
1.0
 40
1.0
 40
1.0
 40
1.0
 10
57.0754836496
 20
62.7884167524
 30
0.0
 10
56.7330696241
 20
62.9391246873
 30
0.0
 10
55.3873872065
 20
63.5429069763
 30
0.0
 10
54.0591532841
 20
64.1857157821
 30
0.0
 10
53.079861211
 20
64.6884654211
 30
0.0
  0
SPLINE
  5
2FC
100
AcDbEntity
  8
0
100
AcDbSpline
 62
7
  6
BYLAYER
 70
0
 71
3
 72
12
 73
8
 74
0
 42
0.0000001
 43
0.0000001
 44
0.0000000001
 40
0.0
 40
0.0
 40
0.0
 40
0.0
 40
0.1091085833
 40
0.2216925664
 40
0.4626534996
 40
0.7253985537
 40
1.0
 40
1.0
 40
1.0
 40
1.0
 10
57.0722481364
 20
58.6114632931
 30
0.0
 10
57.0787028701
 20
58.6152310292
 30
0.0
 10
57.0927653145
 20
58.6213866044
 30
0.0
 10
57.1241334752
 20
58.6272050887
 30
0.0
 10
57.167013359
 20
58.6226430458
 30
0.0
 10
57.2166148124
 20
58.6018404894
 30
0.0
 10
57.2472398631
 20
58.5810437173
 30
0.0
 10
57.2619440804
 20
58.5693130942
 30
0.0
  0
SPLINE
  5
2FD
100
AcDbEntity
  8
0
100
AcDbSpline
 62
7
  6
BYLAYER
 70
0
 71
3
 72
14
 73
10
 74
0
 42
0.0000001
 43
0.0000001
 44
0.0000000001
 40
0.0
 40
0.0
 40
0.0
 40
0.0
 40
0.1090063483
 40
0.2199054668
 40
0.3344358258
 40
0.454032549
 40
0.5798193307
 40
0.7125948171
 40
1.0
 40
1.0
 40
1.0
 40
1.0
 10
50.0535650488
 20
60.1435061125
 30
0.0
 10
50.0535709808
 20
60.2174472629
 30
0.0
 10
50.0658691264
 20
60.3668874182
 30
0.0
 10
50.1207392804
 20
60.5879288451
 30
0.0
 10
50.211476281
 20
60.8045960947
 30
0.0
 10
50.3368796526
 20
61.0149131757
 30
0.0
 10
50.4958113239
 20
61.2170943499
 30
0.0
 10
50.7570859041
 20
61.4804179299
 30
0.0
 10
50.9890309073
 20
61.6499031957
 30
0.0
 10
51.1550081225
 20
61.7521679323
 30
0.0
  0
SPLINE
  5
2FE
100
AcDbEntity
  8
0
100
AcDbSpline
 62
7
  6
BYLAYER
 70
0
 71
3
 72
9
 73
5
 74
0
 42
0.0000001
 43
0.0000001
 44
0.0000000001
 40
0.0
 40
0.0
 40
0.0
 40
0.0
 40
0.258142346
 40
1.0
 40
1.0
 40
1.0
 40
1.0
 10
56.5987747713
 20
58.3037264336
 30
0.0
 10
56.6390209143
 20
58.3154684629
 30
0.0
 10
56.794497902
 20
58.362276508
 30
0.0
 10
56.9478875719
 20
58.4170725714
 30
0.0
 10
57.0579960945
 20
58.4659826547
 30
0.0
  0
SPLINE
  5
2FF
100
AcDbEntity
  8
0
100
AcDbSpline
 62
7
  6
BYLAYER
 70
0
 71
3
 72
15
 73
11
 74
0
 42
0.0000001
 43
0.0000001
 44
0.0000000001
 40
0.0
 40
0.0
 40
0.0
 40
0.0
 40
0.1141300247
 40
0.2372866161
 40
0.3669313293
 40
0.4999583186
 40
0.6329894636
 40
0.7626521155
 40
0.8858368675
 40
1.0
 40
1.0
 40
1.0
 40
1.0
 10
42.8695081402
 20
66.9498732395
 30
0.0
 10
42.6722851557
 20
67.0638717133
 30
0.0
 10
42.2409561621
 20
67.2649460127
 30
0.0
 10
41.538462715
 20
67.4787044626
 30
0.0
 10
40.7778040981
 20
67.6103400123
 30
0.0
 10
39.987575179
 20
67.6548439255
 30
0.0
 10
39.1972955795
 20
67.6106091651
 30
0.0
 10
38.4364909521
 20
67.4792324258
 30
0.0
 10
37.7337629432
 20
67.2657046249
 30
0.0
 10
37.3022332455
 20
67.0647755553
 30
0.0
 10
37.1048956721
 20
66.9508433343
 30
0.0
  0
SPLINE
  5
300
100
AcDbEntity
  8
0
100
AcDbSpline
 62
7
  6
BYLAYER
 70
0
 71
3
 72
9
 73
5
 74
0
 42
0.0000001
 43
0.0000001
 44
0.0000000001
 40
0.0
 40
0.0
 40
0.0
 40
0.0
 40
0.2603236985
 40
1.0
 40
1.0
 40
1.0
 40
1.0
 10
63.1237852883
 20
61.5982859435
 30
0.0
 10
63.1124536369
 20
61.6186785703
 30
0.0
 10
63.0669332534
 20
61.6958650197
 30
0.0
 10
63.0134567663
 20
61.7685606475
 30
0.0
 10
62.968993904
 20
61.8177248886
 30
0.0
  0
SPLINE
  5
301
100
AcDbEntity
  8
0
100
AcDbSpline
 62
7
  6
BYLAYER
 70
0
 71
3
 72
9
 73
5
 74
0
 42
0.0000001
 43
0.0000001
 44
0.0000000001
 40
0.0
 40
0.0
 40
0.0
 40
0.0
 40
0.2631174221
 40
1.0
 40
1.0
 40
1.0
 40
1.0
 10
62.968993904
 20
61.8177248886
 30
0.0
 10
62.9602512165
 20
61.8273920033
 30
0.0
 10
62.9262806376
 20
61.8634400046
 30
0.0
 10
62.8892490991
 20
61.8967077839
 30
0.0
 10
62.8601027208
 20
61.9186842323
 30
0.0
  0
SPLINE
  5
302
100
AcDbEntity
  8
0
100
AcDbSpline
 62
7
  6
BYLAYER
 70
0
 71
3
 72
10
 73
6
 74
0
 42
0.0000001
 43
0.0000001
 44
0.0000000001
 40
0.0
 40
0.0
 40
0.0
 40
0.0
 40
0.4979737014
 40
0.7521525653
 40
1.0
 40
1.0
 40
1.0
 40
1.0
 10
63.1766099475
 20
60.9583245559
 30
0.0
 10
63.2070336971
 20
61.0628683172
 30
0.0
 10
63.2260043359
 20
61.2307817182
 30
0.0
 10
63.1904079881
 20
61.4474291015
 30
0.0
 10
63.1500951811
 20
61.5509098649
 30
0.0
 10
63.123786521
 20
61.5982864584
 30
0.0
  0
SPLINE
  5
303
100
AcDbEntity
  8
0
100
AcDbSpline
 62
7
  6
BYLAYER
 70
0
 71
3
 72
15
 73
11
 74
0
 42
0.0000001
 43
0.0000001
 44
0.0000000001
 40
0.0
 40
0.0
 40
0.0
 40
0.0
 40
0.1215903542
 40
0.246423613
 40
0.3719427946
 40
0.4973555165
 40
0.6226092662
 40
0.7476934403
 40
0.8730365231
 40
1.0
 40
1.0
 40
1.0
 40
1.0
 10
52.9842078922
 20
64.6297716007
 30
0.0
 10
52.8197696025
 20
64.7136214506
 30
0.0
 10
52.4862907598
 20
64.883134896
 30
0.0
 10
51.985280792
 20
65.1435486557
 30
0.0
 10
51.482704604
 20
65.4134453029
 30
0.0
 10
50.9844291862
 20
65.6925242603
 30
0.0
 10
50.4917872055
 20
65.9801247643
 30
0.0
 10
50.0046026237
 20
66.2766683793
 30
0.0
 10
49.5199466696
 20
66.5821984692
 30
0.0
 10
49.1980846123
 20
66.7898276137
 30
0.0
 10
49.036113366
 20
66.8942967228
 30
0.0
  0
LINE
  5
304
100
AcDbEntity
  8
0
100
AcDbLine
 62
7
  6
BYLAYER
 10
49.036113366
 20
66.8942967228
 11
49.0042464775
 21
66.9148474985
  0
LINE
  5
305
100
AcDbEntity
  8
0
100
AcDbLine
 62
7
  6
BYLAYER
 10
49.0042464775
 20
66.9148474985
 11
48.9333813536
 21
66.96050846
  0
SPLINE
  5
306
100
AcDbEntity
  8
0
100
AcDbSpline
 62
7
  6
BYLAYER
 70
0
 71
3
 72
9
 73
5
 74
0
 42
0.0000001
 43
0.0000001
 44
0.0000000001
 40
0.0
 40
0.0
 40
0.0
 40
0.0
 40
0.2461352767
 40
1.0
 40
1.0
 40
1.0
 40
1.0
 10
48.9333813536
 20
66.96050846
 30
0.0
 10
48.9118097721
 20
66.9743956491
 30
0.0
 10
48.824135972
 20
67.030765576
 30
0.0
 10
48.7363805263
 20
67.0870111081
 30
0.0
 10
48.6699710242
 20
67.1290121705
 30
0.0
  0
SPLINE
  5
307
100
AcDbEntity
  8
0
100
AcDbSpline
 62
7
  6
BYLAYER
 70
0
 71
3
 72
9
 73
5
 74
0
 42
0.0000001
 43
0.0000001
 44
0.0000000001
 40
0.0
 40
0.0
 40
0.0
 40
0.0
 40
0.5006725131
 40
1.0
 40
1.0
 40
1.0
 40
1.0
 10
48.2222839548
 20
67.6416408913
 30
0.0
 10
48.2074465066
 20
67.6288805255
 30
0.0
 10
48.1781806804
 20
67.602968483
 30
0.0
 10
48.1488164311
 20
67.5771704711
 30
0.0
 10
48.1342644425
 20
67.5641642606
 30
0.0
  0
SPLINE
  5
308
100
AcDbEntity
  8
0
100
AcDbSpline
 62
7
  6
BYLAYER
 70
0
 71
3
 72
11
 73
7
 74
0
 42
0.0000001
 43
0.0000001
 44
0.0000000001
 40
0.0
 40
0.0
 40
0.0
 40
0.0
 40
0.2338951166
 40
0.4822160091
 40
0.7395851089
 40
1.0
 40
1.0
 40
1.0
 40
1.0
 10
48.6699710242
 20
67.1290121699
 30
0.0
 10
48.6256777245
 20
67.1590901426
 30
0.0
 10
48.5391012985
 20
67.2282002834
 30
0.0
 10
48.4201328939
 20
67.3491341525
 30
0.0
 10
48.3122027626
 20
67.4878559622
 30
0.0
 10
48.2505248719
 20
67.5894047575
 30
0.0
 10
48.2223324662
 20
67.6419277553
 30
0.0
  0
SPLINE
  5
309
100
AcDbEntity
  8
0
100
AcDbSpline
 62
7
  6
BYLAYER
 70
0
 71
3
 72
9
 73
5
 74
0
 42
0.0000001
 43
0.0000001
 44
0.0000000001
 40
0.0
 40
0.0
 40
0.0
 40
0.0
 40
0.4953188277
 40
1.0
 40
1.0
 40
1.0
 40
1.0
 10
48.2222839548
 20
67.6416408913
 30
0.0
 10
48.2344321901
 20
67.6918747476
 30
0.0
 10
48.2657941915
 20
67.7916440133
 30
0.0
 10
48.3049139472
 20
67.8884227158
 30
0.0
 10
48.3257745074
 20
67.9367733583
 30
0.0
  0
SPLINE
  5
30A
100
AcDbEntity
  8
0
100
AcDbSpline
 62
7
  6
BYLAYER
 70
0
 71
3
 72
11
 73
7
 74
0
 42
0.0000001
 43
0.0000001
 44
0.0000000001
 40
0.0
 40
0.0
 40
0.0
 40
0.0
 40
0.236917746
 40
0.4892663957
 40
0.7471048189
 40
1.0
 40
1.0
 40
1.0
 40
1.0
 10
48.9663269941
 20
67.0673095843
 30
0.0
 10
48.8964161989
 20
67.1180162477
 30
0.0
 10
48.761665282
 20
67.2363095175
 30
0.0
 10
48.585320552
 20
67.4449422723
 30
0.0
 10
48.4358341305
 20
67.6804915038
 30
0.0
 10
48.3578759557
 20
67.8503574688
 30
0.0
 10
48.3257577463
 20
67.9367694835
 30
0.0
  0
SPLINE
  5
30B
100
AcDbEntity
  8
0
100
AcDbSpline
 62
7
  6
BYLAYER
 70
0
 71
3
 72
11
 73
7
 74
0
 42
0.0000001
 43
0.0000001
 44
0.0000000001
 40
0.0
 40
0.0
 40
0.0
 40
0.0
 40
0.2503374081
 40
0.5004198208
 40
0.7503704967
 40
1.0
 40
1.0
 40
1.0
 40
1.0
 10
53.0759848816
 20
64.6824940771
 30
0.0
 10
52.7361487966
 20
64.8685805006
 30
0.0
 10
52.058521667
 20
65.2436893647
 30
0.0
 10
51.0498790526
 20
65.8194207859
 30
0.0
 10
50.0501177801
 20
66.40827955
 30
0.0
 10
49.3887568113
 20
66.80886771
 30
0.0
 10
49.0591372052
 20
67.0104113441
 30
0.0
  0
ENDSEC
  0
SECTION
  2
OBJECTS
  0
DICTIONARY
  5
C
100
AcDbDictionary
280
0
281
1
  3
ACAD_GROUP
350
D
  3
ACAD_MLINESTYLE
350
17
  3
ACAD_LAYOUT
350
1A
  3
ACAD_PLOTSETTINGS
350
19
  3
ACAD_PLOTSTYLENAME
350
E
  0
DICTIONARY
  5
D
102
{ACAD_REACTORS
330
C
102
}
100
AcDbDictionary
280
0
281
1
  0
ACDBDICTIONARYWDFLT
  5
E
102
{ACAD_REACTORS
330
C
102
}
100
AcDbDictionary
281
1
  3
Normal
350
F
100
AcDbDictionaryWithDefault
340
F
  0
DICTIONARY
  5
17
102
{ACAD_REACTORS
330
C
102
}
100
AcDbDictionary
280
0
281
1
  3
Standard
350
18
  0
DICTIONARY
  5
19
102
{ACAD_REACTORS
330
C
102
}
100
AcDbDictionary
281
1
  0
DICTIONARY
  5
1A
102
{ACAD_REACTORS
330
C
102
}
100
AcDbDictionary
281
1
  3
Model
350
30C
  3
Layout1
350
30D
  0
ACDBPLACEHOLDER
  5
F
102
{ACAD_REACTORS
330
E
102
}
  0
MLINESTYLE
  5
18
102
{ACAD_REACTORS
330
17
102
}
100
AcDbMlineStyle
  2
STANDARD
 70
0
  3

 62
256
 51
90.0
 52
90.0
 71
2
 49
0.5
 62
256
  6
BYLAYER
 49
-0.5
 62
256
  6
BYLAYER
  0
LAYOUT
  5
30C
102
{ACAD_REACTORS
330
1A
102
}
100
AcDbPlotSettings
  1

  2
none_device
  4

  6

 40
0.0
 41
0.0
 42
0.0
 43
0.0
 44
210.0
 45
297.0
 46
0.0
 47
0.0
 48
0.0
 49
0.0
140
0.0
141
0.0
142
1.0
143
1.0
 70
1024
 72
1
 73
0
 74
0
  7

 75
0
147
1.0
148
0.0
149
0.0
100
AcDbLayout
  1
Model
 70
0
 71
0
 10
0.0
 20
0.0
 11
210.0
 21
297.0
 12
0.0
 22
0.0
 32
0.0
 14
0.0
 24
0.0
 34
0.0
 15
0.0
 25
0.0
 35
0.0
146
0.0
 13
0.0
 23
0.0
 33
0.0
 16
1.0
 26
0.0
 36
0.0
 17
0.0
 27
1.0
 37
0.0
 76
0
330
210
345
0
346
0
  0
LAYOUT
  5
30D
102
{ACAD_REACTORS
330
1A
102
}
100
AcDbPlotSettings
  1

  2
none_device
  4

  6

 40
0.0
 41
0.0
 42
0.0
 43
0.0
 44
210.0
 45
297.0
 46
0.0
 47
0.0
 48
0.0
 49
0.0
140
0.0
141
0.0
142
1.0
143
1.0
 70
0
 72
1
 73
0
 74
0
  7

 75
0
147
1.0
148
0.0
149
0.0
100
AcDbLayout
  1
Layout1
 70
0
 71
1
 10
0.0
 20
0.0
 11
210.0
 21
297.0
 12
0.0
 22
0.0
 32
0.0
 14
0.0
 24
0.0
 34
0.0
 15
0.0
 25
0.0
 35
0.0
146
0.0
 13
0.0
 23
0.0
 33
0.0
 16
1.0
 26
0.0
 36
0.0
 17
0.0
 27
1.0
 37
0.0
 76
0
330
211
345
0
346
0
  0
ENDSEC
  0
EOF
