999
DXF file: C:\Users\sesa63760\Dev\_Creo\CAD\MCADPE0010558_3D-CAD\drw0001_1.dxf
999
Pro/ENGINEER 2019471 by Parametric Technology Corporation
  0
SECTION
  2
HEADER
  9
$ACADVER
  1
AC1024
  9
$DWGCODEPAGE
  3
ANSI_1252
  9
$EXTMAX
 10
52.1636078161
 20
73.7742453399
 30
0.0
  9
$EXTMIN
 10
0.0
 20
0.0
 30
0.0
  9
$LIMMIN
 10
0.0
 20
0.0
  9
$LIMMAX
 10
52.1636078161
 20
73.7742453399
  9
$VIEWCTR
 10
26.0818039081
 20
36.88712267
  9
$VIEWSIZE
 40
73.7742453399
  9
$CLAYER
  8
0
  9
$LTSCALE
 40
4.8089878444
  9
$CELTYPE
  6
BYLAYER
  9
$DIMSCALE
 40
1.0
  9
$DIMASZ
 40
0.6209953311
  9
$DIMEXO
 40
1.0
  9
$DIMDLI
 40
3.3225734198
  9
$DIMEXE
 40
1.0
  9
$DIMCEN
 40
0.7869252836
  9
$DIMLFAC
 40
1.0
  9
$DIMBLK
  1
_FILLED
  9
$DIMALT
 70
0
  9
$DIMALTF
 40
0.0393700787
  9
$DIMTXT
 40
0.8693934636
  9
$DIMTOL
 70
1
  9
$DIMLIM
 70
0
  9
$DIMTFAC
 40
1.0
  9
$DIMTP
 40
0.01
  9
$DIMTM
 40
0.01
  9
$DIMGAP
 40
0.625
  9
$DIMDSEP
 70
46
  9
$AUNITS
 70
0
  9
$PDMODE
 70
3
  9
$PDSIZE
 40
0.3125
  9
$HANDSEED
  5
280
  9
$TILEMODE
 70
1
  9
$MEASUREMENT
 70
1
  9
$INSUNITS
 70
4
  0
ENDSEC
  0
SECTION
  2
CLASSES
  0
CLASS
  1
ACDBDICTIONARYWDFLT
  2
AcDbDictionaryWithDefault
  3
AutoCAD 2000
 90
0
 91
1
280
0
281
0
  0
CLASS
  1
ACDBPLACEHOLDER
  2
AcDbPlaceHolder
  3
AutoCAD 2000
 90
0
 91
1
280
0
281
0
  0
CLASS
  1
LAYOUT
  2
AcDbLayout
  3
AutoCAD 2000
 90
0
 91
0
280
0
281
0
  0
ENDSEC
  0
SECTION
  2
TABLES
  0
TABLE
  2
VPORT
  5
8
100
AcDbSymbolTable
 70
2
  0
VPORT
  5
1F4
100
AcDbSymbolTableRecord
100
AcDbViewportTableRecord
  2
*ACTIVE
 70
0
 10
0.0
 20
0.0
 11
1.0
 21
1.0
 12
26.0818039081
 22
36.88712267
 13
0.0
 23
0.0
 14
1.0
 24
1.0
 15
0.0
 25
0.0
 16
0.0
 26
0.0
 36
1.0
 17
0.0
 27
0.0
 37
0.0
 40
73.7742453399
 41
0.7070707071
 42
50.0
 43
0.0
 44
0.0
 50
0.0
 51
0.0
 71
0
 72
100
 73
1
 74
1
 75
0
 76
0
 77
0
 78
0
  0
ENDTAB
  0
TABLE
  2
LTYPE
  5
5
100
AcDbSymbolTable
 70
6
  0
LTYPE
  5
14
100
AcDbSymbolTableRecord
100
AcDbLinetypeTableRecord
  2
BYBLOCK
 70
0
  3

 72
65
 73
0
 40
0.0
  0
LTYPE
  5
15
100
AcDbSymbolTableRecord
100
AcDbLinetypeTableRecord
  2
BYLAYER
 70
0
  3

 72
65
 73
0
 40
0.0
  0
LTYPE
  5
16
100
AcDbSymbolTableRecord
100
AcDbLinetypeTableRecord
  2
CONTINUOUS
 70
64
  3
Solid line
 72
65
 73
0
 40
0.0
  0
LTYPE
  5
1F5
100
AcDbSymbolTableRecord
100
AcDbLinetypeTableRecord
  2
CENTER
 70
64
  3
____ _ ____ _ ____ _ ____ _ ____ _ ____ _ ____
 72
65
 73
4
 40
0.6
 49
0.375
 74
0
 49
-0.075
 74
0
 49
0.075
 74
0
 49
-0.075
 74
0
  0
LTYPE
  5
1F6
100
AcDbSymbolTableRecord
100
AcDbLinetypeTableRecord
  2
HIDDEN
 70
64
  3
- - - - - - - - - - - - - - - - - - - -
 72
65
 73
2
 40
0.2
 49
0.1
 74
0
 49
-0.1
 74
0
  0
LTYPE
  5
1F7
100
AcDbSymbolTableRecord
100
AcDbLinetypeTableRecord
  2
PHANTOM
 70
64
  3
_____ _ _ _____ _ _ _____ _ _ _____
 72
65
 73
6
 40
0.8
 49
0.45
 74
0
 49
-0.05
 74
0
 49
0.1
 74
0
 49
-0.05
 74
0
 49
0.1
 74
0
 49
-0.05
 74
0
  0
LTYPE
  5
1F8
100
AcDbSymbolTableRecord
100
AcDbLinetypeTableRecord
  2
DOT
 70
64
  3
. . . . . . . . . . . . . . . . . . . .
 72
65
 73
2
 40
0.2
 49
0.1
 74
0
 49
-0.1
 74
0
  0
LTYPE
  5
1F9
100
AcDbSymbolTableRecord
100
AcDbLinetypeTableRecord
  2
DASHED
 70
64
  3
- - - - - - - - - - - - - - - - - - - -
 72
65
 73
2
 40
0.2
 49
0.1
 74
0
 49
-0.1
 74
0
  0
ENDTAB
  0
TABLE
  2
LAYER
  5
2
100
AcDbSymbolTable
 70
36
  0
LAYER
  5
10
100
AcDbSymbolTableRecord
100
AcDbLayerTableRecord
  2
0
 70
0
 62
7
  6
CONTINUOUS
370
-3
390
F
  0
LAYER
  5
1FA
100
AcDbSymbolTableRecord
100
AcDbLayerTableRecord
  2
DEFAULT_1
 70
0
 62
7
  6
CENTER
370
-3
390
F
  0
LAYER
  5
1FB
100
AcDbSymbolTableRecord
100
AcDbLayerTableRecord
  2
DEFAULT_2
 70
0
 62
7
  6
HIDDEN
370
-3
390
F
  0
LAYER
  5
1FC
100
AcDbSymbolTableRecord
100
AcDbLayerTableRecord
  2
DEFAULT_3
 70
0
 62
7
  6
PHANTOM
370
-3
390
F
  0
LAYER
  5
1FD
100
AcDbSymbolTableRecord
100
AcDbLayerTableRecord
  2
00_COMPONENTS
 70
0
 62
7
  6
CONTINUOUS
370
-3
390
F
  0
LAYER
  5
1FE
100
AcDbSymbolTableRecord
100
AcDbLayerTableRecord
  2
01_1_DEFAULT_DATUMS
 70
0
 62
7
  6
CONTINUOUS
370
-3
390
F
  0
LAYER
  5
1FF
100
AcDbSymbolTableRecord
100
AcDbLayerTableRecord
  2
01_PLANES
 70
0
 62
7
  6
CONTINUOUS
370
-3
390
F
  0
LAYER
  5
200
100
AcDbSymbolTableRecord
100
AcDbLayerTableRecord
  2
02_COORD_SYS
 70
0
 62
7
  6
CONTINUOUS
370
-3
390
F
  0
LAYER
  5
201
100
AcDbSymbolTableRecord
100
AcDbLayerTableRecord
  2
03_AXES
 70
0
 62
7
  6
CONTINUOUS
370
-3
390
F
  0
LAYER
  5
202
100
AcDbSymbolTableRecord
100
AcDbLayerTableRecord
  2
04_POINTS
 70
0
 62
7
  6
CONTINUOUS
370
-3
390
F
  0
LAYER
  5
203
100
AcDbSymbolTableRecord
100
AcDbLayerTableRecord
  2
05_CURVES
 70
0
 62
7
  6
CONTINUOUS
370
-3
390
F
  0
LAYER
  5
204
100
AcDbSymbolTableRecord
100
AcDbLayerTableRecord
  2
06_SURFS
 70
0
 62
7
  6
CONTINUOUS
370
-3
390
F
  0
LAYER
  5
205
100
AcDbSymbolTableRecord
100
AcDbLayerTableRecord
  2
07_COSMETICS
 70
0
 62
7
  6
CONTINUOUS
370
-3
390
F
  0
LAYER
  5
206
100
AcDbSymbolTableRecord
100
AcDbLayerTableRecord
  2
10_NOTES
 70
0
 62
7
  6
CONTINUOUS
370
-3
390
F
  0
LAYER
  5
207
100
AcDbSymbolTableRecord
100
AcDbLayerTableRecord
  2
11_NOTES_PUB
 70
0
 62
7
  6
CONTINUOUS
370
-3
390
F
  0
LAYER
  5
208
100
AcDbSymbolTableRecord
100
AcDbLayerTableRecord
  2
13_REF_GTOL
 70
0
 62
7
  6
CONTINUOUS
370
-3
390
F
  0
LAYER
  5
209
100
AcDbSymbolTableRecord
100
AcDbLayerTableRecord
  2
16_MISC
 70
0
 62
7
  6
CONTINUOUS
370
-3
390
F
  0
LAYER
  5
20A
100
AcDbSymbolTableRecord
100
AcDbLayerTableRecord
  2
17_NO_PRINT
 70
0
 62
7
  6
CONTINUOUS
370
-3
390
F
  0
LAYER
  5
20B
100
AcDbSymbolTableRecord
100
AcDbLayerTableRecord
  2
18_DATUM_CAMS_JOINTS
 70
0
 62
7
  6
CONTINUOUS
370
-3
390
F
  0
LAYER
  5
20C
100
AcDbSymbolTableRecord
100
AcDbLayerTableRecord
  2
19_DATUM_FUNCTIONAL
 70
0
 62
7
  6
CONTINUOUS
370
-3
390
F
  0
LAYER
  5
20D
100
AcDbSymbolTableRecord
100
AcDbLayerTableRecord
  2
20_DATUM_KINEMATIC_SCHEME
 70
0
 62
7
  6
CONTINUOUS
370
-3
390
F
  0
ENDTAB
  0
TABLE
  2
STYLE
  5
3
100
AcDbSymbolTable
 70
1
  0
STYLE
  5
11
100
AcDbSymbolTableRecord
100
AcDbTextStyleTableRecord
  2
STANDARD
 70
0
 40
0.0
 41
1.0
 50
0.0
 71
0
 42
0.2
  3
ARIAL.TTF
  4

  0
STYLE
  5
20E
100
AcDbSymbolTableRecord
100
AcDbTextStyleTableRecord
  2
TEXTSTYLE_1
 70
0
 40
0.0
 41
0.8
 50
0.0
 71
0
 42
0.2
  3
gdt
  4

  0
ENDTAB
  0
TABLE
  2
VIEW
  5
6
100
AcDbSymbolTable
 70
0
  0
ENDTAB
  0
TABLE
  2
UCS
  5
7
100
AcDbSymbolTable
 70
0
  0
ENDTAB
  0
TABLE
  2
APPID
  5
9
100
AcDbSymbolTable
 70
1
  0
APPID
  5
20F
100
AcDbSymbolTableRecord
100
AcDbRegAppTableRecord
  2
ACAD
 70
0
  0
ENDTAB
  0
TABLE
  2
BLOCK_RECORD
  5
1
100
AcDbSymbolTable
 70
0
  0
BLOCK_RECORD
  5
210
100
AcDbSymbolTableRecord
100
AcDbBlockTableRecord
  2
*Model_Space
  0
BLOCK_RECORD
  5
211
100
AcDbSymbolTableRecord
100
AcDbBlockTableRecord
  2
*Paper_Space
  0
BLOCK_RECORD
  5
212
100
AcDbSymbolTableRecord
100
AcDbBlockTableRecord
  2
_FILLED
  0
ENDTAB
  0
TABLE
  2
DIMSTYLE
  5
A
100
AcDbSymbolTable
 70
1
100
AcDbDimStyleTable
 71
0
  0
DIMSTYLE
105
213
100
AcDbSymbolTableRecord
100
AcDbDimStyleTableRecord
  2
STANDARD
 70
0
  3

  4

 40
1.0
 41
0.6209953311
 42
1.0
 43
0.38
 44
1.0
 45
0.0
 46
0.0
 47
0.01
 48
0.01
140
0.8693934636
141
0.09
142
0.0
143
25.4
144
1.0
145
0.0
146
1.0
147
0.625
 71
1
 72
0
 73
0
 74
0
 75
0
 76
0
 77
1
 78
8
 79
2
170
0
171
1
172
0
173
0
174
0
175
0
176
0
177
0
178
0
270
2
179
2
271
2
272
2
273
2
274
2
275
0
280
0
281
0
282
0
283
1
284
8
285
0
286
0
287
3
288
0
340
11
278
46
341
212
342
212
343
212
344
212
  0
ENDTAB
  0
ENDSEC
  0
SECTION
  2
BLOCKS
  0
BLOCK
  5
20
100
AcDbEntity
  8
0
100
AcDbBlockBegin
  2
*Model_Space
 70
0
 10
0.0
 20
0.0
 30
0.0
  3
*Model_Space
  1

  0
ENDBLK
  5
21
100
AcDbEntity
  8
0
100
AcDbBlockEnd
  0
BLOCK
  5
1C
100
AcDbEntity
  8
0
100
AcDbBlockBegin
  2
*Paper_Space
 70
0
 10
0.0
 20
0.0
 30
0.0
  3
*Paper_Space
  1

  0
ENDBLK
  5
1D
100
AcDbEntity
  8
0
100
AcDbBlockEnd
  0
BLOCK
  5
214
100
AcDbEntity
  8
0
100
AcDbBlockBegin
  2
_FILLED
 70
64
 10
0.0
 20
0.0
  3
_FILLED
  1

  0
SOLID
  5
215
100
AcDbEntity
  8
0
  6
BYBLOCK
 62
0
100
AcDbTrace
 10
0.0
 20
0.0
 11
-1.0
 21
0.25
 12
-1.0
 22
-0.25
 13
-1.0
 23
-0.25
  0
ENDBLK
  5
216
100
AcDbEntity
  8
0
  6
BYBLOCK
 62
0
100
AcDbBlockEnd
  0
ENDSEC
  0
SECTION
  2
ENTITIES
  0
LINE
  5
217
100
AcDbEntity
  8
0
100
AcDbLine
 62
7
  6
BYLAYER
 10
18.4259558714
 20
9.875932881
 11
13.2640978597
 21
12.6112674777
  0
LINE
  5
218
100
AcDbEntity
  8
0
100
AcDbLine
 62
7
  6
BYLAYER
 10
6.0515786632
 20
16.7753231738
 11
13.2640978597
 21
12.6112674777
  0
LINE
  5
219
100
AcDbEntity
  8
0
100
AcDbLine
 62
7
  6
BYLAYER
 10
6.0515786632
 20
23.7155937194
 11
6.0515786632
 21
16.7753231738
  0
LINE
  5
21A
100
AcDbEntity
  8
0
100
AcDbLine
 62
7
  6
BYLAYER
 10
31.4140453605
 20
64.0783594274
 11
26.4643185
 21
61.2206503503
  0
LINE
  5
21B
100
AcDbEntity
  8
0
100
AcDbLine
 62
7
  6
BYLAYER
 10
18.9690178255
 20
56.8932623193
 11
14.019290965
 21
54.0355532422
  0
LINE
  5
21C
100
AcDbEntity
  8
0
100
AcDbLine
 62
7
  6
BYLAYER
 10
13.2640978597
 20
19.5515380233
 11
6.0515786632
 21
23.7155937194
  0
LINE
  5
21D
100
AcDbEntity
  8
0
100
AcDbLine
 62
7
  6
BYLAYER
 10
20.1937154644
 20
15.8772080102
 11
19.3451691312
 21
16.3671053812
  0
LINE
  5
21E
100
AcDbEntity
  8
0
100
AcDbLine
 62
7
  6
BYLAYER
 10
14.019290965
 20
54.0355532422
 11
12.0965277692
 21
50.7581183979
  0
LINE
  5
21F
100
AcDbEntity
  8
0
100
AcDbLine
 62
7
  6
BYLAYER
 10
9.0605858811
 20
45.5832212755
 11
7.1378226853
 21
42.3057864313
  0
LINE
  5
220
100
AcDbEntity
  8
0
100
AcDbLine
 62
7
  6
BYLAYER
 10
13.5783262516
 20
49.8608083511
 11
10.5607081239
 21
44.7171448881
  0
LINE
  5
221
100
AcDbEntity
  8
0
100
AcDbLine
 62
7
  6
BYLAYER
 10
25.5450835116
 20
55.3826672389
 11
23.565310464
 21
54.2396515598
  0
LINE
  5
222
100
AcDbEntity
  8
0
100
AcDbLine
 62
7
  6
BYLAYER
 10
24.2724201892
 20
53.8314108053
 11
26.2521932367
 21
54.9744264844
  0
LINE
  5
223
100
AcDbEntity
  8
0
100
AcDbLine
 62
7
  6
BYLAYER
 10
8.2215790691
 20
27.1355930343
 11
14.0905897878
 21
23.7471947718
  0
LINE
  5
224
100
AcDbEntity
  8
0
100
AcDbLine
 62
7
  6
BYLAYER
 10
38.626564557
 20
59.9143037313
 11
33.6768376965
 21
57.0565946542
  0
LINE
  5
225
100
AcDbEntity
  8
0
100
AcDbLine
 62
7
  6
BYLAYER
 10
26.181537022
 20
52.7292066231
 11
21.2318101615
 21
49.871497546
  0
LINE
  5
226
100
AcDbEntity
  8
0
100
AcDbLine
 62
7
  6
BYLAYER
 10
13.2640978597
 20
19.5515380233
 11
13.2640978597
 21
12.6112674777
  0
LINE
  5
227
100
AcDbEntity
  8
0
100
AcDbLine
 62
7
  6
BYLAYER
 10
14.5014751115
 20
36.594993915
 11
14.5014751115
 21
34.6770709991
  0
LINE
  5
228
100
AcDbEntity
  8
0
100
AcDbLine
 62
7
  6
BYLAYER
 10
14.855029974
 20
35.6317255351
 11
14.855029974
 21
34.8812018304
  0
LINE
  5
229
100
AcDbEntity
  8
0
100
AcDbLine
 62
7
  6
BYLAYER
 10
14.3503418818
 20
38.1417307352
 11
16.2731050776
 21
41.4191655794
  0
LINE
  5
22A
100
AcDbEntity
  8
0
100
AcDbLine
 62
7
  6
BYLAYER
 10
19.3090469657
 20
46.5940627018
 11
21.2318101615
 21
49.871497546
  0
LINE
  5
22B
100
AcDbEntity
  8
0
100
AcDbLine
 62
7
  6
BYLAYER
 10
17.75490356
 20
40.5218555325
 11
20.7908454481
 21
45.696752655
  0
LINE
  5
22C
100
AcDbEntity
  8
0
100
AcDbLine
 62
7
  6
BYLAYER
 10
27.1007720104
 20
48.7691466196
 11
32.050492983
 21
51.6268522973
  0
LINE
  5
22D
100
AcDbEntity
  8
0
100
AcDbLine
 62
7
  6
BYLAYER
 10
32.7576027081
 20
51.2186115428
 11
27.1007720104
 21
47.9526583118
  0
LINE
  5
22E
100
AcDbEntity
  8
0
100
AcDbLine
 62
7
  6
BYLAYER
 10
18.4259558714
 20
14.8565976255
 11
18.4259558714
 21
15.8364005261
  0
LINE
  5
22F
100
AcDbEntity
  8
0
100
AcDbLine
 62
7
  6
BYLAYER
 10
14.5014751115
 20
34.6770709991
 11
8.2215790691
 21
27.1355930343
  0
LINE
  5
230
100
AcDbEntity
  8
0
100
AcDbLine
 62
7
  6
BYLAYER
 10
14.5014751115
 20
34.6770709991
 11
15.1351188595
 21
34.3112448867
  0
LINE
  5
231
100
AcDbEntity
  8
0
100
AcDbLine
 62
7
  6
BYLAYER
 10
14.855029974
 20
34.8812018304
 11
15.0902515537
 21
34.7453996603
  0
LINE
  5
232
100
AcDbEntity
  8
0
100
AcDbLine
 62
7
  6
BYLAYER
 10
20.1937154644
 20
13.1827500337
 11
20.1937154644
 21
15.8772080102
  0
LINE
  5
233
100
AcDbEntity
  8
0
100
AcDbLine
 62
7
  6
BYLAYER
 10
26.4643185
 20
61.2206503503
 11
25.5450835116
 21
57.7505242486
  0
LINE
  5
234
100
AcDbEntity
  8
0
100
AcDbLine
 62
7
  6
BYLAYER
 10
13.9758286695
 20
38.0271297731
 11
8.1068179508
 21
41.4155280356
  0
LINE
  5
235
100
AcDbEntity
  8
0
100
AcDbLine
 62
7
  6
BYLAYER
 10
7.1378226853
 20
42.3057864313
 11
14.3503418818
 21
38.1417307352
  0
LINE
  5
236
100
AcDbEntity
  8
0
100
AcDbLine
 62
7
  6
BYLAYER
 10
36.3727504444
 20
61.3518127125
 11
36.3370521154
 21
61.2889747877
  0
LINE
  5
237
100
AcDbEntity
  8
0
100
AcDbLine
 62
7
  6
BYLAYER
 10
14.855029974
 20
34.8812018304
 11
15.063763076
 21
35.0017132236
  0
LINE
  5
238
100
AcDbEntity
  8
0
100
AcDbLine
 62
7
  6
BYLAYER
 10
41.7603824994
 20
23.3479899588
 11
39.639053324
 21
24.5727122224
  0
LINE
  5
239
100
AcDbEntity
  8
0
100
AcDbLine
 62
7
  6
BYLAYER
 10
36.6691924784
 20
26.2873233914
 11
36.5983923054
 21
26.3281989655
  0
LINE
  5
23A
100
AcDbEntity
  8
0
100
AcDbLine
 62
7
  6
BYLAYER
 10
36.7399028621
 20
26.4097980485
 11
39.639053324
 21
24.736010615
  0
LINE
  5
23B
100
AcDbEntity
  8
0
100
AcDbLine
 62
7
  6
BYLAYER
 10
25.5450835116
 20
57.7505242486
 11
25.5450835116
 21
55.3826672389
  0
LINE
  5
23C
100
AcDbEntity
  8
0
100
AcDbLine
 62
7
  6
BYLAYER
 10
26.2521932367
 20
52.544064617
 11
26.2521932367
 21
54.9744264844
  0
LINE
  5
23D
100
AcDbEntity
  8
0
100
AcDbLine
 62
7
  6
BYLAYER
 10
16.2731050776
 20
41.4191655794
 11
9.0605858811
 21
45.5832212755
  0
LINE
  5
23E
100
AcDbEntity
  8
0
100
AcDbLine
 62
7
  6
BYLAYER
 10
16.2731050776
 20
41.4191655794
 11
17.75490356
 21
40.5218555325
  0
LINE
  5
23F
100
AcDbEntity
  8
0
100
AcDbLine
 62
7
  6
BYLAYER
 10
27.1007720104
 20
47.9526583118
 11
27.1007720104
 21
50.3205153215
  0
LINE
  5
240
100
AcDbEntity
  8
0
100
AcDbLine
 62
7
  6
BYLAYER
 10
32.7576027081
 20
53.5864685525
 11
33.6768376965
 21
57.0565946542
  0
LINE
  5
241
100
AcDbEntity
  8
0
100
AcDbLine
 62
7
  6
BYLAYER
 10
40.5493277528
 20
58.8570713316
 11
39.0675292704
 21
56.2487379928
  0
LINE
  5
242
100
AcDbEntity
  8
0
100
AcDbLine
 62
7
  6
BYLAYER
 10
45.7201639878
 20
27.5121127799
 11
44.8241928552
 21
28.0293902521
  0
LINE
  5
243
100
AcDbEntity
  8
0
100
AcDbLine
 62
7
  6
BYLAYER
 10
45.7201639878
 20
28.9818171307
 11
44.7886093717
 21
29.519638272
  0
LINE
  5
244
100
AcDbEntity
  8
0
100
AcDbLine
 62
7
  6
BYLAYER
 10
20.7908454481
 20
45.696752655
 11
13.5783262516
 21
49.8608083511
  0
LINE
  5
245
100
AcDbEntity
  8
0
100
AcDbLine
 62
7
  6
BYLAYER
 10
19.3090469657
 20
46.5940627018
 11
12.0965277692
 21
50.7581183979
  0
LINE
  5
246
100
AcDbEntity
  8
0
100
AcDbLine
 62
7
  6
BYLAYER
 10
12.0965277692
 20
50.7581183979
 11
13.5783262516
 21
49.8608083511
  0
LINE
  5
247
100
AcDbEntity
  8
0
100
AcDbLine
 62
7
  6
BYLAYER
 10
20.7908454481
 20
45.696752655
 11
19.3090469657
 21
46.5940627018
  0
LINE
  5
248
100
AcDbEntity
  8
0
100
AcDbLine
 62
7
  6
BYLAYER
 10
32.7576027081
 20
53.5864685525
 11
32.7576027081
 21
51.2186115428
  0
LINE
  5
249
100
AcDbEntity
  8
0
100
AcDbLine
 62
7
  6
BYLAYER
 10
20.1937154644
 20
13.1827500337
 11
18.4259558714
 21
9.875932881
  0
LINE
  5
24A
100
AcDbEntity
  8
0
100
AcDbLine
 62
7
  6
BYLAYER
 10
42.1034711585
 20
54.5794236775
 11
43.5852696409
 21
57.1877570164
  0
LINE
  5
24B
100
AcDbEntity
  8
0
100
AcDbLine
 62
7
  6
BYLAYER
 10
46.9222405111
 20
30.900585818
 11
44.5974726687
 21
32.2427607936
  0
LINE
  5
24C
100
AcDbEntity
  8
0
100
AcDbLine
 62
7
  6
BYLAYER
 10
26.181537022
 20
52.7292066231
 11
27.1007720104
 21
50.3205153215
  0
LINE
  5
24D
100
AcDbEntity
  8
0
100
AcDbLine
 62
7
  6
BYLAYER
 10
21.2318101615
 20
49.871497546
 11
14.019290965
 21
54.0355532422
  0
LINE
  5
24E
100
AcDbEntity
  8
0
100
AcDbLine
 62
7
  6
BYLAYER
 10
36.6691924784
 20
26.3690752204
 11
36.6691924784
 21
26.2873233914
  0
LINE
  5
24F
100
AcDbEntity
  8
0
100
AcDbLine
 62
7
  6
BYLAYER
 10
44.0938251623
 20
35.391377331
 11
46.2151366739
 21
36.6161097926
  0
LINE
  5
250
100
AcDbEntity
  8
0
100
AcDbLine
 62
7
  6
BYLAYER
 10
39.639053324
 20
28.0837149441
 11
39.639053324
 21
24.5727122224
  0
LINE
  5
251
100
AcDbEntity
  8
0
100
AcDbLine
 62
7
  6
BYLAYER
 10
26.181537022
 20
52.7292066231
 11
18.9690178255
 21
56.8932623193
  0
LINE
  5
252
100
AcDbEntity
  8
0
100
AcDbLine
 62
7
  6
BYLAYER
 10
41.7603824994
 20
29.3084576039
 11
41.7603824994
 21
23.3479899588
  0
LINE
  5
253
100
AcDbEntity
  8
0
100
AcDbLine
 62
7
  6
BYLAYER
 10
18.4259558714
 20
15.8364005261
 11
41.7603824994
 21
29.3084576039
  0
LINE
  5
254
100
AcDbEntity
  8
0
100
AcDbLine
 62
7
  6
BYLAYER
 10
36.6691924784
 20
26.2873233914
 11
36.8106150566
 21
26.3689732675
  0
LINE
  5
255
100
AcDbEntity
  8
0
100
AcDbLine
 62
7
  6
BYLAYER
 10
20.1937154644
 20
15.8772080102
 11
18.4259558714
 21
14.8565976255
  0
LINE
  5
256
100
AcDbEntity
  8
0
100
AcDbLine
 62
7
  6
BYLAYER
 10
32.7576027081
 20
51.2186115428
 11
32.050492983
 21
51.6268522973
  0
LINE
  5
257
100
AcDbEntity
  8
0
100
AcDbLine
 62
7
  6
BYLAYER
 10
26.2521932367
 20
54.9744264844
 11
25.5450835116
 21
55.3826672389
  0
LINE
  5
258
100
AcDbEntity
  8
0
100
AcDbLine
 62
7
  6
BYLAYER
 10
45.7201639878
 20
27.5121127799
 11
44.8009289995
 21
26.9813953799
  0
LINE
  5
259
100
AcDbEntity
  8
0
100
AcDbLine
 62
7
  6
BYLAYER
 10
32.7576027081
 20
53.5864685525
 11
25.5450835116
 21
57.7505242486
  0
LINE
  5
25A
100
AcDbEntity
  8
0
100
AcDbLine
 62
7
  6
BYLAYER
 10
45.7201639878
 20
28.9818171307
 11
45.7201639878
 21
27.5121127799
  0
LINE
  5
25B
100
AcDbEntity
  8
0
100
AcDbLine
 62
7
  6
BYLAYER
 10
46.2151366739
 20
36.6161097926
 11
46.2151366739
 21
41.0252228451
  0
LINE
  5
25C
100
AcDbEntity
  8
0
100
AcDbLine
 62
7
  6
BYLAYER
 10
46.9222405111
 20
26.3281722821
 11
46.9222405111
 21
30.900585818
  0
LINE
  5
25D
100
AcDbEntity
  8
0
100
AcDbLine
 62
7
  6
BYLAYER
 10
45.7201639878
 20
28.9818171307
 11
46.9222405111
 21
30.900585818
  0
LINE
  5
25E
100
AcDbEntity
  8
0
100
AcDbLine
 62
7
  6
BYLAYER
 10
41.7603824994
 20
23.3479899588
 11
46.9222405111
 21
26.3281722821
  0
LINE
  5
25F
100
AcDbEntity
  8
0
100
AcDbLine
 62
7
  6
BYLAYER
 10
33.6768376965
 20
57.0565946542
 11
26.4643185
 21
61.2206503503
  0
LINE
  5
260
100
AcDbEntity
  8
0
100
AcDbLine
 62
7
  6
BYLAYER
 10
39.0675292704
 20
56.2487379928
 11
42.1034711585
 21
54.5794236775
  0
LINE
  5
261
100
AcDbEntity
  8
0
100
AcDbLine
 62
7
  6
BYLAYER
 10
42.1034711585
 20
54.5794236775
 11
39.1036628616
 21
56.3113246245
  0
LINE
  5
262
100
AcDbEntity
  8
0
100
AcDbLine
 62
7
  6
BYLAYER
 10
38.626564557
 20
59.9143037313
 11
40.5493277528
 21
58.8570713316
  0
LINE
  5
263
100
AcDbEntity
  8
0
100
AcDbLine
 62
7
  6
BYLAYER
 10
43.5852696409
 20
57.1877570164
 11
45.5080328367
 21
56.1305246167
  0
LINE
  5
264
100
AcDbEntity
  8
0
100
AcDbLine
 62
7
  6
BYLAYER
 10
38.2955136402
 20
60.2945803128
 11
36.3727504444
 21
61.3518127125
  0
LINE
  5
265
100
AcDbEntity
  8
0
100
AcDbLine
 62
7
  6
BYLAYER
 10
33.3368085563
 20
63.0211270277
 11
31.4140453605
 21
64.0783594274
  0
LINE
  5
266
100
AcDbEntity
  8
0
100
AcDbLine
 62
7
  6
BYLAYER
 10
38.626564557
 20
59.9143037313
 11
31.4140453605
 21
64.0783594274
  0
LINE
  5
267
100
AcDbEntity
  8
0
100
AcDbLine
 62
7
  6
BYLAYER
 10
40.5493277528
 20
58.8570713316
 11
33.3368085563
 21
63.0211270277
  0
LINE
  5
268
100
AcDbEntity
  8
0
100
AcDbLine
 62
7
  6
BYLAYER
 10
43.5852696409
 20
57.1877570164
 11
36.3727504444
 21
61.3518127125
  0
LINE
  5
269
100
AcDbEntity
  8
0
100
AcDbLine
 62
7
  6
BYLAYER
 10
38.2955136402
 20
60.2945803128
 11
45.5080328367
 21
56.1305246167
  0
ARC
  5
26A
100
AcDbEntity
  8
0
100
AcDbCircle
 62
7
  6
BYLAYER
 10
5.6947302101
 20
28.3923133923
 40
39.131642866
100
AcDbArc
 50
357.9337138155
 51
359.9946229944
  0
SPLINE
  5
26B
100
AcDbEntity
  8
0
100
AcDbSpline
 62
7
  6
BYLAYER
 70
0
 71
3
 72
22
 73
18
 74
0
 42
0.0000001
 43
0.0000001
 44
0.0000000001
 40
0.0
 40
0.0
 40
0.0
 40
0.0
 40
0.0428178259
 40
0.087404835
 40
0.1351917505
 40
0.1871085752
 40
0.2435610024
 40
0.3045244634
 40
0.3696309859
 40
0.4382460123
 40
0.5095538533
 40
0.582597467
 40
0.7296204702
 40
0.8016152272
 40
0.8712273635
 40
0.9376271275
 40
1.0
 40
1.0
 40
1.0
 40
1.0
 10
16.6811860089
 20
53.9130929153
 30
0.0
 10
16.681198236
 20
53.8419273735
 30
0.0
 10
16.7001919652
 20
53.6960325693
 30
0.0
 10
16.7839104453
 20
53.4853996199
 30
0.0
 10
16.9196336512
 20
53.2856749621
 30
0.0
 10
17.1036744256
 20
53.1009037355
 30
0.0
 10
17.3316882316
 20
52.9342834421
 30
0.0
 10
17.5988465229
 20
52.788951271
 30
0.0
 10
17.8995797673
 20
52.6678263587
 30
0.0
 10
18.227524394
 20
52.5732814878
 30
0.0
 10
18.5758192981
 20
52.5073694918
 30
0.0
 10
19.0581602482
 20
52.4594243709
 30
0.0
 10
19.5462356687
 20
52.4728923371
 30
0.0
 10
20.0205165956
 20
52.5480184844
 30
0.0
 10
20.3561565467
 20
52.6332037167
 30
0.0
 10
20.6666398275
 20
52.7457926912
 30
0.0
 10
20.8591671977
 20
52.8406577151
 30
0.0
 10
20.9489456637
 20
52.8924910272
 30
0.0
  0
SPLINE
  5
26C
100
AcDbEntity
  8
0
100
AcDbSpline
 62
7
  6
BYLAYER
 70
0
 71
3
 72
22
 73
18
 74
0
 42
0.0000001
 43
0.0000001
 44
0.0000000001
 40
0.0
 40
0.0
 40
0.0
 40
0.0
 40
0.0428178259
 40
0.087404835
 40
0.1351917505
 40
0.1871085752
 40
0.2435610024
 40
0.3045244634
 40
0.3696309859
 40
0.4382460123
 40
0.5095538533
 40
0.582597467
 40
0.7296204702
 40
0.8016152272
 40
0.8712273635
 40
0.9376271275
 40
1.0
 40
1.0
 40
1.0
 40
1.0
 10
29.1262135439
 20
61.0981900235
 30
0.0
 10
29.1262257709
 20
61.0270244816
 30
0.0
 10
29.1452195001
 20
60.8811296775
 30
0.0
 10
29.2289379803
 20
60.670496728
 30
0.0
 10
29.3646611862
 20
60.4707720702
 30
0.0
 10
29.5487019606
 20
60.2860008437
 30
0.0
 10
29.7767157665
 20
60.1193805503
 30
0.0
 10
30.0438740578
 20
59.9740483792
 30
0.0
 10
30.3446073022
 20
59.8529234668
 30
0.0
 10
30.672551929
 20
59.758378596
 30
0.0
 10
31.0208468331
 20
59.6924665999
 30
0.0
 10
31.5031877832
 20
59.644521479
 30
0.0
 10
31.9912632037
 20
59.6579894452
 30
0.0
 10
32.4655441305
 20
59.7331155925
 30
0.0
 10
32.8011840816
 20
59.8183008248
 30
0.0
 10
33.1116673625
 20
59.9308897993
 30
0.0
 10
33.3041947327
 20
60.0257548233
 30
0.0
 10
33.3939731987
 20
60.0775881354
 30
0.0
  0
SPLINE
  5
26D
100
AcDbEntity
  8
0
100
AcDbSpline
 62
7
  6
BYLAYER
 70
0
 71
3
 72
12
 73
8
 74
0
 42
0.0000001
 43
0.0000001
 44
0.0000000001
 40
0.0
 40
0.0
 40
0.0
 40
0.0
 40
0.2246490661
 40
0.3428884582
 40
0.4653663472
 40
0.723599582
 40
1.0
 40
1.0
 40
1.0
 40
1.0
 10
7.1378226853
 20
42.3057864313
 30
0.0
 10
7.430994239
 20
41.8455568376
 30
0.0
 10
7.8127016757
 20
41.0992435045
 30
0.0
 10
8.2045890581
 20
40.0383312843
 30
0.0
 10
8.5385092714
 20
38.8721169218
 30
0.0
 10
8.8131323737
 20
37.2948741396
 30
0.0
 10
8.8799940121
 20
35.9948781416
 30
0.0
 10
8.8799940121
 20
35.3234989643
 30
0.0
  0
SPLINE
  5
26E
100
AcDbEntity
  8
0
100
AcDbSpline
 62
7
  6
BYLAYER
 70
0
 71
3
 72
13
 73
9
 74
0
 42
0.0000001
 43
0.0000001
 44
0.0000000001
 40
0.0
 40
0.0
 40
0.0
 40
0.0
 40
0.112975558
 40
0.2301491065
 40
0.3511720505
 40
0.4757133707
 40
0.7335597646
 40
1.0
 40
1.0
 40
1.0
 40
1.0
 10
8.8799940121
 20
35.3234989643
 30
0.0
 10
8.8799940121
 20
34.8702576498
 30
0.0
 10
8.8477713258
 20
33.9466973154
 30
0.0
 10
8.7096360086
 20
32.543814962
 30
0.0
 10
8.4815075812
 20
31.1057131339
 30
0.0
 10
8.0543955814
 20
29.1308857634
 30
0.0
 10
7.3019393738
 20
26.6340901542
 30
0.0
 10
6.5020904401
 20
24.6849373151
 30
0.0
 10
6.0515786632
 20
23.7155937194
 30
0.0
  0
SPLINE
  5
26F
100
AcDbEntity
  8
0
100
AcDbSpline
 62
7
  6
BYLAYER
 70
0
 71
3
 72
14
 73
10
 74
0
 42
0.0000001
 43
0.0000001
 44
0.0000000001
 40
0.0
 40
0.0
 40
0.0
 40
0.0
 40
0.2892178839
 40
0.4225713396
 40
0.5485276982
 40
0.6678999522
 40
0.7818625625
 40
0.8919537933
 40
1.0
 40
1.0
 40
1.0
 40
1.0
 10
20.9489456637
 20
52.8924910272
 30
0.0
 10
21.0586586488
 20
52.9558334706
 30
0.0
 10
21.2123185901
 20
53.0616842403
 30
0.0
 10
21.3862436212
 20
53.2280507033
 30
0.0
 10
21.4920632698
 20
53.3563583565
 30
0.0
 10
21.5757229461
 20
53.4902493667
 30
0.0
 10
21.6362165524
 20
53.6286263653
 30
0.0
 10
21.6729422249
 20
53.7700203204
 30
0.0
 10
21.6811648241
 20
53.8657656775
 30
0.0
 10
21.6811566927
 20
53.9130929117
 30
0.0
  0
SPLINE
  5
270
100
AcDbEntity
  8
0
100
AcDbSpline
 62
7
  6
BYLAYER
 70
0
 71
3
 72
11
 73
7
 74
0
 42
0.0000001
 43
0.0000001
 44
0.0000000001
 40
0.0
 40
0.0
 40
0.0
 40
0.0
 40
0.2342543283
 40
0.4798866978
 40
0.7356504573
 40
1.0
 40
1.0
 40
1.0
 40
1.0
 10
15.4207589697
 20
31.5472719849
 30
0.0
 10
15.4207589697
 20
30.9270926798
 30
0.0
 10
15.3602435829
 20
29.6560776437
 30
0.0
 10
15.1049176107
 20
27.723311217
 30
0.0
 10
14.6858286864
 20
25.7379741431
 30
0.0
 10
14.3057897412
 20
24.4131424547
 30
0.0
 10
14.0905897878
 20
23.7471947718
 30
0.0
  0
SPLINE
  5
271
100
AcDbEntity
  8
0
100
AcDbSpline
 62
7
  6
BYLAYER
 70
0
 71
3
 72
11
 73
7
 74
0
 42
0.0000001
 43
0.0000001
 44
0.0000000001
 40
0.0
 40
0.0
 40
0.0
 40
0.0
 40
0.2267473556
 40
0.4683529618
 40
0.7260176428
 40
1.0
 40
1.0
 40
1.0
 40
1.0
 10
13.9758286695
 20
38.0271297731
 30
0.0
 10
14.219623143
 20
37.5829620661
 30
0.0
 10
14.6483067645
 20
36.6230669669
 30
0.0
 10
15.0964186493
 20
35.0593067728
 30
0.0
 10
15.3649347772
 20
33.3485758294
 30
0.0
 10
15.4207589697
 20
32.1594966308
 30
0.0
 10
15.4207589697
 20
31.5472719849
 30
0.0
  0
SPLINE
  5
272
100
AcDbEntity
  8
0
100
AcDbSpline
 62
7
  6
BYLAYER
 70
0
 71
3
 72
11
 73
7
 74
0
 42
0.0000001
 43
0.0000001
 44
0.0000000001
 40
0.0
 40
0.0
 40
0.0
 40
0.0
 40
0.264882754
 40
0.5209994675
 40
0.7665277431
 40
1.0
 40
1.0
 40
1.0
 40
1.0
 10
45.5080328367
 20
56.1305246167
 30
0.0
 10
45.2771110688
 20
55.4608739382
 30
0.0
 10
44.8689955338
 20
54.1272164481
 30
0.0
 10
44.4180883979
 20
52.125482718
 30
0.0
 10
44.1428982242
 20
50.176753401
 30
0.0
 10
44.0773570139
 20
48.8952136188
 30
0.0
 10
44.0773570139
 20
48.2708633938
 30
0.0
  0
SPLINE
  5
273
100
AcDbEntity
  8
0
100
AcDbSpline
 62
7
  6
BYLAYER
 70
0
 71
3
 72
15
 73
11
 74
0
 42
0.0000001
 43
0.0000001
 44
0.0000000001
 40
0.0
 40
0.0
 40
0.0
 40
0.0
 40
0.1427117662
 40
0.2802219963
 40
0.412380122
 40
0.5392593628
 40
0.661067378
 40
0.7781440774
 40
0.8909443619
 40
1.0
 40
1.0
 40
1.0
 40
1.0
 10
44.0773570139
 20
48.2708633938
 30
0.0
 10
44.0773570139
 20
47.904736684
 30
0.0
 10
44.0990317609
 20
47.1855900522
 30
0.0
 10
44.2003359198
 20
46.1316950519
 30
0.0
 10
44.3697029287
 20
45.1275996124
 30
0.0
 10
44.6061587638
 20
44.1785035141
 30
0.0
 10
44.9087735429
 20
43.2890244776
 30
0.0
 10
45.2761515352
 20
42.4634606367
 30
0.0
 10
45.7066979599
 20
41.7063759087
 30
0.0
 10
46.0393242893
 20
41.2428646779
 30
0.0
 10
46.2151366739
 20
41.0252228451
 30
0.0
  0
SPLINE
  5
274
100
AcDbEntity
  8
0
100
AcDbSpline
 62
7
  6
BYLAYER
 70
0
 71
3
 72
9
 73
5
 74
0
 42
0.0000001
 43
0.0000001
 44
0.0000000001
 40
0.0
 40
0.0
 40
0.0
 40
0.0
 40
0.4844658935
 40
1.0
 40
1.0
 40
1.0
 40
1.0
 10
44.0938251623
 20
35.391377331
 30
0.0
 10
44.3448313629
 20
34.2806068173
 30
0.0
 10
44.714777907
 20
31.952910202
 30
0.0
 10
44.8263729038
 20
29.6004474446
 30
0.0
 10
44.8263729038
 20
28.3886410265
 30
0.0
  0
SPLINE
  5
275
100
AcDbEntity
  8
0
100
AcDbSpline
 62
7
  6
BYLAYER
 70
0
 71
3
 72
14
 73
10
 74
0
 42
0.0000001
 43
0.0000001
 44
0.0000000001
 40
0.0
 40
0.0
 40
0.0
 40
0.0
 40
0.2892178839
 40
0.4225713396
 40
0.5485276982
 40
0.6678999522
 40
0.7818625625
 40
0.8919537933
 40
1.0
 40
1.0
 40
1.0
 40
1.0
 10
33.3939731987
 20
60.0775881354
 30
0.0
 10
33.5036861838
 20
60.1409305787
 30
0.0
 10
33.6573461251
 20
60.2467813485
 30
0.0
 10
33.8312711561
 20
60.4131478114
 30
0.0
 10
33.9370908047
 20
60.5414554647
 30
0.0
 10
34.020750481
 20
60.6753464748
 30
0.0
 10
34.0812440873
 20
60.8137234735
 30
0.0
 10
34.1179697599
 20
60.9551174285
 30
0.0
 10
34.126192359
 20
61.0508627856
 30
0.0
 10
34.1261842277
 20
61.0981900199
 30
0.0
  0
SPLINE
  5
276
100
AcDbEntity
  8
0
100
AcDbSpline
 62
7
  6
BYLAYER
 70
0
 71
3
 72
13
 73
9
 74
0
 42
0.0000001
 43
0.0000001
 44
0.0000000001
 40
0.0
 40
0.0
 40
0.0
 40
0.0
 40
0.2664402354
 40
0.5242866293
 40
0.6488279495
 40
0.7698508935
 40
0.887024442
 40
1.0
 40
1.0
 40
1.0
 40
1.0
 10
13.2640978597
 20
19.5515380233
 30
0.0
 10
13.7146096366
 20
20.520881619
 30
0.0
 10
14.5144585703
 20
22.4700344581
 30
0.0
 10
15.2669147779
 20
24.9668300673
 30
0.0
 10
15.6940267777
 20
26.9416574378
 30
0.0
 10
15.9221552051
 20
28.3797592659
 30
0.0
 10
16.0602905223
 20
29.7826416193
 30
0.0
 10
16.0925132086
 20
30.7062019537
 30
0.0
 10
16.0925132086
 20
31.1594432682
 30
0.0
  0
SPLINE
  5
277
100
AcDbEntity
  8
0
100
AcDbSpline
 62
7
  6
BYLAYER
 70
0
 71
3
 72
12
 73
8
 74
0
 42
0.0000001
 43
0.0000001
 44
0.0000000001
 40
0.0
 40
0.0
 40
0.0
 40
0.0
 40
0.276400418
 40
0.5346336528
 40
0.6571115418
 40
0.7753509339
 40
1.0
 40
1.0
 40
1.0
 40
1.0
 10
16.0925132086
 20
31.1594432682
 30
0.0
 10
16.0925132086
 20
31.8308224455
 30
0.0
 10
16.0256515702
 20
33.1308184435
 30
0.0
 10
15.7510284679
 20
34.7080612257
 30
0.0
 10
15.4171082546
 20
35.8742755882
 30
0.0
 10
15.0252208722
 20
36.9351878084
 30
0.0
 10
14.6435134355
 20
37.6815011415
 30
0.0
 10
14.3503418818
 20
38.1417307352
 30
0.0
  0
SPLINE
  5
278
100
AcDbEntity
  8
0
100
AcDbSpline
 62
7
  6
BYLAYER
 70
0
 71
3
 72
22
 73
18
 74
0
 42
0.0000001
 43
0.0000001
 44
0.0000000001
 40
0.0
 40
0.0
 40
0.0
 40
0.0
 40
0.0428178259
 40
0.087404835
 40
0.1351917505
 40
0.1871085752
 40
0.2435610024
 40
0.3045244634
 40
0.3696309859
 40
0.4382460123
 40
0.5095538533
 40
0.582597467
 40
0.7296204702
 40
0.8016152272
 40
0.8712273635
 40
0.9376271275
 40
1.0
 40
1.0
 40
1.0
 40
1.0
 10
21.6811566927
 20
53.9130929117
 30
0.0
 10
21.6811444657
 20
53.9842584535
 30
0.0
 10
21.6621507365
 20
54.1301532577
 30
0.0
 10
21.5784322564
 20
54.3407862072
 30
0.0
 10
21.4427090505
 20
54.540510865
 30
0.0
 10
21.258668276
 20
54.7252820915
 30
0.0
 10
21.0306544701
 20
54.8919023849
 30
0.0
 10
20.7634961788
 20
55.037234556
 30
0.0
 10
20.4627629344
 20
55.1583594684
 30
0.0
 10
20.1348183076
 20
55.2529043392
 30
0.0
 10
19.7865234035
 20
55.3188163353
 30
0.0
 10
19.3041824534
 20
55.3667614562
 30
0.0
 10
18.8161070329
 20
55.35329349
 30
0.0
 10
18.3418261061
 20
55.2781673427
 30
0.0
 10
18.006186155
 20
55.1929821104
 30
0.0
 10
17.6957028741
 20
55.0803931358
 30
0.0
 10
17.5031755039
 20
54.9855281119
 30
0.0
 10
17.413397038
 20
54.9336947998
 30
0.0
  0
SPLINE
  5
279
100
AcDbEntity
  8
0
100
AcDbSpline
 62
7
  6
BYLAYER
 70
0
 71
3
 72
14
 73
10
 74
0
 42
0.0000001
 43
0.0000001
 44
0.0000000001
 40
0.0
 40
0.0
 40
0.0
 40
0.0
 40
0.2892178839
 40
0.4225713396
 40
0.5485276982
 40
0.6678999522
 40
0.7818625625
 40
0.8919537933
 40
1.0
 40
1.0
 40
1.0
 40
1.0
 10
29.8584245729
 20
62.118791908
 30
0.0
 10
29.7487115878
 20
62.0554494646
 30
0.0
 10
29.5950516465
 20
61.9495986949
 30
0.0
 10
29.4211266154
 20
61.7832322319
 30
0.0
 10
29.3153069669
 20
61.6549245786
 30
0.0
 10
29.2316472906
 20
61.5210335685
 30
0.0
 10
29.1711536842
 20
61.3826565698
 30
0.0
 10
29.1344280117
 20
61.2412626148
 30
0.0
 10
29.1262054126
 20
61.1455172577
 30
0.0
 10
29.1262135439
 20
61.0981900235
 30
0.0
  0
SPLINE
  5
27A
100
AcDbEntity
  8
0
100
AcDbSpline
 62
7
  6
BYLAYER
 70
0
 71
3
 72
22
 73
18
 74
0
 42
0.0000001
 43
0.0000001
 44
0.0000000001
 40
0.0
 40
0.0
 40
0.0
 40
0.0
 40
0.0428178259
 40
0.087404835
 40
0.1351917505
 40
0.1871085752
 40
0.2435610024
 40
0.3045244634
 40
0.3696309859
 40
0.4382460123
 40
0.5095538533
 40
0.582597467
 40
0.7296204702
 40
0.8016152272
 40
0.8712273635
 40
0.9376271275
 40
1.0
 40
1.0
 40
1.0
 40
1.0
 10
34.1261842277
 20
61.0981900199
 30
0.0
 10
34.1261720006
 20
61.1693555617
 30
0.0
 10
34.1071782714
 20
61.3152503659
 30
0.0
 10
34.0234597913
 20
61.5258833153
 30
0.0
 10
33.8877365854
 20
61.7256079731
 30
0.0
 10
33.703695811
 20
61.9103791997
 30
0.0
 10
33.475682005
 20
62.0769994931
 30
0.0
 10
33.2085237138
 20
62.2223316642
 30
0.0
 10
32.9077904693
 20
62.3434565765
 30
0.0
 10
32.5798458426
 20
62.4380014474
 30
0.0
 10
32.2315509385
 20
62.5039134434
 30
0.0
 10
31.7492099884
 20
62.5518585643
 30
0.0
 10
31.2611345679
 20
62.5383905981
 30
0.0
 10
30.786853641
 20
62.4632644508
 30
0.0
 10
30.4512136899
 20
62.3780792185
 30
0.0
 10
30.1407304091
 20
62.265490244
 30
0.0
 10
29.9482030389
 20
62.1706252201
 30
0.0
 10
29.8584245729
 20
62.118791908
 30
0.0
  0
SPLINE
  5
27B
100
AcDbEntity
  8
0
100
AcDbSpline
 62
7
  6
BYLAYER
 70
0
 71
3
 72
14
 73
10
 74
0
 42
0.0000001
 43
0.0000001
 44
0.0000000001
 40
0.0
 40
0.0
 40
0.0
 40
0.0
 40
0.2892178839
 40
0.4225713396
 40
0.5485276982
 40
0.6678999522
 40
0.7818625625
 40
0.8919537933
 40
1.0
 40
1.0
 40
1.0
 40
1.0
 10
17.413397038
 20
54.9336947998
 30
0.0
 10
17.3036840528
 20
54.8703523564
 30
0.0
 10
17.1500241115
 20
54.7645015867
 30
0.0
 10
16.9760990805
 20
54.5981351238
 30
0.0
 10
16.8702794319
 20
54.4698274705
 30
0.0
 10
16.7866197556
 20
54.3359364603
 30
0.0
 10
16.7261261493
 20
54.1975594617
 30
0.0
 10
16.6894004767
 20
54.0561655067
 30
0.0
 10
16.6811778776
 20
53.9604201496
 30
0.0
 10
16.6811860089
 20
53.9130929153
 30
0.0
  0
SPLINE
  5
27C
100
AcDbEntity
  8
0
100
AcDbSpline
 62
7
  6
BYLAYER
 70
0
 71
3
 72
11
 73
7
 74
0
 42
0.0000001
 43
0.0000001
 44
0.0000000001
 40
0.0
 40
0.0
 40
0.0
 40
0.0
 40
0.2739823572
 40
0.5316470382
 40
0.7732526444
 40
1.0
 40
1.0
 40
1.0
 40
1.0
 10
9.551748251
 20
34.9356702475
 30
0.0
 10
9.551748251
 20
35.5478948934
 30
0.0
 10
9.4959240585
 20
36.7369740919
 30
0.0
 10
9.2274079306
 20
38.4477050353
 30
0.0
 10
8.7792960458
 20
40.0114652294
 30
0.0
 10
8.3506124242
 20
40.9713603286
 30
0.0
 10
8.1068179508
 20
41.4155280356
 30
0.0
  0
SPLINE
  5
27D
100
AcDbEntity
  8
0
100
AcDbSpline
 62
7
  6
BYLAYER
 70
0
 71
3
 72
11
 73
7
 74
0
 42
0.0000001
 43
0.0000001
 44
0.0000000001
 40
0.0
 40
0.0
 40
0.0
 40
0.0
 40
0.2643495427
 40
0.5201133022
 40
0.7657456717
 40
1.0
 40
1.0
 40
1.0
 40
1.0
 10
8.2215790691
 20
27.1355930343
 30
0.0
 10
8.4367790225
 20
27.8015407172
 30
0.0
 10
8.8168179677
 20
29.1263724057
 30
0.0
 10
9.2359068919
 20
31.1117094795
 30
0.0
 10
9.4912328641
 20
33.0444759062
 30
0.0
 10
9.551748251
 20
34.3154909423
 30
0.0
 10
9.551748251
 20
34.9356702475
 30
0.0
  0
ENDSEC
  0
SECTION
  2
OBJECTS
  0
DICTIONARY
  5
C
100
AcDbDictionary
280
0
281
1
  3
ACAD_GROUP
350
D
  3
ACAD_MLINESTYLE
350
17
  3
ACAD_LAYOUT
350
1A
  3
ACAD_PLOTSETTINGS
350
19
  3
ACAD_PLOTSTYLENAME
350
E
  0
DICTIONARY
  5
D
102
{ACAD_REACTORS
330
C
102
}
100
AcDbDictionary
280
0
281
1
  0
ACDBDICTIONARYWDFLT
  5
E
102
{ACAD_REACTORS
330
C
102
}
100
AcDbDictionary
281
1
  3
Normal
350
F
100
AcDbDictionaryWithDefault
340
F
  0
DICTIONARY
  5
17
102
{ACAD_REACTORS
330
C
102
}
100
AcDbDictionary
280
0
281
1
  3
Standard
350
18
  0
DICTIONARY
  5
19
102
{ACAD_REACTORS
330
C
102
}
100
AcDbDictionary
281
1
  0
DICTIONARY
  5
1A
102
{ACAD_REACTORS
330
C
102
}
100
AcDbDictionary
281
1
  3
Model
350
27E
  3
Layout1
350
27F
  0
ACDBPLACEHOLDER
  5
F
102
{ACAD_REACTORS
330
E
102
}
  0
MLINESTYLE
  5
18
102
{ACAD_REACTORS
330
17
102
}
100
AcDbMlineStyle
  2
STANDARD
 70
0
  3

 62
256
 51
90.0
 52
90.0
 71
2
 49
0.5
 62
256
  6
BYLAYER
 49
-0.5
 62
256
  6
BYLAYER
  0
LAYOUT
  5
27E
102
{ACAD_REACTORS
330
1A
102
}
100
AcDbPlotSettings
  1

  2
none_device
  4

  6

 40
0.0
 41
0.0
 42
0.0
 43
0.0
 44
210.0
 45
297.0
 46
0.0
 47
0.0
 48
0.0
 49
0.0
140
0.0
141
0.0
142
1.0
143
1.0
 70
1024
 72
1
 73
0
 74
0
  7

 75
0
147
1.0
148
0.0
149
0.0
100
AcDbLayout
  1
Model
 70
0
 71
0
 10
0.0
 20
0.0
 11
210.0
 21
297.0
 12
0.0
 22
0.0
 32
0.0
 14
0.0
 24
0.0
 34
0.0
 15
0.0
 25
0.0
 35
0.0
146
0.0
 13
0.0
 23
0.0
 33
0.0
 16
1.0
 26
0.0
 36
0.0
 17
0.0
 27
1.0
 37
0.0
 76
0
330
210
345
0
346
0
  0
LAYOUT
  5
27F
102
{ACAD_REACTORS
330
1A
102
}
100
AcDbPlotSettings
  1

  2
none_device
  4

  6

 40
0.0
 41
0.0
 42
0.0
 43
0.0
 44
210.0
 45
297.0
 46
0.0
 47
0.0
 48
0.0
 49
0.0
140
0.0
141
0.0
142
1.0
143
1.0
 70
0
 72
1
 73
0
 74
0
  7

 75
0
147
1.0
148
0.0
149
0.0
100
AcDbLayout
  1
Layout1
 70
0
 71
1
 10
0.0
 20
0.0
 11
210.0
 21
297.0
 12
0.0
 22
0.0
 32
0.0
 14
0.0
 24
0.0
 34
0.0
 15
0.0
 25
0.0
 35
0.0
146
0.0
 13
0.0
 23
0.0
 33
0.0
 16
1.0
 26
0.0
 36
0.0
 17
0.0
 27
1.0
 37
0.0
 76
0
330
211
345
0
346
0
  0
ENDSEC
  0
EOF
