999
DXF file: C:\Users\sesa63760\Dev\_Creo\CAD\MCADID0003947_3D-CAD\drw0001_3.dxf
999
Pro/ENGINEER 2019471 by Parametric Technology Corporation
  0
SECTION
  2
HEADER
  9
$ACADVER
  1
AC1024
  9
$DWGCODEPAGE
  3
ANSI_1252
  9
$EXTMAX
 10
45.7118137901
 20
64.6495652174
 30
0.0
  9
$EXTMIN
 10
0.0
 20
0.0
 30
0.0
  9
$LIMMIN
 10
0.0
 20
0.0
  9
$LIMMAX
 10
45.7118137901
 20
64.6495652174
  9
$VIEWCTR
 10
22.855906895
 20
32.3247826087
  9
$VIEWSIZE
 40
64.6495652174
  9
$CLAYER
  8
0
  9
$LTSCALE
 40
4.2141938808
  9
$CELTYPE
  6
BYLAYER
  9
$DIMSCALE
 40
1.0
  9
$DIMASZ
 40
0.5441882594
  9
$DIMEXO
 40
1.0
  9
$DIMDLI
 40
2.9116248631
  9
$DIMEXE
 40
1.0
  9
$DIMCEN
 40
0.6895953623
  9
$DIMLFAC
 40
1.0
  9
$DIMBLK
  1
_FILLED
  9
$DIMALT
 70
0
  9
$DIMALTF
 40
0.0393700787
  9
$DIMTXT
 40
0.7618635632
  9
$DIMTOL
 70
1
  9
$DIMLIM
 70
0
  9
$DIMTFAC
 40
1.0
  9
$DIMTP
 40
0.01
  9
$DIMTM
 40
0.01
  9
$DIMGAP
 40
0.625
  9
$DIMDSEP
 70
46
  9
$AUNITS
 70
0
  9
$PDMODE
 70
3
  9
$PDSIZE
 40
0.3125
  9
$HANDSEED
  5
27E
  9
$TILEMODE
 70
1
  9
$MEASUREMENT
 70
1
  9
$INSUNITS
 70
4
  0
ENDSEC
  0
SECTION
  2
CLASSES
  0
CLASS
  1
ACDBDICTIONARYWDFLT
  2
AcDbDictionaryWithDefault
  3
AutoCAD 2000
 90
0
 91
1
280
0
281
0
  0
CLASS
  1
ACDBPLACEHOLDER
  2
AcDbPlaceHolder
  3
AutoCAD 2000
 90
0
 91
1
280
0
281
0
  0
CLASS
  1
LAYOUT
  2
AcDbLayout
  3
AutoCAD 2000
 90
0
 91
0
280
0
281
0
  0
ENDSEC
  0
SECTION
  2
TABLES
  0
TABLE
  2
VPORT
  5
8
100
AcDbSymbolTable
 70
2
  0
VPORT
  5
1F4
100
AcDbSymbolTableRecord
100
AcDbViewportTableRecord
  2
*ACTIVE
 70
0
 10
0.0
 20
0.0
 11
1.0
 21
1.0
 12
22.855906895
 22
32.3247826087
 13
0.0
 23
0.0
 14
1.0
 24
1.0
 15
0.0
 25
0.0
 16
0.0
 26
0.0
 36
1.0
 17
0.0
 27
0.0
 37
0.0
 40
64.6495652174
 41
0.7070707071
 42
50.0
 43
0.0
 44
0.0
 50
0.0
 51
0.0
 71
0
 72
100
 73
1
 74
1
 75
0
 76
0
 77
0
 78
0
  0
ENDTAB
  0
TABLE
  2
LTYPE
  5
5
100
AcDbSymbolTable
 70
6
  0
LTYPE
  5
14
100
AcDbSymbolTableRecord
100
AcDbLinetypeTableRecord
  2
BYBLOCK
 70
0
  3

 72
65
 73
0
 40
0.0
  0
LTYPE
  5
15
100
AcDbSymbolTableRecord
100
AcDbLinetypeTableRecord
  2
BYLAYER
 70
0
  3

 72
65
 73
0
 40
0.0
  0
LTYPE
  5
16
100
AcDbSymbolTableRecord
100
AcDbLinetypeTableRecord
  2
CONTINUOUS
 70
64
  3
Solid line
 72
65
 73
0
 40
0.0
  0
LTYPE
  5
1F5
100
AcDbSymbolTableRecord
100
AcDbLinetypeTableRecord
  2
CENTER
 70
64
  3
____ _ ____ _ ____ _ ____ _ ____ _ ____ _ ____
 72
65
 73
4
 40
0.6
 49
0.375
 74
0
 49
-0.075
 74
0
 49
0.075
 74
0
 49
-0.075
 74
0
  0
LTYPE
  5
1F6
100
AcDbSymbolTableRecord
100
AcDbLinetypeTableRecord
  2
HIDDEN
 70
64
  3
- - - - - - - - - - - - - - - - - - - -
 72
65
 73
2
 40
0.2
 49
0.1
 74
0
 49
-0.1
 74
0
  0
LTYPE
  5
1F7
100
AcDbSymbolTableRecord
100
AcDbLinetypeTableRecord
  2
PHANTOM
 70
64
  3
_____ _ _ _____ _ _ _____ _ _ _____
 72
65
 73
6
 40
0.8
 49
0.45
 74
0
 49
-0.05
 74
0
 49
0.1
 74
0
 49
-0.05
 74
0
 49
0.1
 74
0
 49
-0.05
 74
0
  0
LTYPE
  5
1F8
100
AcDbSymbolTableRecord
100
AcDbLinetypeTableRecord
  2
DOT
 70
64
  3
. . . . . . . . . . . . . . . . . . . .
 72
65
 73
2
 40
0.2
 49
0.1
 74
0
 49
-0.1
 74
0
  0
LTYPE
  5
1F9
100
AcDbSymbolTableRecord
100
AcDbLinetypeTableRecord
  2
DASHED
 70
64
  3
- - - - - - - - - - - - - - - - - - - -
 72
65
 73
2
 40
0.2
 49
0.1
 74
0
 49
-0.1
 74
0
  0
ENDTAB
  0
TABLE
  2
LAYER
  5
2
100
AcDbSymbolTable
 70
36
  0
LAYER
  5
10
100
AcDbSymbolTableRecord
100
AcDbLayerTableRecord
  2
0
 70
0
 62
7
  6
CONTINUOUS
370
-3
390
F
  0
LAYER
  5
1FA
100
AcDbSymbolTableRecord
100
AcDbLayerTableRecord
  2
DEFAULT_1
 70
0
 62
7
  6
CENTER
370
-3
390
F
  0
LAYER
  5
1FB
100
AcDbSymbolTableRecord
100
AcDbLayerTableRecord
  2
DEFAULT_2
 70
0
 62
7
  6
HIDDEN
370
-3
390
F
  0
LAYER
  5
1FC
100
AcDbSymbolTableRecord
100
AcDbLayerTableRecord
  2
DEFAULT_3
 70
0
 62
7
  6
PHANTOM
370
-3
390
F
  0
LAYER
  5
1FD
100
AcDbSymbolTableRecord
100
AcDbLayerTableRecord
  2
00_COMPONENTS
 70
0
 62
7
  6
CONTINUOUS
370
-3
390
F
  0
LAYER
  5
1FE
100
AcDbSymbolTableRecord
100
AcDbLayerTableRecord
  2
01_1_DEFAULT_DATUMS
 70
0
 62
7
  6
CONTINUOUS
370
-3
390
F
  0
LAYER
  5
1FF
100
AcDbSymbolTableRecord
100
AcDbLayerTableRecord
  2
01_PLANES
 70
0
 62
7
  6
CONTINUOUS
370
-3
390
F
  0
LAYER
  5
200
100
AcDbSymbolTableRecord
100
AcDbLayerTableRecord
  2
02_COORD_SYS
 70
0
 62
7
  6
CONTINUOUS
370
-3
390
F
  0
LAYER
  5
201
100
AcDbSymbolTableRecord
100
AcDbLayerTableRecord
  2
03_AXES
 70
0
 62
7
  6
CONTINUOUS
370
-3
390
F
  0
LAYER
  5
202
100
AcDbSymbolTableRecord
100
AcDbLayerTableRecord
  2
04_POINTS
 70
0
 62
7
  6
CONTINUOUS
370
-3
390
F
  0
LAYER
  5
203
100
AcDbSymbolTableRecord
100
AcDbLayerTableRecord
  2
05_CURVES
 70
0
 62
7
  6
CONTINUOUS
370
-3
390
F
  0
LAYER
  5
204
100
AcDbSymbolTableRecord
100
AcDbLayerTableRecord
  2
06_SURFS
 70
0
 62
7
  6
CONTINUOUS
370
-3
390
F
  0
LAYER
  5
205
100
AcDbSymbolTableRecord
100
AcDbLayerTableRecord
  2
07_COSMETICS
 70
0
 62
7
  6
CONTINUOUS
370
-3
390
F
  0
LAYER
  5
206
100
AcDbSymbolTableRecord
100
AcDbLayerTableRecord
  2
10_NOTES
 70
0
 62
7
  6
CONTINUOUS
370
-3
390
F
  0
LAYER
  5
207
100
AcDbSymbolTableRecord
100
AcDbLayerTableRecord
  2
11_NOTES_PUB
 70
0
 62
7
  6
CONTINUOUS
370
-3
390
F
  0
LAYER
  5
208
100
AcDbSymbolTableRecord
100
AcDbLayerTableRecord
  2
13_REF_GTOL
 70
0
 62
7
  6
CONTINUOUS
370
-3
390
F
  0
LAYER
  5
209
100
AcDbSymbolTableRecord
100
AcDbLayerTableRecord
  2
16_MISC
 70
0
 62
7
  6
CONTINUOUS
370
-3
390
F
  0
LAYER
  5
20A
100
AcDbSymbolTableRecord
100
AcDbLayerTableRecord
  2
17_NO_PRINT
 70
0
 62
7
  6
CONTINUOUS
370
-3
390
F
  0
LAYER
  5
20B
100
AcDbSymbolTableRecord
100
AcDbLayerTableRecord
  2
18_DATUM_CAMS_JOINTS
 70
0
 62
7
  6
CONTINUOUS
370
-3
390
F
  0
LAYER
  5
20C
100
AcDbSymbolTableRecord
100
AcDbLayerTableRecord
  2
19_DATUM_FUNCTIONAL
 70
0
 62
7
  6
CONTINUOUS
370
-3
390
F
  0
LAYER
  5
20D
100
AcDbSymbolTableRecord
100
AcDbLayerTableRecord
  2
20_DATUM_KINEMATIC_SCHEME
 70
0
 62
7
  6
CONTINUOUS
370
-3
390
F
  0
ENDTAB
  0
TABLE
  2
STYLE
  5
3
100
AcDbSymbolTable
 70
1
  0
STYLE
  5
11
100
AcDbSymbolTableRecord
100
AcDbTextStyleTableRecord
  2
STANDARD
 70
0
 40
0.0
 41
1.0
 50
0.0
 71
0
 42
0.2
  3
ARIAL.TTF
  4

  0
STYLE
  5
20E
100
AcDbSymbolTableRecord
100
AcDbTextStyleTableRecord
  2
TEXTSTYLE_1
 70
0
 40
0.0
 41
0.8
 50
0.0
 71
0
 42
0.2
  3
gdt
  4

  0
ENDTAB
  0
TABLE
  2
VIEW
  5
6
100
AcDbSymbolTable
 70
0
  0
ENDTAB
  0
TABLE
  2
UCS
  5
7
100
AcDbSymbolTable
 70
0
  0
ENDTAB
  0
TABLE
  2
APPID
  5
9
100
AcDbSymbolTable
 70
1
  0
APPID
  5
20F
100
AcDbSymbolTableRecord
100
AcDbRegAppTableRecord
  2
ACAD
 70
0
  0
ENDTAB
  0
TABLE
  2
BLOCK_RECORD
  5
1
100
AcDbSymbolTable
 70
0
  0
BLOCK_RECORD
  5
210
100
AcDbSymbolTableRecord
100
AcDbBlockTableRecord
  2
*Model_Space
  0
BLOCK_RECORD
  5
211
100
AcDbSymbolTableRecord
100
AcDbBlockTableRecord
  2
*Paper_Space
  0
BLOCK_RECORD
  5
212
100
AcDbSymbolTableRecord
100
AcDbBlockTableRecord
  2
_FILLED
  0
ENDTAB
  0
TABLE
  2
DIMSTYLE
  5
A
100
AcDbSymbolTable
 70
1
100
AcDbDimStyleTable
 71
0
  0
DIMSTYLE
105
213
100
AcDbSymbolTableRecord
100
AcDbDimStyleTableRecord
  2
STANDARD
 70
0
  3

  4

 40
1.0
 41
0.5441882594
 42
1.0
 43
0.38
 44
1.0
 45
0.0
 46
0.0
 47
0.01
 48
0.01
140
0.7618635632
141
0.09
142
0.0
143
25.4
144
1.0
145
0.0
146
1.0
147
0.625
 71
1
 72
0
 73
0
 74
0
 75
0
 76
0
 77
1
 78
8
 79
2
170
0
171
1
172
0
173
0
174
0
175
0
176
0
177
0
178
0
270
2
179
2
271
2
272
2
273
2
274
2
275
0
280
0
281
0
282
0
283
1
284
8
285
0
286
0
287
3
288
0
340
11
278
46
341
212
342
212
343
212
344
212
  0
ENDTAB
  0
ENDSEC
  0
SECTION
  2
BLOCKS
  0
BLOCK
  5
20
100
AcDbEntity
  8
0
100
AcDbBlockBegin
  2
*Model_Space
 70
0
 10
0.0
 20
0.0
 30
0.0
  3
*Model_Space
  1

  0
ENDBLK
  5
21
100
AcDbEntity
  8
0
100
AcDbBlockEnd
  0
BLOCK
  5
1C
100
AcDbEntity
  8
0
100
AcDbBlockBegin
  2
*Paper_Space
 70
0
 10
0.0
 20
0.0
 30
0.0
  3
*Paper_Space
  1

  0
ENDBLK
  5
1D
100
AcDbEntity
  8
0
100
AcDbBlockEnd
  0
BLOCK
  5
214
100
AcDbEntity
  8
0
100
AcDbBlockBegin
  2
_FILLED
 70
64
 10
0.0
 20
0.0
  3
_FILLED
  1

  0
SOLID
  5
215
100
AcDbEntity
  8
0
  6
BYBLOCK
 62
0
100
AcDbTrace
 10
0.0
 20
0.0
 11
-1.0
 21
0.25
 12
-1.0
 22
-0.25
 13
-1.0
 23
-0.25
  0
ENDBLK
  5
216
100
AcDbEntity
  8
0
  6
BYBLOCK
 62
0
100
AcDbBlockEnd
  0
ENDSEC
  0
SECTION
  2
ENTITIES
  0
LINE
  5
217
100
AcDbEntity
  8
0
100
AcDbLine
 62
7
  6
BYLAYER
 10
31.5389031643
 20
5.1830434783
 11
15.438963261
 21
5.1830434783
  0
LINE
  5
218
100
AcDbEntity
  8
0
100
AcDbLine
 62
7
  6
BYLAYER
 10
31.738963261
 20
5.3830434783
 11
24.3958811183
 21
5.3830434783
  0
LINE
  5
219
100
AcDbEntity
  8
0
100
AcDbLine
 62
7
  6
BYLAYER
 10
22.5820454036
 20
5.3830434783
 11
15.238963261
 21
5.3830434783
  0
LINE
  5
21A
100
AcDbEntity
  8
0
100
AcDbLine
 62
7
  6
BYLAYER
 10
14.688963261
 20
13.1830434783
 11
14.488963261
 21
13.3830434783
  0
LINE
  5
21B
100
AcDbEntity
  8
0
100
AcDbLine
 62
7
  6
BYLAYER
 10
32.2888019075
 20
13.1830434783
 11
14.688963261
 21
13.1830434783
  0
LINE
  5
21C
100
AcDbEntity
  8
0
100
AcDbLine
 62
7
  6
BYLAYER
 10
32.488963261
 20
13.3830434783
 11
14.488963261
 21
13.3830434783
  0
LINE
  5
21D
100
AcDbEntity
  8
0
100
AcDbLine
 62
7
  6
BYLAYER
 10
35.488963261
 20
17.1830434783
 11
11.4889632476
 21
17.1830434783
  0
LINE
  5
21E
100
AcDbEntity
  8
0
100
AcDbLine
 62
7
  6
BYLAYER
 10
11.488963261
 20
21.1830434806
 11
11.488963261
 21
17.183043476
  0
LINE
  5
21F
100
AcDbEntity
  8
0
100
AcDbLine
 62
7
  6
BYLAYER
 10
11.488963261
 20
25.183043476
 11
11.488963261
 21
29.1830434806
  0
LINE
  5
220
100
AcDbEntity
  8
0
100
AcDbLine
 62
7
  6
BYLAYER
 10
11.9219759629
 20
20.7507624426
 11
11.9219759629
 21
17.615324514
  0
LINE
  5
221
100
AcDbEntity
  8
0
100
AcDbLine
 62
7
  6
BYLAYER
 10
11.9219759629
 20
25.615324453
 11
11.9219759629
 21
28.7507625035
  0
LINE
  5
222
100
AcDbEntity
  8
0
100
AcDbLine
 62
7
  6
BYLAYER
 10
11.488963261
 20
21.1830434783
 11
35.488963261
 21
21.1830434783
  0
LINE
  5
223
100
AcDbEntity
  8
0
100
AcDbLine
 62
7
  6
BYLAYER
 10
14.488963261
 20
13.3830434783
 11
14.488963261
 21
17.1830434783
  0
LINE
  5
224
100
AcDbEntity
  8
0
100
AcDbLine
 62
7
  6
BYLAYER
 10
14.488963261
 20
21.1830434783
 11
14.488963261
 21
25.1830434783
  0
LINE
  5
225
100
AcDbEntity
  8
0
100
AcDbLine
 62
7
  6
BYLAYER
 10
14.488963261
 20
29.1830434783
 11
14.488963261
 21
36.7830434783
  0
LINE
  5
226
100
AcDbEntity
  8
0
100
AcDbLine
 62
7
  6
BYLAYER
 10
15.238963261
 20
5.3830434783
 11
15.238963261
 21
13.1830434783
  0
LINE
  5
227
100
AcDbEntity
  8
0
100
AcDbLine
 62
7
  6
BYLAYER
 10
15.488963261
 20
37.7830434783
 11
15.488963261
 21
40.6830434783
  0
LINE
  5
228
100
AcDbEntity
  8
0
100
AcDbLine
 62
7
  6
BYLAYER
 10
15.488963261
 20
40.7830434783
 11
15.488963261
 21
44.3830434783
  0
LINE
  5
229
100
AcDbEntity
  8
0
100
AcDbLine
 62
7
  6
BYLAYER
 10
15.538963261
 20
40.6830434783
 11
15.538963261
 21
40.7830434783
  0
LINE
  5
22A
100
AcDbEntity
  8
0
100
AcDbLine
 62
7
  6
BYLAYER
 10
17.1859044845
 20
47.6177731138
 11
16.738963261
 21
45.0830434783
  0
LINE
  5
22B
100
AcDbEntity
  8
0
100
AcDbLine
 62
7
  6
BYLAYER
 10
15.488963261
 20
37.7830434783
 11
14.488963261
 21
36.7830434783
  0
LINE
  5
22C
100
AcDbEntity
  8
0
100
AcDbLine
 62
7
  6
BYLAYER
 10
16.738963261
 20
44.5830434783
 11
16.738963261
 21
45.0830434782
  0
LINE
  5
22D
100
AcDbEntity
  8
0
100
AcDbLine
 62
7
  6
BYLAYER
 10
35.488963261
 20
25.1830434783
 11
11.488963261
 21
25.1830434783
  0
LINE
  5
22E
100
AcDbEntity
  8
0
100
AcDbLine
 62
7
  6
BYLAYER
 10
22.0838458259
 20
49.5935106695
 11
21.9988962546
 21
47.9725762871
  0
LINE
  5
22F
100
AcDbEntity
  8
0
100
AcDbLine
 62
7
  6
BYLAYER
 10
11.4889632476
 20
29.1830434783
 11
35.488963261
 21
29.1830434783
  0
LINE
  5
230
100
AcDbEntity
  8
0
100
AcDbLine
 62
7
  6
BYLAYER
 10
22.488963261
 20
59.7830434783
 11
22.488963261
 21
49.7830434783
  0
LINE
  5
231
100
AcDbEntity
  8
0
100
AcDbLine
 62
7
  6
BYLAYER
 10
22.5820454036
 20
5.3830434783
 11
22.5820454036
 21
13.1830434783
  0
LINE
  5
232
100
AcDbEntity
  8
0
100
AcDbLine
 62
7
  6
BYLAYER
 10
23.0559505591
 20
20.7507625044
 11
23.0559505591
 21
17.6153244521
  0
LINE
  5
233
100
AcDbEntity
  8
0
100
AcDbLine
 62
7
  6
BYLAYER
 10
23.0559505591
 20
25.6153245134
 11
23.0559505591
 21
28.7507624432
  0
LINE
  5
234
100
AcDbEntity
  8
0
100
AcDbLine
 62
7
  6
BYLAYER
 10
23.7487708821
 20
20.7251535216
 11
23.7487708821
 21
17.6409334342
  0
LINE
  5
235
100
AcDbEntity
  8
0
100
AcDbLine
 62
7
  6
BYLAYER
 10
23.7487708821
 20
25.6409334072
 11
23.7487708821
 21
28.7251535494
  0
LINE
  5
236
100
AcDbEntity
  8
0
100
AcDbLine
 62
7
  6
BYLAYER
 10
24.3958811183
 20
13.1830434783
 11
24.3958811183
 21
5.3830434783
  0
LINE
  5
237
100
AcDbEntity
  8
0
100
AcDbLine
 62
7
  6
BYLAYER
 10
24.488963261
 20
59.7830434783
 11
24.488963261
 21
49.7830434783
  0
LINE
  5
238
100
AcDbEntity
  8
0
100
AcDbLine
 62
7
  6
BYLAYER
 10
24.894080696
 20
49.5935106695
 11
24.9790302674
 21
47.9725762871
  0
LINE
  5
239
100
AcDbEntity
  8
0
100
AcDbLine
 62
7
  6
BYLAYER
 10
14.488963261
 20
36.7830434783
 11
32.488963261
 21
36.7830434783
  0
LINE
  5
23A
100
AcDbEntity
  8
0
100
AcDbLine
 62
7
  6
BYLAYER
 10
31.488963261
 20
37.7830434783
 11
15.488963261
 21
37.7830434783
  0
LINE
  5
23B
100
AcDbEntity
  8
0
100
AcDbLine
 62
7
  6
BYLAYER
 10
30.238963261
 20
44.5830434783
 11
30.238963261
 21
45.0830434782
  0
LINE
  5
23C
100
AcDbEntity
  8
0
100
AcDbLine
 62
7
  6
BYLAYER
 10
31.438963261
 20
40.6830434783
 11
31.438963261
 21
40.7830434783
  0
LINE
  5
23D
100
AcDbEntity
  8
0
100
AcDbLine
 62
7
  6
BYLAYER
 10
31.488963261
 20
37.7830434783
 11
31.488963261
 21
40.6830434783
  0
LINE
  5
23E
100
AcDbEntity
  8
0
100
AcDbLine
 62
7
  6
BYLAYER
 10
31.488963261
 20
40.7830434783
 11
31.488963261
 21
44.3830434783
  0
LINE
  5
23F
100
AcDbEntity
  8
0
100
AcDbLine
 62
7
  6
BYLAYER
 10
15.4890844138
 20
40.6830434783
 11
31.4888421081
 21
40.6830434783
  0
LINE
  5
240
100
AcDbEntity
  8
0
100
AcDbLine
 62
7
  6
BYLAYER
 10
31.738963261
 20
5.3830434783
 11
31.738963261
 21
13.1830434783
  0
LINE
  5
241
100
AcDbEntity
  8
0
100
AcDbLine
 62
7
  6
BYLAYER
 10
32.488963261
 20
13.3830434783
 11
32.488963261
 21
17.1830434783
  0
LINE
  5
242
100
AcDbEntity
  8
0
100
AcDbLine
 62
7
  6
BYLAYER
 10
32.488963261
 20
21.1830434783
 11
32.488963261
 21
25.1830434783
  0
LINE
  5
243
100
AcDbEntity
  8
0
100
AcDbLine
 62
7
  6
BYLAYER
 10
32.488963261
 20
29.1830434783
 11
32.488963261
 21
36.7830434783
  0
LINE
  5
244
100
AcDbEntity
  8
0
100
AcDbLine
 62
7
  6
BYLAYER
 10
31.4888128699
 20
40.7830434783
 11
15.488963261
 21
40.7830434783
  0
LINE
  5
245
100
AcDbEntity
  8
0
100
AcDbLine
 62
7
  6
BYLAYER
 10
31.488963261
 20
37.7830434783
 11
32.488963261
 21
36.7830434783
  0
LINE
  5
246
100
AcDbEntity
  8
0
100
AcDbLine
 62
7
  6
BYLAYER
 10
29.7920220374
 20
47.6177731138
 11
30.238963261
 21
45.0830434783
  0
LINE
  5
247
100
AcDbEntity
  8
0
100
AcDbLine
 62
7
  6
BYLAYER
 10
35.2291556399
 20
20.7251535496
 11
35.2291556399
 21
17.6409334069
  0
LINE
  5
248
100
AcDbEntity
  8
0
100
AcDbLine
 62
7
  6
BYLAYER
 10
35.2291556399
 20
25.6409334348
 11
35.2291556399
 21
28.7251535224
  0
LINE
  5
249
100
AcDbEntity
  8
0
100
AcDbLine
 62
7
  6
BYLAYER
 10
35.488963261
 20
17.1830434747
 11
35.488963261
 21
21.1830434819
  0
LINE
  5
24A
100
AcDbEntity
  8
0
100
AcDbLine
 62
7
  6
BYLAYER
 10
35.488963261
 20
25.1830434747
 11
35.488963261
 21
29.1830434819
  0
LINE
  5
24B
100
AcDbEntity
  8
0
100
AcDbLine
 62
7
  6
BYLAYER
 10
15.488963261
 20
44.3830434783
 11
31.488963261
 21
44.3830434783
  0
LINE
  5
24C
100
AcDbEntity
  8
0
100
AcDbLine
 62
7
  6
BYLAYER
 10
15.689081958
 20
44.5830434783
 11
31.2888445639
 21
44.5830434783
  0
LINE
  5
24D
100
AcDbEntity
  8
0
100
AcDbLine
 62
7
  6
BYLAYER
 10
16.738963261
 20
45.0830434783
 11
30.238963261
 21
45.0830434783
  0
LINE
  5
24E
100
AcDbEntity
  8
0
100
AcDbLine
 62
7
  6
BYLAYER
 10
17.1859044845
 20
47.6177731138
 11
29.7920220374
 21
47.6177731138
  0
LINE
  5
24F
100
AcDbEntity
  8
0
100
AcDbLine
 62
7
  6
BYLAYER
 10
17.3828660351
 20
47.7830434783
 11
29.5949014125
 21
47.7830434783
  0
LINE
  5
250
100
AcDbEntity
  8
0
100
AcDbLine
 62
7
  6
BYLAYER
 10
24.9790302674
 20
47.9725762871
 11
21.9988962546
 21
47.9725762871
  0
LINE
  5
251
100
AcDbEntity
  8
0
100
AcDbLine
 62
7
  6
BYLAYER
 10
22.0838458259
 20
49.5935106695
 11
24.894080696
 21
49.5935106695
  0
LINE
  5
252
100
AcDbEntity
  8
0
100
AcDbLine
 62
7
  6
BYLAYER
 10
22.2835717328
 20
49.7830434783
 11
24.6943547725
 21
49.7830434783
  0
LINE
  5
253
100
AcDbEntity
  8
0
100
AcDbLine
 62
7
  6
BYLAYER
 10
32.288963261
 20
13.1830434783
 11
32.488963261
 21
13.3830434783
  0
LINE
  5
254
100
AcDbEntity
  8
0
100
AcDbLine
 62
7
  6
BYLAYER
 10
22.488963261
 20
59.7830434783
 11
24.488963261
 21
59.7830434783
  0
ARC
  5
255
100
AcDbEntity
  8
0
100
AcDbCircle
 62
7
  6
BYLAYER
 10
21.5186563964
 20
-22.2234590437
 40
50.9973973432
100
AcDbArc
 50
87.4936582217
 51
88.2725821876
  0
ARC
  5
256
100
AcDbEntity
  8
0
100
AcDbCircle
 62
7
  6
BYLAYER
 10
21.5186563964
 20
-30.2234590433
 40
50.9973973428
100
AcDbArc
 50
87.4936582217
 51
88.2725821876
  0
ARC
  5
257
100
AcDbEntity
  8
0
100
AcDbCircle
 62
7
  6
BYLAYER
 10
21.5186563966
 20
76.5895459952
 40
50.9973973382
100
AcDbArc
 50
271.7274178124
 51
272.5063417784
  0
ARC
  5
258
100
AcDbEntity
  8
0
100
AcDbCircle
 62
7
  6
BYLAYER
 10
21.5186563966
 20
68.5895459948
 40
50.9973973378
100
AcDbArc
 50
271.7274178124
 51
272.5063417784
  0
ARC
  5
259
100
AcDbEntity
  8
0
100
AcDbCircle
 62
7
  6
BYLAYER
 10
12.8874794545
 20
0.7517892717
 40
20.0222657889
100
AcDbArc
 50
92.7639597498
 51
94.005259681
  0
ARC
  5
25A
100
AcDbEntity
  8
0
100
AcDbCircle
 62
7
  6
BYLAYER
 10
12.8860717611
 20
45.5904955154
 40
19.9984234299
100
AcDbArc
 50
265.9940003437
 51
267.2367802255
  0
ARC
  5
25B
100
AcDbEntity
  8
0
100
AcDbCircle
 62
7
  6
BYLAYER
 10
12.8844221216
 20
8.8034845876
 40
19.9704831906
100
AcDbArc
 50
92.7623503681
 51
94.0068690627
  0
ARC
  5
25C
100
AcDbEntity
  8
0
100
AcDbCircle
 62
7
  6
BYLAYER
 10
12.8827963935
 20
37.5351135315
 40
19.9429479474
100
AcDbArc
 50
265.9922717495
 51
267.2385088197
  0
ARC
  5
25D
100
AcDbEntity
  8
0
100
AcDbCircle
 62
7
  6
BYLAYER
 10
36.0730137815
 20
13.4946440838
 40
7.279585407
100
AcDbArc
 50
94.6018603532
 51
96.6567602309
  0
ARC
  5
25E
100
AcDbEntity
  8
0
100
AcDbCircle
 62
7
  6
BYLAYER
 10
36.0721645253
 20
32.8628268753
 40
7.2709290499
100
AcDbArc
 50
263.3420164139
 51
265.399363002
  0
ARC
  5
25F
100
AcDbEntity
  8
0
100
AcDbCircle
 62
7
  6
BYLAYER
 10
36.0703805491
 20
21.5213591378
 40
7.2527452234
100
AcDbArc
 50
94.5980576665
 51
96.6605629176
  0
ARC
  5
260
100
AcDbEntity
  8
0
100
AcDbCircle
 62
7
  6
BYLAYER
 10
36.0693984606
 20
24.8347641917
 40
7.2427349363
100
AcDbArc
 50
263.3380116192
 51
265.4033677967
  0
ARC
  5
261
100
AcDbEntity
  8
0
100
AcDbCircle
 62
7
  6
BYLAYER
 10
31.538963261
 20
5.3830434783
 40
0.2
100
AcDbArc
 50
270.0
 51
360.0
  0
ARC
  5
262
100
AcDbEntity
  8
0
100
AcDbCircle
 62
7
  6
BYLAYER
 10
15.438963261
 20
5.3830434783
 40
0.2
100
AcDbArc
 50
180.0
 51
270.0
  0
ARC
  5
263
100
AcDbEntity
  8
0
100
AcDbCircle
 62
7
  6
BYLAYER
 10
15.688963261
 20
44.3830434783
 40
0.2
100
AcDbArc
 50
90.0
 51
180.0
  0
ARC
  5
264
100
AcDbEntity
  8
0
100
AcDbCircle
 62
7
  6
BYLAYER
 10
31.288963261
 20
44.3830434783
 40
0.2
100
AcDbArc
 50
0.0
 51
90.0
  0
ARC
  5
265
100
AcDbEntity
  8
0
100
AcDbCircle
 62
7
  6
BYLAYER
 10
17.3828660351
 20
47.5830434783
 40
0.2
100
AcDbArc
 50
90.0
 51
170.0
  0
ARC
  5
266
100
AcDbEntity
  8
0
100
AcDbCircle
 62
7
  6
BYLAYER
 10
21.7991703476
 20
47.9830434783
 40
0.2
100
AcDbArc
 50
270.0
 51
357.0000000139
  0
ARC
  5
267
100
AcDbEntity
  8
0
100
AcDbCircle
 62
7
  6
BYLAYER
 10
25.1787561743
 20
47.9830434783
 40
0.2
100
AcDbArc
 50
182.9999999861
 51
270.0
  0
ARC
  5
268
100
AcDbEntity
  8
0
100
AcDbCircle
 62
7
  6
BYLAYER
 10
29.5950604868
 20
47.5830434783
 40
0.2
100
AcDbArc
 50
10.0
 51
90.0
  0
ARC
  5
269
100
AcDbEntity
  8
0
100
AcDbCircle
 62
7
  6
BYLAYER
 10
22.2835717329
 20
49.5830434783
 40
0.2
100
AcDbArc
 50
90.0
 51
177.0000000139
  0
ARC
  5
26A
100
AcDbEntity
  8
0
100
AcDbCircle
 62
7
  6
BYLAYER
 10
24.6943547891
 20
49.5830434783
 40
0.2
100
AcDbArc
 50
2.9999999861
 51
89.9999999991
  0
SPLINE
  5
26B
100
AcDbEntity
  8
0
100
AcDbSpline
 62
7
  6
BYLAYER
 70
0
 71
3
 72
11
 73
7
 74
0
 42
0.0000001
 43
0.0000001
 44
0.0000000001
 40
0.0
 40
0.0
 40
0.0
 40
0.0
 40
0.2503070893
 40
0.5003710161
 40
0.7502402897
 40
1.0
 40
1.0
 40
1.0
 40
1.0
 10
23.7487708821
 20
20.7251535216
 30
0.0
 10
24.2243606752
 20
20.7962992024
 30
0.0
 10
25.1771349587
 20
20.9252941268
 30
0.0
 10
26.6113684867
 20
21.0712408134
 30
0.0
 10
28.0491396868
 20
21.1623592953
 30
0.0
 10
29.0091329367
 20
21.1830438284
 30
0.0
 10
29.4889631856
 20
21.1830424233
 30
0.0
  0
SPLINE
  5
26C
100
AcDbEntity
  8
0
100
AcDbSpline
 62
7
  6
BYLAYER
 70
0
 71
3
 72
11
 73
7
 74
0
 42
0.0000001
 43
0.0000001
 44
0.0000000001
 40
0.0
 40
0.0
 40
0.0
 40
0.0
 40
0.2497738053
 40
0.4996501424
 40
0.7497093592
 40
1.0
 40
1.0
 40
1.0
 40
1.0
 10
17.4889631684
 20
21.1830424238
 30
0.0
 10
17.954245132
 20
21.1830431344
 30
0.0
 10
18.8851117971
 20
21.1636014545
 30
0.0
 10
20.2793854343
 20
21.0778406033
 30
0.0
 10
21.6704024226
 20
20.9401724615
 30
0.0
 10
22.5946035569
 20
20.8181649166
 30
0.0
 10
23.0559505591
 20
20.7507624432
 30
0.0
  0
SPLINE
  5
26D
100
AcDbEntity
  8
0
100
AcDbSpline
 62
7
  6
BYLAYER
 70
0
 71
3
 72
11
 73
7
 74
0
 42
0.0000001
 43
0.0000001
 44
0.0000000001
 40
0.0
 40
0.0
 40
0.0
 40
0.0
 40
0.2497610148
 40
0.4996305173
 40
0.7496940754
 40
1.0
 40
1.0
 40
1.0
 40
1.0
 10
29.4889631512
 20
17.1830445333
 30
0.0
 10
29.0091304618
 20
17.1830436458
 30
0.0
 10
28.0491347962
 20
17.2037381402
 30
0.0
 10
26.6113604761
 20
17.2948428034
 30
0.0
 10
25.1771324902
 20
17.4408161126
 30
0.0
 10
24.2243583972
 20
17.5697880941
 30
0.0
 10
23.7487708821
 20
17.6409334342
 30
0.0
  0
SPLINE
  5
26E
100
AcDbEntity
  8
0
100
AcDbSpline
 62
7
  6
BYLAYER
 70
0
 71
3
 72
11
 73
7
 74
0
 42
0.0000001
 43
0.0000001
 44
0.0000000001
 40
0.0
 40
0.0
 40
0.0
 40
0.0
 40
0.2502906423
 40
0.5003498602
 40
0.7502261965
 40
1.0
 40
1.0
 40
1.0
 40
1.0
 10
23.0559505591
 20
17.6153245134
 30
0.0
 10
22.5946035542
 20
17.5479220395
 30
0.0
 10
21.670402416
 20
17.4259144867
 30
0.0
 10
20.2793854231
 20
17.288246356
 30
0.0
 10
18.8851117888
 20
17.2024855033
 30
0.0
 10
17.9542451287
 20
17.1830438221
 30
0.0
 10
17.4889631684
 20
17.1830445327
 30
0.0
  0
SPLINE
  5
26F
100
AcDbEntity
  8
0
100
AcDbSpline
 62
7
  6
BYLAYER
 70
0
 71
3
 72
11
 73
7
 74
0
 42
0.0000001
 43
0.0000001
 44
0.0000000001
 40
0.0
 40
0.0
 40
0.0
 40
0.0
 40
0.2497610148
 40
0.4996305173
 40
0.7496940754
 40
1.0
 40
1.0
 40
1.0
 40
1.0
 10
29.4889631856
 20
21.1830424233
 30
0.0
 10
29.9687958905
 20
21.1830433134
 30
0.0
 10
30.9287915867
 20
21.1623488115
 30
0.0
 10
32.3665659538
 20
21.071244164
 30
0.0
 10
33.8007939865
 20
20.925270855
 30
0.0
 10
34.7535681095
 20
20.7962988648
 30
0.0
 10
35.2291556399
 20
20.7251535224
 30
0.0
  0
SPLINE
  5
270
100
AcDbEntity
  8
0
100
AcDbSpline
 62
7
  6
BYLAYER
 70
0
 71
3
 72
11
 73
7
 74
0
 42
0.0000001
 43
0.0000001
 44
0.0000000001
 40
0.0
 40
0.0
 40
0.0
 40
0.0
 40
0.2502906423
 40
0.5003498602
 40
0.7502261965
 40
1.0
 40
1.0
 40
1.0
 40
1.0
 10
11.9219759629
 20
20.7507624426
 30
0.0
 10
12.3833229524
 20
20.8181649142
 30
0.0
 10
13.3075240607
 20
20.9401724581
 30
0.0
 10
14.6985410066
 20
21.0778405913
 30
0.0
 10
16.092814594
 20
21.1636014572
 30
0.0
 10
17.0236812235
 20
21.1830431319
 30
0.0
 10
17.4889631684
 20
21.1830424238
 30
0.0
  0
SPLINE
  5
271
100
AcDbEntity
  8
0
100
AcDbSpline
 62
7
  6
BYLAYER
 70
0
 71
3
 72
11
 73
7
 74
0
 42
0.0000001
 43
0.0000001
 44
0.0000000001
 40
0.0
 40
0.0
 40
0.0
 40
0.0
 40
0.2497738053
 40
0.4996501424
 40
0.7497093592
 40
1.0
 40
1.0
 40
1.0
 40
1.0
 10
17.4889631684
 20
17.1830445327
 30
0.0
 10
17.0236812202
 20
17.1830438247
 30
0.0
 10
16.0928145858
 20
17.202485498
 30
0.0
 10
14.6985409954
 20
17.2882463624
 30
0.0
 10
13.307524054
 20
17.4259145067
 30
0.0
 10
12.3833229497
 20
17.5479220427
 30
0.0
 10
11.9219759629
 20
17.615324514
 30
0.0
  0
SPLINE
  5
272
100
AcDbEntity
  8
0
100
AcDbSpline
 62
7
  6
BYLAYER
 70
0
 71
3
 72
11
 73
7
 74
0
 42
0.0000001
 43
0.0000001
 44
0.0000000001
 40
0.0
 40
0.0
 40
0.0
 40
0.0
 40
0.2503070893
 40
0.5003710161
 40
0.7502402897
 40
1.0
 40
1.0
 40
1.0
 40
1.0
 10
35.2291556399
 20
17.6409334348
 30
0.0
 10
34.7535658315
 20
17.5697877517
 30
0.0
 10
33.8007915173
 20
17.4407928237
 30
0.0
 10
32.366557943
 20
17.2948461348
 30
0.0
 10
30.9287866964
 20
17.2037276546
 30
0.0
 10
29.9687934156
 20
17.1830431255
 30
0.0
 10
29.4889631512
 20
17.1830445333
 30
0.0
  0
SPLINE
  5
273
100
AcDbEntity
  8
0
100
AcDbSpline
 62
7
  6
BYLAYER
 70
0
 71
3
 72
11
 73
7
 74
0
 42
0.0000001
 43
0.0000001
 44
0.0000000001
 40
0.0
 40
0.0
 40
0.0
 40
0.0
 40
0.2503070893
 40
0.5003710161
 40
0.7502402897
 40
1.0
 40
1.0
 40
1.0
 40
1.0
 10
35.2291556399
 20
25.6409334348
 30
0.0
 10
34.7535658315
 20
25.5697877517
 30
0.0
 10
33.8007915173
 20
25.4407928237
 30
0.0
 10
32.366557943
 20
25.2948461348
 30
0.0
 10
30.9287866964
 20
25.2037276546
 30
0.0
 10
29.9687934156
 20
25.1830431255
 30
0.0
 10
29.4889631512
 20
25.1830445333
 30
0.0
  0
SPLINE
  5
274
100
AcDbEntity
  8
0
100
AcDbSpline
 62
7
  6
BYLAYER
 70
0
 71
3
 72
11
 73
7
 74
0
 42
0.0000001
 43
0.0000001
 44
0.0000000001
 40
0.0
 40
0.0
 40
0.0
 40
0.0
 40
0.2497610148
 40
0.4996305173
 40
0.7496940754
 40
1.0
 40
1.0
 40
1.0
 40
1.0
 10
29.4889631856
 20
29.1830424233
 30
0.0
 10
29.9687958905
 20
29.1830433134
 30
0.0
 10
30.9287915867
 20
29.1623488115
 30
0.0
 10
32.3665659538
 20
29.071244164
 30
0.0
 10
33.8007939865
 20
28.925270855
 30
0.0
 10
34.7535681095
 20
28.7962988648
 30
0.0
 10
35.2291556399
 20
28.7251535224
 30
0.0
  0
SPLINE
  5
275
100
AcDbEntity
  8
0
100
AcDbSpline
 62
7
  6
BYLAYER
 70
0
 71
3
 72
11
 73
7
 74
0
 42
0.0000001
 43
0.0000001
 44
0.0000000001
 40
0.0
 40
0.0
 40
0.0
 40
0.0
 40
0.2497610148
 40
0.4996305173
 40
0.7496940754
 40
1.0
 40
1.0
 40
1.0
 40
1.0
 10
29.4889631512
 20
25.1830445333
 30
0.0
 10
29.0091304618
 20
25.1830436458
 30
0.0
 10
28.0491347962
 20
25.2037381402
 30
0.0
 10
26.6113604761
 20
25.2948428034
 30
0.0
 10
25.1771324902
 20
25.4408161126
 30
0.0
 10
24.2243583972
 20
25.5697880941
 30
0.0
 10
23.7487708821
 20
25.6409334342
 30
0.0
  0
SPLINE
  5
276
100
AcDbEntity
  8
0
100
AcDbSpline
 62
7
  6
BYLAYER
 70
0
 71
3
 72
11
 73
7
 74
0
 42
0.0000001
 43
0.0000001
 44
0.0000000001
 40
0.0
 40
0.0
 40
0.0
 40
0.0
 40
0.2502906423
 40
0.5003498602
 40
0.7502261965
 40
1.0
 40
1.0
 40
1.0
 40
1.0
 10
23.0559505591
 20
25.6153245134
 30
0.0
 10
22.5946035542
 20
25.5479220395
 30
0.0
 10
21.670402416
 20
25.4259144867
 30
0.0
 10
20.2793854231
 20
25.288246356
 30
0.0
 10
18.8851117888
 20
25.2024855033
 30
0.0
 10
17.9542451287
 20
25.1830438221
 30
0.0
 10
17.4889631684
 20
25.1830445327
 30
0.0
  0
SPLINE
  5
277
100
AcDbEntity
  8
0
100
AcDbSpline
 62
7
  6
BYLAYER
 70
0
 71
3
 72
11
 73
7
 74
0
 42
0.0000001
 43
0.0000001
 44
0.0000000001
 40
0.0
 40
0.0
 40
0.0
 40
0.0
 40
0.2503070893
 40
0.5003710161
 40
0.7502402897
 40
1.0
 40
1.0
 40
1.0
 40
1.0
 10
23.7487708821
 20
28.7251535216
 30
0.0
 10
24.2243606752
 20
28.7962992024
 30
0.0
 10
25.1771349587
 20
28.9252941268
 30
0.0
 10
26.6113684867
 20
29.0712408134
 30
0.0
 10
28.0491396868
 20
29.1623592953
 30
0.0
 10
29.0091329367
 20
29.1830438284
 30
0.0
 10
29.4889631856
 20
29.1830424233
 30
0.0
  0
SPLINE
  5
278
100
AcDbEntity
  8
0
100
AcDbSpline
 62
7
  6
BYLAYER
 70
0
 71
3
 72
11
 73
7
 74
0
 42
0.0000001
 43
0.0000001
 44
0.0000000001
 40
0.0
 40
0.0
 40
0.0
 40
0.0
 40
0.2497738053
 40
0.4996501424
 40
0.7497093592
 40
1.0
 40
1.0
 40
1.0
 40
1.0
 10
17.4889631684
 20
29.1830424238
 30
0.0
 10
17.954245132
 20
29.1830431344
 30
0.0
 10
18.8851117971
 20
29.1636014545
 30
0.0
 10
20.2793854343
 20
29.0778406033
 30
0.0
 10
21.6704024226
 20
28.9401724615
 30
0.0
 10
22.5946035569
 20
28.8181649166
 30
0.0
 10
23.0559505591
 20
28.7507624432
 30
0.0
  0
SPLINE
  5
279
100
AcDbEntity
  8
0
100
AcDbSpline
 62
7
  6
BYLAYER
 70
0
 71
3
 72
11
 73
7
 74
0
 42
0.0000001
 43
0.0000001
 44
0.0000000001
 40
0.0
 40
0.0
 40
0.0
 40
0.0
 40
0.2502906423
 40
0.5003498602
 40
0.7502261965
 40
1.0
 40
1.0
 40
1.0
 40
1.0
 10
11.9219759629
 20
28.7507624426
 30
0.0
 10
12.3833229524
 20
28.8181649142
 30
0.0
 10
13.3075240607
 20
28.9401724581
 30
0.0
 10
14.6985410066
 20
29.0778405913
 30
0.0
 10
16.092814594
 20
29.1636014572
 30
0.0
 10
17.0236812235
 20
29.1830431319
 30
0.0
 10
17.4889631684
 20
29.1830424238
 30
0.0
  0
SPLINE
  5
27A
100
AcDbEntity
  8
0
100
AcDbSpline
 62
7
  6
BYLAYER
 70
0
 71
3
 72
11
 73
7
 74
0
 42
0.0000001
 43
0.0000001
 44
0.0000000001
 40
0.0
 40
0.0
 40
0.0
 40
0.0
 40
0.2497738053
 40
0.4996501424
 40
0.7497093592
 40
1.0
 40
1.0
 40
1.0
 40
1.0
 10
17.4889631684
 20
25.1830445327
 30
0.0
 10
17.0236812202
 20
25.1830438247
 30
0.0
 10
16.0928145858
 20
25.202485498
 30
0.0
 10
14.6985409954
 20
25.2882463624
 30
0.0
 10
13.307524054
 20
25.4259145067
 30
0.0
 10
12.3833229497
 20
25.5479220427
 30
0.0
 10
11.9219759629
 20
25.615324514
 30
0.0
  0
SPLINE
  5
27B
100
AcDbEntity
  8
0
100
AcDbSpline
 62
7
  6
BYLAYER
 70
0
 71
3
 72
43
 73
39
 74
0
 42
0.0000001
 43
0.0000001
 44
0.0000000001
 40
0.0
 40
0.0
 40
0.0
 40
0.0
 40
0.0078231538
 40
0.0156595976
 40
0.0195741391
 40
0.0234847119
 40
0.0312964955
 40
0.0391105991
 40
0.0469250785
 40
0.0625474788
 40
0.0781709395
 40
0.093794565
 40
0.1094183114
 40
0.1250420692
 40
0.1562886652
 40
0.187535676
 40
0.2500277852
 40
0.3125212832
 40
0.3750153579
 40
0.4375096743
 40
0.5000040564
 40
0.5624984578
 40
0.6249928065
 40
0.6874868423
 40
0.7499803216
 40
0.8124725241
 40
0.8437195722
 40
0.8749660135
 40
0.9062114757
 40
0.9218350949
 40
0.9374588687
 40
0.9530822057
 40
0.9687011952
 40
0.9765164248
 40
0.9804250933
 40
0.9843377391
 40
0.9921771517
 40
1.0
 40
1.0
 40
1.0
 40
1.0
 10
24.3958811183
 20
5.3830434783
 30
0.0
 10
24.3958811183
 20
5.3781628653
 30
0.0
 10
24.3921956167
 20
5.3684402036
 30
0.0
 10
24.3836867336
 20
5.3595398785
 30
0.0
 10
24.3759403856
 20
5.3535734003
 30
0.0
 10
24.3678867142
 20
5.3480607362
 30
0.0
 10
24.357257186
 20
5.3420461371
 30
0.0
 10
24.3439230896
 20
5.3360151058
 30
0.0
 10
24.3257660579
 20
5.3289013544
 30
0.0
 10
24.3026427019
 20
5.3211625509
 30
0.0
 10
24.2744702051
 20
5.3132968628
 30
0.0
 10
24.245999146
 20
5.3066056161
 30
0.0
 10
24.2173676808
 20
5.3006527285
 30
0.0
 10
24.1790237782
 20
5.2935795003
 30
0.0
 10
24.1308560695
 20
5.2861027287
 30
0.0
 10
24.0535000886
 20
5.2762501492
 30
0.0
 10
23.9564446563
 20
5.2670342226
 30
0.0
 10
23.8397252459
 20
5.2593368912
 30
0.0
 10
23.7228622935
 20
5.2542838456
 30
0.0
 10
23.6059290635
 20
5.2513505571
 30
0.0
 10
23.4889627072
 20
5.25040308
 30
0.0
 10
23.3719971182
 20
5.2513872951
 30
0.0
 10
23.255062572
 20
5.2542643976
 30
0.0
 10
23.1381990811
 20
5.2593065321
 30
0.0
 10
23.0214797877
 20
5.2670266279
 30
0.0
 10
22.9244332801
 20
5.2763098579
 30
0.0
 10
22.8470604195
 20
5.2860334361
 30
0.0
 10
22.789259629
 20
5.2949906712
 30
0.0
 10
22.7414147096
 20
5.3043619762
 30
0.0
 10
22.7034907753
 20
5.3134313889
 30
0.0
 10
22.6752889013
 20
5.3211767451
 30
0.0
 10
22.6474361525
 20
5.3301312467
 30
0.0
 10
22.6249957059
 20
5.3397837699
 30
0.0
 10
22.6100988331
 20
5.3481422494
 30
0.0
 10
22.6019945336
 20
5.3535810228
 30
0.0
 10
22.5942279218
 20
5.3595234309
 30
0.0
 10
22.5857404628
 20
5.3684455734
 30
0.0
 10
22.5820454036
 20
5.3781630559
 30
0.0
 10
22.5820454036
 20
5.3830434783
 30
0.0
  0
ENDSEC
  0
SECTION
  2
OBJECTS
  0
DICTIONARY
  5
C
100
AcDbDictionary
280
0
281
1
  3
ACAD_GROUP
350
D
  3
ACAD_MLINESTYLE
350
17
  3
ACAD_LAYOUT
350
1A
  3
ACAD_PLOTSETTINGS
350
19
  3
ACAD_PLOTSTYLENAME
350
E
  0
DICTIONARY
  5
D
102
{ACAD_REACTORS
330
C
102
}
100
AcDbDictionary
280
0
281
1
  0
ACDBDICTIONARYWDFLT
  5
E
102
{ACAD_REACTORS
330
C
102
}
100
AcDbDictionary
281
1
  3
Normal
350
F
100
AcDbDictionaryWithDefault
340
F
  0
DICTIONARY
  5
17
102
{ACAD_REACTORS
330
C
102
}
100
AcDbDictionary
280
0
281
1
  3
Standard
350
18
  0
DICTIONARY
  5
19
102
{ACAD_REACTORS
330
C
102
}
100
AcDbDictionary
281
1
  0
DICTIONARY
  5
1A
102
{ACAD_REACTORS
330
C
102
}
100
AcDbDictionary
281
1
  3
Model
350
27C
  3
Layout1
350
27D
  0
ACDBPLACEHOLDER
  5
F
102
{ACAD_REACTORS
330
E
102
}
  0
MLINESTYLE
  5
18
102
{ACAD_REACTORS
330
17
102
}
100
AcDbMlineStyle
  2
STANDARD
 70
0
  3

 62
256
 51
90.0
 52
90.0
 71
2
 49
0.5
 62
256
  6
BYLAYER
 49
-0.5
 62
256
  6
BYLAYER
  0
LAYOUT
  5
27C
102
{ACAD_REACTORS
330
1A
102
}
100
AcDbPlotSettings
  1

  2
none_device
  4

  6

 40
0.0
 41
0.0
 42
0.0
 43
0.0
 44
210.0
 45
297.0
 46
0.0
 47
0.0
 48
0.0
 49
0.0
140
0.0
141
0.0
142
1.0
143
1.0
 70
1024
 72
1
 73
0
 74
0
  7

 75
0
147
1.0
148
0.0
149
0.0
100
AcDbLayout
  1
Model
 70
0
 71
0
 10
0.0
 20
0.0
 11
210.0
 21
297.0
 12
0.0
 22
0.0
 32
0.0
 14
0.0
 24
0.0
 34
0.0
 15
0.0
 25
0.0
 35
0.0
146
0.0
 13
0.0
 23
0.0
 33
0.0
 16
1.0
 26
0.0
 36
0.0
 17
0.0
 27
1.0
 37
0.0
 76
0
330
210
345
0
346
0
  0
LAYOUT
  5
27D
102
{ACAD_REACTORS
330
1A
102
}
100
AcDbPlotSettings
  1

  2
none_device
  4

  6

 40
0.0
 41
0.0
 42
0.0
 43
0.0
 44
210.0
 45
297.0
 46
0.0
 47
0.0
 48
0.0
 49
0.0
140
0.0
141
0.0
142
1.0
143
1.0
 70
0
 72
1
 73
0
 74
0
  7

 75
0
147
1.0
148
0.0
149
0.0
100
AcDbLayout
  1
Layout1
 70
0
 71
1
 10
0.0
 20
0.0
 11
210.0
 21
297.0
 12
0.0
 22
0.0
 32
0.0
 14
0.0
 24
0.0
 34
0.0
 15
0.0
 25
0.0
 35
0.0
146
0.0
 13
0.0
 23
0.0
 33
0.0
 16
1.0
 26
0.0
 36
0.0
 17
0.0
 27
1.0
 37
0.0
 76
0
330
211
345
0
346
0
  0
ENDSEC
  0
EOF
