999
DXF file: C:\Users\sesa63760\Dev\_Creo\CAD\MCADID0005473_3D-CAD\drw0001_1.dxf
999
Pro/ENGINEER 2019471 by Parametric Technology Corporation
  0
SECTION
  2
HEADER
  9
$ACADVER
  1
AC1024
  9
$DWGCODEPAGE
  3
ANSI_1252
  9
$EXTMAX
 10
73.5525458081
 20
104.0243147857
 30
0.0
  9
$EXTMIN
 10
0.0
 20
0.0
 30
0.0
  9
$LIMMIN
 10
0.0
 20
0.0
  9
$LIMMAX
 10
73.5525458081
 20
104.0243147857
  9
$VIEWCTR
 10
36.776272904
 20
52.0121573928
  9
$VIEWSIZE
 40
104.0243147857
  9
$CLAYER
  8
0
  9
$LTSCALE
 40
6.7808442231
  9
$CELTYPE
  6
BYLAYER
  9
$DIMSCALE
 40
1.0
  9
$DIMASZ
 40
0.8756255453
  9
$DIMEXO
 40
1.0
  9
$DIMDLI
 40
4.6849469178
  9
$DIMEXE
 40
1.0
  9
$DIMCEN
 40
1.109592691
  9
$DIMLFAC
 40
1.0
  9
$DIMBLK
  1
_FILLED
  9
$DIMALT
 70
0
  9
$DIMALTF
 40
0.0393700787
  9
$DIMTXT
 40
1.2258757635
  9
$DIMTOL
 70
1
  9
$DIMLIM
 70
0
  9
$DIMTFAC
 40
1.0
  9
$DIMTP
 40
0.01
  9
$DIMTM
 40
0.01
  9
$DIMGAP
 40
0.625
  9
$DIMDSEP
 70
46
  9
$AUNITS
 70
0
  9
$PDMODE
 70
3
  9
$PDSIZE
 40
0.3125
  9
$HANDSEED
  5
251
  9
$TILEMODE
 70
1
  9
$MEASUREMENT
 70
1
  9
$INSUNITS
 70
4
  0
ENDSEC
  0
SECTION
  2
CLASSES
  0
CLASS
  1
ACDBDICTIONARYWDFLT
  2
AcDbDictionaryWithDefault
  3
AutoCAD 2000
 90
0
 91
1
280
0
281
0
  0
CLASS
  1
ACDBPLACEHOLDER
  2
AcDbPlaceHolder
  3
AutoCAD 2000
 90
0
 91
1
280
0
281
0
  0
CLASS
  1
LAYOUT
  2
AcDbLayout
  3
AutoCAD 2000
 90
0
 91
0
280
0
281
0
  0
ENDSEC
  0
SECTION
  2
TABLES
  0
TABLE
  2
VPORT
  5
8
100
AcDbSymbolTable
 70
2
  0
VPORT
  5
1F4
100
AcDbSymbolTableRecord
100
AcDbViewportTableRecord
  2
*ACTIVE
 70
0
 10
0.0
 20
0.0
 11
1.0
 21
1.0
 12
36.776272904
 22
52.0121573928
 13
0.0
 23
0.0
 14
1.0
 24
1.0
 15
0.0
 25
0.0
 16
0.0
 26
0.0
 36
1.0
 17
0.0
 27
0.0
 37
0.0
 40
104.0243147857
 41
0.7070707071
 42
50.0
 43
0.0
 44
0.0
 50
0.0
 51
0.0
 71
0
 72
100
 73
1
 74
1
 75
0
 76
0
 77
0
 78
0
  0
ENDTAB
  0
TABLE
  2
LTYPE
  5
5
100
AcDbSymbolTable
 70
6
  0
LTYPE
  5
14
100
AcDbSymbolTableRecord
100
AcDbLinetypeTableRecord
  2
BYBLOCK
 70
0
  3

 72
65
 73
0
 40
0.0
  0
LTYPE
  5
15
100
AcDbSymbolTableRecord
100
AcDbLinetypeTableRecord
  2
BYLAYER
 70
0
  3

 72
65
 73
0
 40
0.0
  0
LTYPE
  5
16
100
AcDbSymbolTableRecord
100
AcDbLinetypeTableRecord
  2
CONTINUOUS
 70
64
  3
Solid line
 72
65
 73
0
 40
0.0
  0
LTYPE
  5
1F5
100
AcDbSymbolTableRecord
100
AcDbLinetypeTableRecord
  2
CENTER
 70
64
  3
____ _ ____ _ ____ _ ____ _ ____ _ ____ _ ____
 72
65
 73
4
 40
0.6
 49
0.375
 74
0
 49
-0.075
 74
0
 49
0.075
 74
0
 49
-0.075
 74
0
  0
LTYPE
  5
1F6
100
AcDbSymbolTableRecord
100
AcDbLinetypeTableRecord
  2
HIDDEN
 70
64
  3
- - - - - - - - - - - - - - - - - - - -
 72
65
 73
2
 40
0.2
 49
0.1
 74
0
 49
-0.1
 74
0
  0
LTYPE
  5
1F7
100
AcDbSymbolTableRecord
100
AcDbLinetypeTableRecord
  2
PHANTOM
 70
64
  3
_____ _ _ _____ _ _ _____ _ _ _____
 72
65
 73
6
 40
0.8
 49
0.45
 74
0
 49
-0.05
 74
0
 49
0.1
 74
0
 49
-0.05
 74
0
 49
0.1
 74
0
 49
-0.05
 74
0
  0
LTYPE
  5
1F8
100
AcDbSymbolTableRecord
100
AcDbLinetypeTableRecord
  2
DOT
 70
64
  3
. . . . . . . . . . . . . . . . . . . .
 72
65
 73
2
 40
0.2
 49
0.1
 74
0
 49
-0.1
 74
0
  0
LTYPE
  5
1F9
100
AcDbSymbolTableRecord
100
AcDbLinetypeTableRecord
  2
DASHED
 70
64
  3
- - - - - - - - - - - - - - - - - - - -
 72
65
 73
2
 40
0.2
 49
0.1
 74
0
 49
-0.1
 74
0
  0
ENDTAB
  0
TABLE
  2
LAYER
  5
2
100
AcDbSymbolTable
 70
36
  0
LAYER
  5
10
100
AcDbSymbolTableRecord
100
AcDbLayerTableRecord
  2
0
 70
0
 62
7
  6
CONTINUOUS
370
-3
390
F
  0
LAYER
  5
1FA
100
AcDbSymbolTableRecord
100
AcDbLayerTableRecord
  2
DEFAULT_1
 70
0
 62
7
  6
CENTER
370
-3
390
F
  0
LAYER
  5
1FB
100
AcDbSymbolTableRecord
100
AcDbLayerTableRecord
  2
DEFAULT_2
 70
0
 62
7
  6
HIDDEN
370
-3
390
F
  0
LAYER
  5
1FC
100
AcDbSymbolTableRecord
100
AcDbLayerTableRecord
  2
DEFAULT_3
 70
0
 62
7
  6
PHANTOM
370
-3
390
F
  0
LAYER
  5
1FD
100
AcDbSymbolTableRecord
100
AcDbLayerTableRecord
  2
00_COMPONENTS
 70
0
 62
7
  6
CONTINUOUS
370
-3
390
F
  0
LAYER
  5
1FE
100
AcDbSymbolTableRecord
100
AcDbLayerTableRecord
  2
01_1_DEFAULT_DATUMS
 70
0
 62
7
  6
CONTINUOUS
370
-3
390
F
  0
LAYER
  5
1FF
100
AcDbSymbolTableRecord
100
AcDbLayerTableRecord
  2
01_PLANES
 70
0
 62
7
  6
CONTINUOUS
370
-3
390
F
  0
LAYER
  5
200
100
AcDbSymbolTableRecord
100
AcDbLayerTableRecord
  2
02_COORD_SYS
 70
0
 62
7
  6
CONTINUOUS
370
-3
390
F
  0
LAYER
  5
201
100
AcDbSymbolTableRecord
100
AcDbLayerTableRecord
  2
03_AXES
 70
0
 62
7
  6
CONTINUOUS
370
-3
390
F
  0
LAYER
  5
202
100
AcDbSymbolTableRecord
100
AcDbLayerTableRecord
  2
04_POINTS
 70
0
 62
7
  6
CONTINUOUS
370
-3
390
F
  0
LAYER
  5
203
100
AcDbSymbolTableRecord
100
AcDbLayerTableRecord
  2
05_CURVES
 70
0
 62
7
  6
CONTINUOUS
370
-3
390
F
  0
LAYER
  5
204
100
AcDbSymbolTableRecord
100
AcDbLayerTableRecord
  2
06_SURFS
 70
0
 62
7
  6
CONTINUOUS
370
-3
390
F
  0
LAYER
  5
205
100
AcDbSymbolTableRecord
100
AcDbLayerTableRecord
  2
07_COSMETICS
 70
0
 62
7
  6
CONTINUOUS
370
-3
390
F
  0
LAYER
  5
206
100
AcDbSymbolTableRecord
100
AcDbLayerTableRecord
  2
10_NOTES
 70
0
 62
7
  6
CONTINUOUS
370
-3
390
F
  0
LAYER
  5
207
100
AcDbSymbolTableRecord
100
AcDbLayerTableRecord
  2
11_NOTES_PUB
 70
0
 62
7
  6
CONTINUOUS
370
-3
390
F
  0
LAYER
  5
208
100
AcDbSymbolTableRecord
100
AcDbLayerTableRecord
  2
13_REF_GTOL
 70
0
 62
7
  6
CONTINUOUS
370
-3
390
F
  0
LAYER
  5
209
100
AcDbSymbolTableRecord
100
AcDbLayerTableRecord
  2
16_MISC
 70
0
 62
7
  6
CONTINUOUS
370
-3
390
F
  0
LAYER
  5
20A
100
AcDbSymbolTableRecord
100
AcDbLayerTableRecord
  2
17_NO_PRINT
 70
0
 62
7
  6
CONTINUOUS
370
-3
390
F
  0
LAYER
  5
20B
100
AcDbSymbolTableRecord
100
AcDbLayerTableRecord
  2
18_DATUM_CAMS_JOINTS
 70
0
 62
7
  6
CONTINUOUS
370
-3
390
F
  0
LAYER
  5
20C
100
AcDbSymbolTableRecord
100
AcDbLayerTableRecord
  2
19_DATUM_FUNCTIONAL
 70
0
 62
7
  6
CONTINUOUS
370
-3
390
F
  0
LAYER
  5
20D
100
AcDbSymbolTableRecord
100
AcDbLayerTableRecord
  2
20_DATUM_KINEMATIC_SCHEME
 70
0
 62
7
  6
CONTINUOUS
370
-3
390
F
  0
ENDTAB
  0
TABLE
  2
STYLE
  5
3
100
AcDbSymbolTable
 70
1
  0
STYLE
  5
11
100
AcDbSymbolTableRecord
100
AcDbTextStyleTableRecord
  2
STANDARD
 70
0
 40
0.0
 41
1.0
 50
0.0
 71
0
 42
0.2
  3
ARIAL.TTF
  4

  0
STYLE
  5
20E
100
AcDbSymbolTableRecord
100
AcDbTextStyleTableRecord
  2
TEXTSTYLE_1
 70
0
 40
0.0
 41
0.8
 50
0.0
 71
0
 42
0.2
  3
gdt
  4

  0
ENDTAB
  0
TABLE
  2
VIEW
  5
6
100
AcDbSymbolTable
 70
0
  0
ENDTAB
  0
TABLE
  2
UCS
  5
7
100
AcDbSymbolTable
 70
0
  0
ENDTAB
  0
TABLE
  2
APPID
  5
9
100
AcDbSymbolTable
 70
1
  0
APPID
  5
20F
100
AcDbSymbolTableRecord
100
AcDbRegAppTableRecord
  2
ACAD
 70
0
  0
ENDTAB
  0
TABLE
  2
BLOCK_RECORD
  5
1
100
AcDbSymbolTable
 70
0
  0
BLOCK_RECORD
  5
210
100
AcDbSymbolTableRecord
100
AcDbBlockTableRecord
  2
*Model_Space
  0
BLOCK_RECORD
  5
211
100
AcDbSymbolTableRecord
100
AcDbBlockTableRecord
  2
*Paper_Space
  0
BLOCK_RECORD
  5
212
100
AcDbSymbolTableRecord
100
AcDbBlockTableRecord
  2
_FILLED
  0
ENDTAB
  0
TABLE
  2
DIMSTYLE
  5
A
100
AcDbSymbolTable
 70
1
100
AcDbDimStyleTable
 71
0
  0
DIMSTYLE
105
213
100
AcDbSymbolTableRecord
100
AcDbDimStyleTableRecord
  2
STANDARD
 70
0
  3

  4

 40
1.0
 41
0.8756255453
 42
1.0
 43
0.38
 44
1.0
 45
0.0
 46
0.0
 47
0.01
 48
0.01
140
1.2258757635
141
0.09
142
0.0
143
25.4
144
1.0
145
0.0
146
1.0
147
0.625
 71
1
 72
0
 73
0
 74
0
 75
0
 76
0
 77
1
 78
8
 79
2
170
0
171
1
172
0
173
0
174
0
175
0
176
0
177
0
178
0
270
2
179
2
271
2
272
2
273
2
274
2
275
0
280
0
281
0
282
0
283
1
284
8
285
0
286
0
287
3
288
0
340
11
278
46
341
212
342
212
343
212
344
212
  0
ENDTAB
  0
ENDSEC
  0
SECTION
  2
BLOCKS
  0
BLOCK
  5
20
100
AcDbEntity
  8
0
100
AcDbBlockBegin
  2
*Model_Space
 70
0
 10
0.0
 20
0.0
 30
0.0
  3
*Model_Space
  1

  0
ENDBLK
  5
21
100
AcDbEntity
  8
0
100
AcDbBlockEnd
  0
BLOCK
  5
1C
100
AcDbEntity
  8
0
100
AcDbBlockBegin
  2
*Paper_Space
 70
0
 10
0.0
 20
0.0
 30
0.0
  3
*Paper_Space
  1

  0
ENDBLK
  5
1D
100
AcDbEntity
  8
0
100
AcDbBlockEnd
  0
BLOCK
  5
214
100
AcDbEntity
  8
0
100
AcDbBlockBegin
  2
_FILLED
 70
64
 10
0.0
 20
0.0
  3
_FILLED
  1

  0
SOLID
  5
215
100
AcDbEntity
  8
0
  6
BYBLOCK
 62
0
100
AcDbTrace
 10
0.0
 20
0.0
 11
-1.0
 21
0.25
 12
-1.0
 22
-0.25
 13
-1.0
 23
-0.25
  0
ENDBLK
  5
216
100
AcDbEntity
  8
0
  6
BYBLOCK
 62
0
100
AcDbBlockEnd
  0
ENDSEC
  0
SECTION
  2
ENTITIES
  0
LINE
  5
217
100
AcDbEntity
  8
0
100
AcDbLine
 62
7
  6
BYLAYER
 10
13.5111176585
 20
45.5272170987
 11
13.5111176585
 21
48.6297991455
  0
LINE
  5
218
100
AcDbEntity
  8
0
100
AcDbLine
 62
7
  6
BYLAYER
 10
15.109007242
 20
64.9026122565
 11
10.4430936376
 21
62.2087618611
  0
LINE
  5
219
100
AcDbEntity
  8
0
100
AcDbLine
 62
7
  6
BYLAYER
 10
9.9431021212
 20
39.6237672638
 11
29.4593305352
 21
28.3563224391
  0
LINE
  5
21A
100
AcDbEntity
  8
0
100
AcDbLine
 62
7
  6
BYLAYER
 10
9.7605418054
 20
39.8824380064
 11
29.2767702194
 21
28.6149931816
  0
LINE
  5
21B
100
AcDbEntity
  8
0
100
AcDbLine
 62
7
  6
BYLAYER
 10
17.2807060722
 20
52.41812237
 11
16.9941152912
 21
49.9468624551
  0
LINE
  5
21C
100
AcDbEntity
  8
0
100
AcDbLine
 62
7
  6
BYLAYER
 10
36.1596957684
 20
71.5526959181
 11
40.4023187917
 21
74.0021608413
  0
LINE
  5
21D
100
AcDbEntity
  8
0
100
AcDbLine
 62
7
  6
BYLAYER
 10
13.3695831631
 20
45.4455026074
 11
23.2691193151
 21
39.7301320441
  0
LINE
  5
21E
100
AcDbEntity
  8
0
100
AcDbLine
 62
7
  6
BYLAYER
 10
23.2642357251
 20
39.8963791441
 11
13.5111176585
 21
45.5272170987
  0
LINE
  5
21F
100
AcDbEntity
  8
0
100
AcDbLine
 62
7
  6
BYLAYER
 10
20.1840881187
 20
48.0411348022
 11
20.1752111774
 21
47.9459630118
  0
LINE
  5
220
100
AcDbEntity
  8
0
100
AcDbLine
 62
7
  6
BYLAYER
 10
20.18478941
 20
48.0414465986
 11
20.1752111774
 21
47.9459630118
  0
LINE
  5
221
100
AcDbEntity
  8
0
100
AcDbLine
 62
7
  6
BYLAYER
 10
37.0346918511
 20
70.0371491998
 11
21.625237833
 21
61.1405498799
  0
LINE
  5
222
100
AcDbEntity
  8
0
100
AcDbLine
 62
7
  6
BYLAYER
 10
23.2691193151
 20
42.9961417126
 11
13.3695831631
 21
48.7115122759
  0
LINE
  5
223
100
AcDbEntity
  8
0
100
AcDbLine
 62
7
  6
BYLAYER
 10
48.0619531803
 20
73.0550769292
 11
48.4548494644
 21
73.2819143506
  0
LINE
  5
224
100
AcDbEntity
  8
0
100
AcDbLine
 62
7
  6
BYLAYER
 10
16.8517954692
 20
49.864694558
 11
20.1752111774
 21
47.9459630118
  0
LINE
  5
225
100
AcDbEntity
  8
0
100
AcDbLine
 62
7
  6
BYLAYER
 10
52.3511582801
 20
73.3375081174
 11
56.2637524323
 21
75.5964319205
  0
LINE
  5
226
100
AcDbEntity
  8
0
100
AcDbLine
 62
7
  6
BYLAYER
 10
16.9941152912
 20
49.9468624551
 11
20.1907935899
 21
48.101301131
  0
LINE
  5
227
100
AcDbEntity
  8
0
100
AcDbLine
 62
7
  6
BYLAYER
 10
20.4796638252
 20
50.5712450321
 11
17.156248117
 21
52.4899765784
  0
LINE
  5
228
100
AcDbEntity
  8
0
100
AcDbLine
 62
7
  6
BYLAYER
 10
16.8517954692
 20
49.864694558
 11
16.9941152912
 21
49.9468624551
  0
LINE
  5
229
100
AcDbEntity
  8
0
100
AcDbLine
 62
7
  6
BYLAYER
 10
13.5111176585
 20
45.5272170987
 11
13.3695831631
 21
45.4455026074
  0
LINE
  5
22A
100
AcDbEntity
  8
0
100
AcDbLine
 62
7
  6
BYLAYER
 10
29.2767702194
 20
49.9440359148
 11
9.7605418054
 21
61.2114807395
  0
LINE
  5
22B
100
AcDbEntity
  8
0
100
AcDbLine
 62
7
  6
BYLAYER
 10
10.4430936376
 20
62.2087618611
 11
29.9593220517
 21
50.9413170364
  0
LINE
  5
22C
100
AcDbEntity
  8
0
100
AcDbLine
 62
7
  6
BYLAYER
 10
34.625235656
 20
53.6351674317
 11
34.625235656
 21
31.099700719
  0
LINE
  5
22D
100
AcDbEntity
  8
0
100
AcDbLine
 62
7
  6
BYLAYER
 10
29.9593220517
 20
50.9413170364
 11
34.625235656
 21
53.6351674317
  0
LINE
  5
22E
100
AcDbEntity
  8
0
100
AcDbLine
 62
7
  6
BYLAYER
 10
15.109007242
 20
64.9026122565
 11
34.625235656
 21
53.6351674317
  0
LINE
  5
22F
100
AcDbEntity
  8
0
100
AcDbLine
 62
7
  6
BYLAYER
 10
60.4538945634
 20
59.0785365975
 11
64.4637157219
 21
61.3935941037
  0
LINE
  5
230
100
AcDbEntity
  8
0
100
AcDbLine
 62
7
  6
BYLAYER
 10
58.1651063493
 20
55.5631842449
 11
58.5548042479
 21
55.7881750885
  0
LINE
  5
231
100
AcDbEntity
  8
0
100
AcDbLine
 62
7
  6
BYLAYER
 10
50.0346336517
 20
47.5204551001
 11
34.625235656
 21
38.6238881245
  0
LINE
  5
232
100
AcDbEntity
  8
0
100
AcDbLine
 62
7
  6
BYLAYER
 10
50.9096297344
 20
46.0049083818
 11
55.1522527577
 21
48.454373305
  0
LINE
  5
233
100
AcDbEntity
  8
0
100
AcDbLine
 62
7
  6
BYLAYER
 10
34.625235656
 20
31.099700719
 11
29.9593220517
 21
28.4058503236
  0
ARC
  5
234
100
AcDbEntity
  8
0
100
AcDbCircle
 62
7
  6
BYLAYER
 10
77.7789163311
 20
42.5950398098
 40
57.8517431672
100
AcDbArc
 50
172.075203604
 51
174.5982441466
  0
ARC
  5
235
100
AcDbEntity
  8
0
100
AcDbCircle
 62
7
  6
BYLAYER
 10
73.6611309546
 20
44.606838849
 40
57.0521309413
100
AcDbArc
 50
172.0577859317
 51
174.7121867261
  0
ARC
  5
236
100
AcDbEntity
  8
0
100
AcDbCircle
 62
7
  6
BYLAYER
 10
72.0387753818
 20
41.3345545542
 40
48.7979530795
100
AcDbArc
 50
178.048681724
 51
179.9856214191
  0
ARC
  5
237
100
AcDbEntity
  8
0
100
AcDbCircle
 62
7
  6
BYLAYER
 10
61.6634756807
 20
47.058087138
 40
48.3221881665
100
AcDbArc
 50
178.0391455559
 51
179.9951575872
  0
ARC
  5
238
100
AcDbEntity
  8
0
100
AcDbCircle
 62
7
  6
BYLAYER
 10
69.2061014861
 20
41.3427184357
 40
45.9652778285
100
AcDbArc
 50
179.9949116078
 51
182.0105036306
  0
ARC
  5
239
100
AcDbEntity
  8
0
100
AcDbCircle
 62
7
  6
BYLAYER
 10
58.8402254622
 20
47.0499269617
 40
45.4989394228
100
AcDbArc
 50
179.9845811866
 51
182.0208340517
  0
SPLINE
  5
23A
100
AcDbEntity
  8
0
100
AcDbSpline
 62
7
  6
BYLAYER
 70
0
 71
3
 72
13
 73
9
 74
0
 42
0.0000001
 43
0.0000001
 44
0.0000000001
 40
0.0
 40
0.0
 40
0.0
 40
0.0
 40
0.2704408133
 40
0.5240157485
 40
0.6459142886
 40
0.7653540014
 40
0.8831064188
 40
1.0
 40
1.0
 40
1.0
 40
1.0
 10
33.5652628424
 20
68.0734464065
 30
0.0
 10
33.6853563306
 20
68.4552359394
 30
0.0
 10
33.9708515038
 20
69.1800925083
 30
0.0
 10
34.4681277963
 20
70.0029351942
 30
0.0
 10
34.9335688218
 20
70.5698136198
 30
0.0
 10
35.3104499917
 20
70.9458093202
 30
0.0
 10
35.7181243777
 20
71.2764676465
 30
0.0
 10
36.0098817555
 20
71.4661939944
 30
0.0
 10
36.1596990006
 20
71.5526903189
 30
0.0
  0
SPLINE
  5
23B
100
AcDbEntity
  8
0
100
AcDbSpline
 62
7
  6
BYLAYER
 70
0
 71
3
 72
15
 73
11
 74
0
 42
0.0000001
 43
0.0000001
 44
0.0000000001
 40
0.0
 40
0.0
 40
0.0
 40
0.0
 40
0.148571555
 40
0.2895065191
 40
0.422722554
 40
0.5486365351
 40
0.6679980204
 40
0.7819348515
 40
0.8919841977
 40
1.0
 40
1.0
 40
1.0
 40
1.0
 10
47.7772857747
 20
73.2716777258
 30
0.0
 10
47.444649735
 20
73.4637208883
 30
0.0
 10
46.7805301353
 20
73.8113460384
 30
0.0
 10
45.7675544478
 20
74.2259970473
 30
0.0
 10
44.7725728109
 20
74.5160562288
 30
0.0
 10
43.8050792676
 20
74.6782954257
 30
0.0
 10
42.8740376032
 20
74.7107432506
 30
0.0
 10
41.9883983686
 20
74.6119438872
 30
0.0
 10
41.1576254861
 20
74.382184072
 30
0.0
 10
40.6441576524
 20
74.1417767773
 30
0.0
 10
40.402322212
 20
74.0021549164
 30
0.0
  0
SPLINE
  5
23C
100
AcDbEntity
  8
0
100
AcDbSpline
 62
7
  6
BYLAYER
 70
0
 71
3
 72
15
 73
11
 74
0
 42
0.0000001
 43
0.0000001
 44
0.0000000001
 40
0.0
 40
0.0
 40
0.0
 40
0.0
 40
0.1485635334
 40
0.2895072023
 40
0.422725936
 40
0.548636927
 40
0.667999588
 40
0.7819366717
 40
0.8919852765
 40
1.0
 40
1.0
 40
1.0
 40
1.0
 10
53.5048268561
 20
72.7817191325
 30
0.0
 10
53.2770681244
 20
72.9132127228
 30
0.0
 10
52.8223087355
 20
73.1512367299
 30
0.0
 10
52.1286808524
 20
73.4351886591
 30
0.0
 10
51.4473543681
 20
73.6338038072
 30
0.0
 10
50.784866262
 20
73.7448887337
 30
0.0
 10
50.1473406432
 20
73.7671201862
 30
0.0
 10
49.5409086798
 20
73.6994364745
 30
0.0
 10
48.9720257933
 20
73.5421612969
 30
0.0
 10
48.6204582834
 20
73.3774931851
 30
0.0
 10
48.4548583503
 20
73.2818988481
 30
0.0
  0
SPLINE
  5
23D
100
AcDbEntity
  8
0
100
AcDbSpline
 62
7
  6
BYLAYER
 70
0
 71
3
 72
25
 73
21
 74
0
 42
0.0000001
 43
0.0000001
 44
0.0000000001
 40
0.0
 40
0.0
 40
0.0
 40
0.0
 40
0.0213324491
 40
0.0428934234
 40
0.0648992054
 40
0.0875442257
 40
0.1353199637
 40
0.1872214956
 40
0.2436594983
 40
0.3046072496
 40
0.3696944666
 40
0.4382910978
 40
0.5095770904
 40
0.5826012217
 40
0.656332673
 40
0.7297080303
 40
0.8016848518
 40
0.8712742282
 40
0.9376206071
 40
1.0
 40
1.0
 40
1.0
 40
1.0
 10
64.4637021197
 20
61.3936177478
 30
0.0
 10
64.564447326
 20
61.4517825293
 30
0.0
 10
64.7597628227
 20
61.5818455705
 30
0.0
 10
65.0277755158
 20
61.8143102043
 30
0.0
 10
65.2701727867
 20
62.0831169812
 30
0.0
 10
65.5624287015
 20
62.4949575608
 30
0.0
 10
65.8550064253
 20
63.1001233832
 30
0.0
 10
66.0780115047
 20
63.9257824796
 30
0.0
 10
66.1773858835
 20
64.84681979
 30
0.0
 10
66.1519844152
 20
65.8440602126
 30
0.0
 10
66.0029421528
 20
66.8970026997
 30
0.0
 10
65.7335754466
 20
67.983626877
 30
0.0
 10
65.3496573416
 20
69.0810153955
 30
0.0
 10
64.8593580628
 20
70.1658648687
 30
0.0
 10
64.2731275765
 20
71.2150457949
 30
0.0
 10
63.603489843
 20
72.2062056579
 30
0.0
 10
62.8647059157
 20
73.1181500973
 30
0.0
 10
62.0724491781
 20
73.9316376247
 30
0.0
 10
61.2436037537
 20
74.6291059052
 30
0.0
 10
60.6583297456
 20
75.0202517918
 30
0.0
 10
60.3637340771
 20
75.1903328326
 30
0.0
  0
SPLINE
  5
23E
100
AcDbEntity
  8
0
100
AcDbSpline
 62
7
  6
BYLAYER
 70
0
 71
3
 72
15
 73
11
 74
0
 42
0.0000001
 43
0.0000001
 44
0.0000000001
 40
0.0
 40
0.0
 40
0.0
 40
0.0
 40
0.1485536589
 40
0.2895068718
 40
0.4227299255
 40
0.5486378594
 40
0.6679992893
 40
0.7819379645
 40
0.89198655
 40
1.0
 40
1.0
 40
1.0
 40
1.0
 10
60.3637340771
 20
75.1903328326
 30
0.0
 10
60.1788334477
 20
75.2970828457
 30
0.0
 10
59.8096181353
 20
75.4903182005
 30
0.0
 10
59.2464777593
 20
75.7208757368
 30
0.0
 10
58.6933038936
 20
75.8821208867
 30
0.0
 10
58.1554439737
 20
75.9723211251
 30
0.0
 10
57.6378522761
 20
75.9903437334
 30
0.0
 10
57.1455010395
 20
75.9354094041
 30
0.0
 10
56.683631913
 20
75.8077287737
 30
0.0
 10
56.3982069106
 20
75.6740270979
 30
0.0
 10
56.2637660345
 20
75.5964082764
 30
0.0
  0
SPLINE
  5
23F
100
AcDbEntity
  8
0
100
AcDbSpline
 62
7
  6
BYLAYER
 70
0
 71
3
 72
25
 73
21
 74
0
 42
0.0000001
 43
0.0000001
 44
0.0000000001
 40
0.0
 40
0.0
 40
0.0
 40
0.0
 40
0.0213324822
 40
0.0428935144
 40
0.0648991265
 40
0.0875445394
 40
0.1353202425
 40
0.1872214019
 40
0.2436589739
 40
0.3046065668
 40
0.3696939615
 40
0.4382909032
 40
0.5095770533
 40
0.5826010535
 40
0.6563325214
 40
0.7297083838
 40
0.8016846782
 40
0.8712754275
 40
0.9376187043
 40
1.0
 40
1.0
 40
1.0
 40
1.0
 10
58.5547953619
 20
55.788190591
 30
0.0
 10
58.6788887327
 20
55.8598248199
 30
0.0
 10
58.9194370536
 20
56.0200619517
 30
0.0
 10
59.2495639901
 20
56.3063685295
 30
0.0
 10
59.5481394155
 20
56.6374542452
 30
0.0
 10
59.9080775475
 20
57.1447482401
 30
0.0
 10
60.2684566297
 20
57.8901266178
 30
0.0
 10
60.5431375237
 20
58.907091831
 30
0.0
 10
60.6655537948
 20
60.0415313924
 30
0.0
 10
60.6342758456
 20
61.269838106
 30
0.0
 10
60.4506993077
 20
62.5667577628
 30
0.0
 10
60.1189089491
 20
63.905163352
 30
0.0
 10
59.6460221209
 20
65.2568231735
 30
0.0
 10
59.0421129205
 20
66.5930385615
 30
0.0
 10
58.3200522582
 20
67.8853278168
 30
0.0
 10
57.4952563911
 20
69.1061477065
 30
0.0
 10
56.5852960367
 20
70.2294134573
 30
0.0
 10
55.6094635532
 20
71.2313667829
 30
0.0
 10
54.588580728
 20
72.0904599125
 30
0.0
 10
53.8676936262
 20
72.5722226446
 30
0.0
 10
53.5048268561
 20
72.7817191325
 30
0.0
  0
SPLINE
  5
240
100
AcDbEntity
  8
0
100
AcDbSpline
 62
7
  6
BYLAYER
 70
0
 71
3
 72
11
 73
7
 74
0
 42
0.0000001
 43
0.0000001
 44
0.0000000001
 40
0.0
 40
0.0
 40
0.0
 40
0.0
 40
0.2309485451
 40
0.4859489306
 40
0.7483877058
 40
1.0
 40
1.0
 40
1.0
 40
1.0
 10
10.4430936376
 20
62.2087618611
 30
0.0
 10
10.3605218477
 20
62.1610893005
 30
0.0
 10
10.2014289167
 20
62.0349795282
 30
0.0
 10
10.0034379728
 20
61.7955472794
 30
0.0
 10
9.8485766247
 20
61.5164287953
 30
0.0
 10
9.7815422648
 20
61.3132122241
 30
0.0
 10
9.7605418054
 20
61.2114807395
 30
0.0
  0
SPLINE
  5
241
100
AcDbEntity
  8
0
100
AcDbSpline
 62
7
  6
BYLAYER
 70
0
 71
3
 72
11
 73
7
 74
0
 42
0.0000001
 43
0.0000001
 44
0.0000000001
 40
0.0
 40
0.0
 40
0.0
 40
0.0
 40
0.2603073649
 40
0.5140686788
 40
0.7607725908
 40
1.0
 40
1.0
 40
1.0
 40
1.0
 10
9.7605418054
 20
61.2114807395
 30
0.0
 10
9.5595513472
 20
60.2378326218
 30
0.0
 10
9.2059514576
 20
58.3057352644
 30
0.0
 10
8.8200604352
 20
55.4247470919
 30
0.0
 10
8.586861326
 20
52.608110216
 30
0.0
 10
8.5329415559
 20
50.7518757628
 30
0.0
 10
8.5329415559
 20
49.8382082691
 30
0.0
  0
SPLINE
  5
242
100
AcDbEntity
  8
0
100
AcDbSpline
 62
7
  6
BYLAYER
 70
0
 71
3
 72
10
 73
6
 74
0
 42
0.0000001
 43
0.0000001
 44
0.0000000001
 40
0.0
 40
0.0
 40
0.0
 40
0.0
 40
0.2637338853
 40
0.5184043535
 40
1.0
 40
1.0
 40
1.0
 40
1.0
 10
8.5329415559
 20
49.8382082691
 30
0.0
 10
8.5329415559
 20
48.9542241138
 30
0.0
 10
8.5818097215
 20
47.2159244712
 30
0.0
 10
8.8805078816
 20
43.8765024265
 30
0.0
 10
9.3382681934
 20
41.4404404847
 30
0.0
 10
9.7605418054
 20
39.8824380064
 30
0.0
  0
SPLINE
  5
243
100
AcDbEntity
  8
0
100
AcDbSpline
 62
7
  6
BYLAYER
 70
0
 71
3
 72
10
 73
6
 74
0
 42
0.0000001
 43
0.0000001
 44
0.0000000001
 40
0.0
 40
0.0
 40
0.0
 40
0.0
 40
0.5261992121
 40
0.7669572563
 40
1.0
 40
1.0
 40
1.0
 40
1.0
 10
9.7605418054
 20
39.8824380064
 30
0.0
 10
9.775400141
 20
39.8276173331
 30
0.0
 10
9.8088403261
 20
39.7493349376
 30
0.0
 10
9.879816172
 20
39.6671217949
 30
0.0
 10
9.9213162733
 20
39.6363428793
 30
0.0
 10
9.9431041521
 20
39.6237707803
 30
0.0
  0
SPLINE
  5
244
100
AcDbEntity
  8
0
100
AcDbSpline
 62
7
  6
BYLAYER
 70
0
 71
3
 72
26
 73
22
 74
0
 42
0.0000001
 43
0.0000001
 44
0.0000000001
 40
0.0
 40
0.0
 40
0.0
 40
0.0
 40
0.0213315837
 40
0.0428913846
 40
0.0648962451
 40
0.0875402016
 40
0.1353138209
 40
0.1607360285
 40
0.1872606372
 40
0.2436958807
 40
0.3046408673
 40
0.3697252953
 40
0.4383189177
 40
0.5096015476
 40
0.5826218947
 40
0.6563498942
 40
0.7297229626
 40
0.8016949017
 40
0.8712828911
 40
0.9376204064
 40
1.0
 40
1.0
 40
1.0
 40
1.0
 10
55.1522493374
 20
48.45437923
 30
0.0
 10
55.3334694805
 20
48.5590053078
 30
0.0
 10
55.684737646
 20
48.7930490269
 30
0.0
 10
56.1669176565
 20
49.2110981642
 30
0.0
 10
56.602881882
 20
49.6946979561
 30
0.0
 10
57.1285933683
 20
50.4354094713
 30
0.0
 10
57.5411641737
 20
51.288800822
 30
0.0
 10
57.8427131589
 20
52.2201618906
 30
0.0
 10
58.0828239051
 20
53.2571591882
 30
0.0
 10
58.2347749189
 20
54.6661267177
 30
0.0
 10
58.1890930435
 20
56.4597495022
 30
0.0
 10
57.9209908056
 20
58.3538285123
 30
0.0
 10
57.4364472937
 20
60.3084143059
 30
0.0
 10
56.7458491199
 20
62.2823766933
 30
0.0
 10
55.8639062577
 20
64.2337789049
 30
0.0
 10
54.8094126233
 20
66.1210419356
 30
0.0
 10
53.6048777628
 20
67.9039167711
 30
0.0
 10
52.2759812128
 20
69.5443408306
 30
0.0
 10
50.8508777974
 20
71.0075481441
 30
0.0
 10
49.3600039278
 20
72.2621763378
 30
0.0
 10
48.3072260086
 20
72.9657235107
 30
0.0
 10
47.7772857747
 20
73.2716777258
 30
0.0
  0
SPLINE
  5
245
100
AcDbEntity
  8
0
100
AcDbSpline
 62
7
  6
BYLAYER
 70
0
 71
3
 72
11
 73
7
 74
0
 42
0.0000001
 43
0.0000001
 44
0.0000000001
 40
0.0
 40
0.0
 40
0.0
 40
0.0
 40
0.2897042897
 40
0.549088481
 40
0.7822192663
 40
1.0
 40
1.0
 40
1.0
 40
1.0
 10
29.9593220517
 20
28.4058503236
 30
0.0
 10
29.9154436931
 20
28.3805172927
 30
0.0
 10
29.8281553992
 20
28.3389941174
 30
0.0
 10
29.6939930769
 20
28.3065884405
 30
0.0
 10
29.568107243
 20
28.3097838727
 30
0.0
 10
29.4923220828
 20
28.3372902742
 30
0.0
 10
29.4593325674
 20
28.3563259578
 30
0.0
  0
SPLINE
  5
246
100
AcDbEntity
  8
0
100
AcDbSpline
 62
7
  6
BYLAYER
 70
0
 71
3
 72
13
 73
9
 74
0
 42
0.0000001
 43
0.0000001
 44
0.0000000001
 40
0.0
 40
0.0
 40
0.0
 40
0.0
 40
0.116892436
 40
0.2346441279
 40
0.3540818594
 40
0.4759777604
 40
0.7295573621
 40
1.0
 40
1.0
 40
1.0
 40
1.0
 10
50.9096265023
 20
46.004913981
 30
0.0
 10
50.7597811601
 20
45.9184014348
 30
0.0
 10
50.4495323639
 20
45.7605716632
 30
0.0
 10
49.9592388187
 20
45.5728261464
 30
0.0
 10
49.4450777423
 20
45.4344276822
 30
0.0
 10
48.7212754344
 20
45.3148009984
 30
0.0
 10
47.7598348714
 20
45.2956714733
 30
0.0
 10
46.9891944351
 20
45.410950087
 30
0.0
 10
46.5984350815
 20
45.4978880657
 30
0.0
  0
SPLINE
  5
247
100
AcDbEntity
  8
0
100
AcDbSpline
 62
7
  6
BYLAYER
 70
0
 71
3
 72
26
 73
22
 74
0
 42
0.0000001
 43
0.0000001
 44
0.0000000001
 40
0.0
 40
0.0
 40
0.0
 40
0.0
 40
0.0623788116
 40
0.1287156788
 40
0.198303827
 40
0.2702762839
 40
0.343650258
 40
0.4173793591
 40
0.4904007929
 40
0.5616843131
 40
0.6302784694
 40
0.6953630202
 40
0.7563077677
 40
0.8127424839
 40
0.8392666859
 40
0.8646885595
 40
0.912461348
 40
0.9351048779
 40
0.9571093506
 40
0.9786687725
 40
1.0
 40
1.0
 40
1.0
 40
1.0
 10
43.5346627514
 20
70.8222128026
 30
0.0
 10
44.064596369
 20
70.5162624073
 30
0.0
 10
45.1173640696
 20
69.812725234
 30
0.0
 10
46.6082294182
 20
68.5581061655
 30
0.0
 10
48.033336836
 20
67.0949022406
 30
0.0
 10
49.3622444226
 20
65.4544668323
 30
0.0
 10
50.5667934134
 20
63.6715714411
 30
0.0
 10
51.6212999429
 20
61.7842805807
 30
0.0
 10
52.5032509357
 20
59.8328486698
 30
0.0
 10
53.1938505936
 20
57.8588604524
 30
0.0
 10
53.6783886339
 20
55.9042575168
 30
0.0
 10
53.9464807219
 20
54.0101725555
 30
0.0
 10
53.9921480752
 20
52.2165559831
 30
0.0
 10
53.8401910169
 20
50.8075999495
 30
0.0
 10
53.6000655614
 20
49.7706189433
 30
0.0
 10
53.2985205551
 20
48.839272903
 30
0.0
 10
52.8859466679
 20
47.9858998481
 30
0.0
 10
52.3602378866
 20
47.2452064423
 30
0.0
 10
51.9242795406
 20
46.7616172609
 30
0.0
 10
51.442106765
 20
46.3435764406
 30
0.0
 10
51.0908433819
 20
46.1095387458
 30
0.0
 10
50.9096265023
 20
46.004913981
 30
0.0
  0
SPLINE
  5
248
100
AcDbEntity
  8
0
100
AcDbSpline
 62
7
  6
BYLAYER
 70
0
 71
3
 72
15
 73
11
 74
0
 42
0.0000001
 43
0.0000001
 44
0.0000000001
 40
0.0
 40
0.0
 40
0.0
 40
0.0
 40
0.1080144145
 40
0.2180625735
 40
0.3319984466
 40
0.4513593571
 40
0.5772729046
 40
0.7104895512
 40
0.8514270689
 40
1.0
 40
1.0
 40
1.0
 40
1.0
 10
36.1596990006
 20
71.5526903189
 30
0.0
 10
36.4015310017
 20
71.6923109562
 30
0.0
 10
36.9149926579
 20
71.9327157823
 30
0.0
 10
37.7457562
 20
72.1624743374
 30
0.0
 10
38.6313878606
 20
72.2612773318
 30
0.0
 10
39.562424606
 20
72.2288330732
 30
0.0
 10
40.5299177124
 20
72.0665982191
 30
0.0
 10
41.5249078004
 20
71.7765421344
 30
0.0
 10
42.5378936461
 20
71.3618848362
 30
0.0
 10
43.2020236341
 20
71.0142577419
 30
0.0
 10
43.5346627514
 20
70.8222128026
 30
0.0
  0
SPLINE
  5
249
100
AcDbEntity
  8
0
100
AcDbSpline
 62
7
  6
BYLAYER
 70
0
 71
3
 72
10
 73
6
 74
0
 42
0.0000001
 43
0.0000001
 44
0.0000000001
 40
0.0
 40
0.0
 40
0.0
 40
0.0
 40
0.4815956465
 40
0.7362661147
 40
1.0
 40
1.0
 40
1.0
 40
1.0
 10
29.2767702194
 20
28.6149931816
 30
0.0
 10
28.8544966074
 20
30.17299566
 30
0.0
 10
28.3967362956
 20
32.6090576018
 30
0.0
 10
28.0980381355
 20
35.9484796464
 30
0.0
 10
28.0491699699
 20
37.686779289
 30
0.0
 10
28.0491699699
 20
38.5707634444
 30
0.0
  0
SPLINE
  5
24A
100
AcDbEntity
  8
0
100
AcDbSpline
 62
7
  6
BYLAYER
 70
0
 71
3
 72
11
 73
7
 74
0
 42
0.0000001
 43
0.0000001
 44
0.0000000001
 40
0.0
 40
0.0
 40
0.0
 40
0.0
 40
0.2392274092
 40
0.4859313212
 40
0.7396926351
 40
1.0
 40
1.0
 40
1.0
 40
1.0
 10
28.0491699699
 20
38.5707634444
 30
0.0
 10
28.0491699699
 20
39.484430938
 30
0.0
 10
28.10308974
 20
41.3406653912
 30
0.0
 10
28.3362888492
 20
44.1573022672
 30
0.0
 10
28.7221798716
 20
47.0382904396
 30
0.0
 10
29.0757797612
 20
48.970387797
 30
0.0
 10
29.2767702194
 20
49.9440359148
 30
0.0
  0
SPLINE
  5
24B
100
AcDbEntity
  8
0
100
AcDbSpline
 62
7
  6
BYLAYER
 70
0
 71
3
 72
11
 73
7
 74
0
 42
0.0000001
 43
0.0000001
 44
0.0000000001
 40
0.0
 40
0.0
 40
0.0
 40
0.0
 40
0.2516124147
 40
0.5140512258
 40
0.7690515685
 40
1.0
 40
1.0
 40
1.0
 40
1.0
 10
29.2767702194
 20
49.9440359148
 30
0.0
 10
29.2977706888
 20
50.0457674481
 30
0.0
 10
29.3648050804
 20
50.2489840791
 30
0.0
 10
29.5196664785
 20
50.5281025896
 30
0.0
 10
29.7176574155
 20
50.7675347795
 30
0.0
 10
29.8767503023
 20
50.8936444992
 30
0.0
 10
29.9593220517
 20
50.9413170364
 30
0.0
  0
SPLINE
  5
24C
100
AcDbEntity
  8
0
100
AcDbSpline
 62
7
  6
BYLAYER
 70
0
 71
3
 72
25
 73
21
 74
0
 42
0.0000001
 43
0.0000001
 44
0.0000000001
 40
0.0
 40
0.0
 40
0.0
 40
0.0
 40
0.0623821934
 40
0.1287224801
 40
0.198314205
 40
0.2702902689
 40
0.3436675149
 40
0.4173999942
 40
0.4904248937
 40
0.5617117275
 40
0.6303090449
 40
0.6953965599
 40
0.7563440773
 40
0.8127813767
 40
0.8646820498
 40
0.912457107
 40
0.9351017246
 40
0.9571072682
 40
0.9786677518
 40
1.0
 40
1.0
 40
1.0
 40
1.0
 10
52.7270909146
 20
53.4716458438
 30
0.0
 10
52.7270909146
 20
54.0109575781
 30
0.0
 10
52.6540214111
 20
55.1245420312
 30
0.0
 10
52.353385069
 20
56.8153637815
 30
0.0
 10
51.8645659478
 20
58.5479104019
 30
0.0
 10
51.1980802965
 20
60.2851277798
 30
0.0
 10
50.3680614945
 20
61.9902023884
 30
0.0
 10
49.3922415352
 20
63.6267565057
 30
0.0
 10
48.2914236737
 20
65.1598723873
 30
0.0
 10
47.0890697344
 20
66.5568725196
 30
0.0
 10
45.8106907162
 20
67.7880591532
 30
0.0
 10
44.4831782431
 20
68.8273347372
 30
0.0
 10
43.1341405664
 20
69.6526862867
 30
0.0
 10
41.7908273454
 20
70.2463156426
 30
0.0
 10
40.4804772928
 20
70.5945896578
 30
0.0
 10
39.4177021846
 20
70.6726328044
 30
0.0
 10
38.6206173475
 20
70.5977830168
 30
0.0
 10
38.0594029978
 20
70.4781356619
 30
0.0
 10
37.5278381168
 20
70.2943287129
 30
0.0
 10
37.1944102232
 20
70.1293555214
 30
0.0
 10
37.0346947062
 20
70.0371442546
 30
0.0
  0
SPLINE
  5
24D
100
AcDbEntity
  8
0
100
AcDbSpline
 62
7
  6
BYLAYER
 70
0
 71
3
 72
10
 73
6
 74
0
 42
0.0000001
 43
0.0000001
 44
0.0000000001
 40
0.0
 40
0.0
 40
0.0
 40
0.0
 40
0.2330427933
 40
0.4738008044
 40
1.0
 40
1.0
 40
1.0
 40
1.0
 10
29.4593325674
 20
28.3563259578
 30
0.0
 10
29.43754468
 20
28.3688980531
 30
0.0
 10
29.3960445821
 20
28.3996769781
 30
0.0
 10
29.3250687252
 20
28.4818901106
 30
0.0
 10
29.2916285547
 20
28.5601725097
 30
0.0
 10
29.2767702194
 20
28.6149931816
 30
0.0
  0
SPLINE
  5
24E
100
AcDbEntity
  8
0
100
AcDbSpline
 62
7
  6
BYLAYER
 70
0
 71
3
 72
16
 73
12
 74
0
 42
0.0000001
 43
0.0000001
 44
0.0000000001
 40
0.0
 40
0.0
 40
0.0
 40
0.0
 40
0.1080070794
 40
0.2180479924
 40
0.33197688
 40
0.4513307209
 40
0.5134418387
 40
0.5772979131
 40
0.7105067337
 40
0.8514357811
 40
1.0
 40
1.0
 40
1.0
 40
1.0
 10
50.0346307966
 20
47.5204600453
 30
0.0
 10
50.2477741626
 20
47.6435177176
 30
0.0
 10
50.6575484106
 20
47.9294906289
 30
0.0
 10
51.1990310756
 20
48.4623645496
 30
0.0
 10
51.6647166679
 20
49.0947804255
 30
0.0
 10
51.981827821
 20
49.6911088674
 30
0.0
 10
52.195289774
 20
50.2080766099
 30
0.0
 10
52.3864124416
 20
50.7672474022
 30
0.0
 10
52.5698772478
 20
51.5170923662
 30
0.0
 10
52.6997576014
 20
52.4729741101
 30
0.0
 10
52.7270909146
 20
53.1331116311
 30
0.0
 10
52.7270909146
 20
53.4716458438
 30
0.0
  0
ENDSEC
  0
SECTION
  2
OBJECTS
  0
DICTIONARY
  5
C
100
AcDbDictionary
280
0
281
1
  3
ACAD_GROUP
350
D
  3
ACAD_MLINESTYLE
350
17
  3
ACAD_LAYOUT
350
1A
  3
ACAD_PLOTSETTINGS
350
19
  3
ACAD_PLOTSTYLENAME
350
E
  0
DICTIONARY
  5
D
102
{ACAD_REACTORS
330
C
102
}
100
AcDbDictionary
280
0
281
1
  0
ACDBDICTIONARYWDFLT
  5
E
102
{ACAD_REACTORS
330
C
102
}
100
AcDbDictionary
281
1
  3
Normal
350
F
100
AcDbDictionaryWithDefault
340
F
  0
DICTIONARY
  5
17
102
{ACAD_REACTORS
330
C
102
}
100
AcDbDictionary
280
0
281
1
  3
Standard
350
18
  0
DICTIONARY
  5
19
102
{ACAD_REACTORS
330
C
102
}
100
AcDbDictionary
281
1
  0
DICTIONARY
  5
1A
102
{ACAD_REACTORS
330
C
102
}
100
AcDbDictionary
281
1
  3
Model
350
24F
  3
Layout1
350
250
  0
ACDBPLACEHOLDER
  5
F
102
{ACAD_REACTORS
330
E
102
}
  0
MLINESTYLE
  5
18
102
{ACAD_REACTORS
330
17
102
}
100
AcDbMlineStyle
  2
STANDARD
 70
0
  3

 62
256
 51
90.0
 52
90.0
 71
2
 49
0.5
 62
256
  6
BYLAYER
 49
-0.5
 62
256
  6
BYLAYER
  0
LAYOUT
  5
24F
102
{ACAD_REACTORS
330
1A
102
}
100
AcDbPlotSettings
  1

  2
none_device
  4

  6

 40
0.0
 41
0.0
 42
0.0
 43
0.0
 44
210.0
 45
297.0
 46
0.0
 47
0.0
 48
0.0
 49
0.0
140
0.0
141
0.0
142
1.0
143
1.0
 70
1024
 72
1
 73
0
 74
0
  7

 75
0
147
1.0
148
0.0
149
0.0
100
AcDbLayout
  1
Model
 70
0
 71
0
 10
0.0
 20
0.0
 11
210.0
 21
297.0
 12
0.0
 22
0.0
 32
0.0
 14
0.0
 24
0.0
 34
0.0
 15
0.0
 25
0.0
 35
0.0
146
0.0
 13
0.0
 23
0.0
 33
0.0
 16
1.0
 26
0.0
 36
0.0
 17
0.0
 27
1.0
 37
0.0
 76
0
330
210
345
0
346
0
  0
LAYOUT
  5
250
102
{ACAD_REACTORS
330
1A
102
}
100
AcDbPlotSettings
  1

  2
none_device
  4

  6

 40
0.0
 41
0.0
 42
0.0
 43
0.0
 44
210.0
 45
297.0
 46
0.0
 47
0.0
 48
0.0
 49
0.0
140
0.0
141
0.0
142
1.0
143
1.0
 70
0
 72
1
 73
0
 74
0
  7

 75
0
147
1.0
148
0.0
149
0.0
100
AcDbLayout
  1
Layout1
 70
0
 71
1
 10
0.0
 20
0.0
 11
210.0
 21
297.0
 12
0.0
 22
0.0
 32
0.0
 14
0.0
 24
0.0
 34
0.0
 15
0.0
 25
0.0
 35
0.0
146
0.0
 13
0.0
 23
0.0
 33
0.0
 16
1.0
 26
0.0
 36
0.0
 17
0.0
 27
1.0
 37
0.0
 76
0
330
211
345
0
346
0
  0
ENDSEC
  0
EOF
