999
DXF file: C:\SESA671053\Gen2D\CAD\MCADPP0003734_3D-simplified\drw0001_4.dxf
999
Pro/ENGINEER 2019471 by Parametric Technology Corporation
  0
SECTION
  2
HEADER
  9
$ACADVER
  1
AC1024
  9
$DWGCODEPAGE
  3
ANSI_1252
  9
$EXTMAX
 10
107.1523327378
 20
151.5440134435
 30
0.0
  9
$EXTMIN
 10
0.0
 20
0.0
 30
0.0
  9
$LIMMIN
 10
0.0
 20
0.0
  9
$LIMMAX
 10
107.1523327378
 20
151.5440134435
  9
$VIEWCTR
 10
53.5761663689
 20
75.7720067218
  9
$VIEWSIZE
 40
151.5440134435
  9
$CLAYER
  8
0
  9
$LTSCALE
 40
9.87842458
  9
$CELTYPE
  6
BYLAYER
  9
$DIMSCALE
 40
1.0
  9
$DIMASZ
 40
1.2756230088
  9
$DIMEXO
 40
1.0
  9
$DIMDLI
 40
6.8250933462
  9
$DIMEXE
 40
1.0
  9
$DIMCEN
 40
1.6164694767
  9
$DIMLFAC
 40
1.0
  9
$DIMBLK
  1
_FILLED
  9
$DIMALT
 70
0
  9
$DIMALTF
 40
0.0393700787
  9
$DIMTXT
 40
1.7858722123
  9
$DIMTOL
 70
1
  9
$DIMLIM
 70
0
  9
$DIMTFAC
 40
1.0
  9
$DIMTP
 40
0.01
  9
$DIMTM
 40
0.01
  9
$DIMGAP
 40
0.625
  9
$DIMDSEP
 70
46
  9
$AUNITS
 70
0
  9
$PDMODE
 70
3
  9
$PDSIZE
 40
0.3125
  9
$HANDSEED
  5
363
  9
$TILEMODE
 70
1
  9
$MEASUREMENT
 70
1
  9
$INSUNITS
 70
4
  0
ENDSEC
  0
SECTION
  2
CLASSES
  0
CLASS
  1
ACDBDICTIONARYWDFLT
  2
AcDbDictionaryWithDefault
  3
AutoCAD 2000
 90
0
 91
1
280
0
281
0
  0
CLASS
  1
ACDBPLACEHOLDER
  2
AcDbPlaceHolder
  3
AutoCAD 2000
 90
0
 91
1
280
0
281
0
  0
CLASS
  1
LAYOUT
  2
AcDbLayout
  3
AutoCAD 2000
 90
0
 91
0
280
0
281
0
  0
ENDSEC
  0
SECTION
  2
TABLES
  0
TABLE
  2
VPORT
  5
8
100
AcDbSymbolTable
 70
2
  0
VPORT
  5
1F4
100
AcDbSymbolTableRecord
100
AcDbViewportTableRecord
  2
*ACTIVE
 70
0
 10
0.0
 20
0.0
 11
1.0
 21
1.0
 12
53.5761663689
 22
75.7720067218
 13
0.0
 23
0.0
 14
1.0
 24
1.0
 15
0.0
 25
0.0
 16
0.0
 26
0.0
 36
1.0
 17
0.0
 27
0.0
 37
0.0
 40
151.5440134435
 41
0.7070707071
 42
50.0
 43
0.0
 44
0.0
 50
0.0
 51
0.0
 71
0
 72
100
 73
1
 74
1
 75
0
 76
0
 77
0
 78
0
  0
ENDTAB
  0
TABLE
  2
LTYPE
  5
5
100
AcDbSymbolTable
 70
6
  0
LTYPE
  5
14
100
AcDbSymbolTableRecord
100
AcDbLinetypeTableRecord
  2
BYBLOCK
 70
0
  3

 72
65
 73
0
 40
0.0
  0
LTYPE
  5
15
100
AcDbSymbolTableRecord
100
AcDbLinetypeTableRecord
  2
BYLAYER
 70
0
  3

 72
65
 73
0
 40
0.0
  0
LTYPE
  5
16
100
AcDbSymbolTableRecord
100
AcDbLinetypeTableRecord
  2
CONTINUOUS
 70
64
  3
Solid line
 72
65
 73
0
 40
0.0
  0
LTYPE
  5
1F5
100
AcDbSymbolTableRecord
100
AcDbLinetypeTableRecord
  2
CENTER
 70
64
  3
____ _ ____ _ ____ _ ____ _ ____ _ ____ _ ____
 72
65
 73
4
 40
0.6
 49
0.375
 74
0
 49
-0.075
 74
0
 49
0.075
 74
0
 49
-0.075
 74
0
  0
LTYPE
  5
1F6
100
AcDbSymbolTableRecord
100
AcDbLinetypeTableRecord
  2
HIDDEN
 70
64
  3
- - - - - - - - - - - - - - - - - - - -
 72
65
 73
2
 40
0.2
 49
0.1
 74
0
 49
-0.1
 74
0
  0
LTYPE
  5
1F7
100
AcDbSymbolTableRecord
100
AcDbLinetypeTableRecord
  2
PHANTOM
 70
64
  3
_____ _ _ _____ _ _ _____ _ _ _____
 72
65
 73
6
 40
0.8
 49
0.45
 74
0
 49
-0.05
 74
0
 49
0.1
 74
0
 49
-0.05
 74
0
 49
0.1
 74
0
 49
-0.05
 74
0
  0
LTYPE
  5
1F8
100
AcDbSymbolTableRecord
100
AcDbLinetypeTableRecord
  2
DOT
 70
64
  3
. . . . . . . . . . . . . . . . . . . .
 72
65
 73
2
 40
0.2
 49
0.1
 74
0
 49
-0.1
 74
0
  0
LTYPE
  5
1F9
100
AcDbSymbolTableRecord
100
AcDbLinetypeTableRecord
  2
DASHED
 70
64
  3
- - - - - - - - - - - - - - - - - - - -
 72
65
 73
2
 40
0.2
 49
0.1
 74
0
 49
-0.1
 74
0
  0
ENDTAB
  0
TABLE
  2
LAYER
  5
2
100
AcDbSymbolTable
 70
36
  0
LAYER
  5
10
100
AcDbSymbolTableRecord
100
AcDbLayerTableRecord
  2
0
 70
0
 62
7
  6
CONTINUOUS
370
-3
390
F
  0
LAYER
  5
1FA
100
AcDbSymbolTableRecord
100
AcDbLayerTableRecord
  2
DEFAULT_1
 70
0
 62
7
  6
CENTER
370
-3
390
F
  0
LAYER
  5
1FB
100
AcDbSymbolTableRecord
100
AcDbLayerTableRecord
  2
DEFAULT_2
 70
0
 62
8
  6
HIDDEN
370
-3
390
F
  0
LAYER
  5
1FC
100
AcDbSymbolTableRecord
100
AcDbLayerTableRecord
  2
DEFAULT_3
 70
0
 62
7
  6
PHANTOM
370
-3
390
F
  0
LAYER
  5
1FD
100
AcDbSymbolTableRecord
100
AcDbLayerTableRecord
  2
00_COMPONENTS
 70
0
 62
7
  6
CONTINUOUS
370
-3
390
F
  0
LAYER
  5
1FE
100
AcDbSymbolTableRecord
100
AcDbLayerTableRecord
  2
00_COMPONENTS_1
 70
0
 62
7
  6
CONTINUOUS
370
-3
390
F
  0
LAYER
  5
1FF
100
AcDbSymbolTableRecord
100
AcDbLayerTableRecord
  2
01_1_DEFAULT_DATUMS
 70
0
 62
7
  6
CONTINUOUS
370
-3
390
F
  0
LAYER
  5
200
100
AcDbSymbolTableRecord
100
AcDbLayerTableRecord
  2
01_PLANES
 70
0
 62
7
  6
CONTINUOUS
370
-3
390
F
  0
LAYER
  5
201
100
AcDbSymbolTableRecord
100
AcDbLayerTableRecord
  2
02_COORD_SYS
 70
0
 62
7
  6
CONTINUOUS
370
-3
390
F
  0
LAYER
  5
202
100
AcDbSymbolTableRecord
100
AcDbLayerTableRecord
  2
03_AXES
 70
0
 62
7
  6
CONTINUOUS
370
-3
390
F
  0
LAYER
  5
203
100
AcDbSymbolTableRecord
100
AcDbLayerTableRecord
  2
03_AXES_1
 70
0
 62
7
  6
CONTINUOUS
370
-3
390
F
  0
LAYER
  5
204
100
AcDbSymbolTableRecord
100
AcDbLayerTableRecord
  2
04_POINTS
 70
0
 62
7
  6
CONTINUOUS
370
-3
390
F
  0
LAYER
  5
205
100
AcDbSymbolTableRecord
100
AcDbLayerTableRecord
  2
05_CURVES
 70
0
 62
7
  6
CONTINUOUS
370
-3
390
F
  0
LAYER
  5
206
100
AcDbSymbolTableRecord
100
AcDbLayerTableRecord
  2
06_SURFS
 70
0
 62
7
  6
CONTINUOUS
370
-3
390
F
  0
LAYER
  5
207
100
AcDbSymbolTableRecord
100
AcDbLayerTableRecord
  2
07_COSMETICS
 70
0
 62
7
  6
CONTINUOUS
370
-3
390
F
  0
LAYER
  5
208
100
AcDbSymbolTableRecord
100
AcDbLayerTableRecord
  2
10_NOTES
 70
0
 62
7
  6
CONTINUOUS
370
-3
390
F
  0
LAYER
  5
209
100
AcDbSymbolTableRecord
100
AcDbLayerTableRecord
  2
11_NOTES_PUB
 70
0
 62
7
  6
CONTINUOUS
370
-3
390
F
  0
LAYER
  5
20A
100
AcDbSymbolTableRecord
100
AcDbLayerTableRecord
  2
13_REF_GTOL
 70
0
 62
7
  6
CONTINUOUS
370
-3
390
F
  0
LAYER
  5
20B
100
AcDbSymbolTableRecord
100
AcDbLayerTableRecord
  2
16_MISC
 70
0
 62
7
  6
CONTINUOUS
370
-3
390
F
  0
LAYER
  5
20C
100
AcDbSymbolTableRecord
100
AcDbLayerTableRecord
  2
17_NO_PRINT
 70
0
 62
7
  6
CONTINUOUS
370
-3
390
F
  0
LAYER
  5
20D
100
AcDbSymbolTableRecord
100
AcDbLayerTableRecord
  2
18_DATUM_CAMS_JOINTS
 70
0
 62
7
  6
CONTINUOUS
370
-3
390
F
  0
LAYER
  5
20E
100
AcDbSymbolTableRecord
100
AcDbLayerTableRecord
  2
19_DATUM_FUNCTIONAL
 70
0
 62
7
  6
CONTINUOUS
370
-3
390
F
  0
LAYER
  5
20F
100
AcDbSymbolTableRecord
100
AcDbLayerTableRecord
  2
20_DATUM_KINEMATIC_SCHEME
 70
0
 62
7
  6
CONTINUOUS
370
-3
390
F
  0
LAYER
  5
210
100
AcDbSymbolTableRecord
100
AcDbLayerTableRecord
  2
INTFCLR_18
 70
0
 62
7
  6
CONTINUOUS
370
-3
390
F
  0
LAYER
  5
211
100
AcDbSymbolTableRecord
100
AcDbLayerTableRecord
  2
INTFCLR_21
 70
0
 62
7
  6
CONTINUOUS
370
-3
390
F
  0
LAYER
  5
212
100
AcDbSymbolTableRecord
100
AcDbLayerTableRecord
  2
INTFCLR_45
 70
0
 62
7
  6
CONTINUOUS
370
-3
390
F
  0
LAYER
  5
213
100
AcDbSymbolTableRecord
100
AcDbLayerTableRecord
  2
INTF_BLANK
 70
0
 62
7
  6
CONTINUOUS
370
-3
390
F
  0
LAYER
  5
214
100
AcDbSymbolTableRecord
100
AcDbLayerTableRecord
  2
INTF_YELLOW
 70
0
 62
7
  6
CONTINUOUS
370
-3
390
F
  0
LAYER
  5
215
100
AcDbSymbolTableRecord
100
AcDbLayerTableRecord
  2
_BLACK_HOLE
 70
0
 62
7
  6
CONTINUOUS
370
-3
390
F
  0
ENDTAB
  0
TABLE
  2
STYLE
  5
3
100
AcDbSymbolTable
 70
1
  0
STYLE
  5
11
100
AcDbSymbolTableRecord
100
AcDbTextStyleTableRecord
  2
STANDARD
 70
0
 40
0.0
 41
0.8
 50
0.0
 71
0
 42
0.2
  3
txt
  4

  0
STYLE
  5
216
100
AcDbSymbolTableRecord
100
AcDbTextStyleTableRecord
  2
TEXTSTYLE_1
 70
0
 40
0.0
 41
0.8
 50
0.0
 71
0
 42
0.2
  3
gdt
  4

  0
ENDTAB
  0
TABLE
  2
VIEW
  5
6
100
AcDbSymbolTable
 70
0
  0
ENDTAB
  0
TABLE
  2
UCS
  5
7
100
AcDbSymbolTable
 70
0
  0
ENDTAB
  0
TABLE
  2
APPID
  5
9
100
AcDbSymbolTable
 70
1
  0
APPID
  5
217
100
AcDbSymbolTableRecord
100
AcDbRegAppTableRecord
  2
ACAD
 70
0
  0
ENDTAB
  0
TABLE
  2
BLOCK_RECORD
  5
1
100
AcDbSymbolTable
 70
0
  0
BLOCK_RECORD
  5
218
100
AcDbSymbolTableRecord
100
AcDbBlockTableRecord
  2
*Model_Space
  0
BLOCK_RECORD
  5
219
100
AcDbSymbolTableRecord
100
AcDbBlockTableRecord
  2
*Paper_Space
  0
BLOCK_RECORD
  5
21A
100
AcDbSymbolTableRecord
100
AcDbBlockTableRecord
  2
_FILLED
  0
ENDTAB
  0
TABLE
  2
DIMSTYLE
  5
A
100
AcDbSymbolTable
 70
1
100
AcDbDimStyleTable
 71
0
  0
DIMSTYLE
105
21B
100
AcDbSymbolTableRecord
100
AcDbDimStyleTableRecord
  2
STANDARD
 70
0
  3

  4

 40
1.0
 41
1.2756230088
 42
1.0
 43
0.38
 44
1.0
 45
0.0
 46
0.0
 47
0.01
 48
0.01
140
1.7858722123
141
0.09
142
0.0
143
25.4
144
1.0
145
0.0
146
1.0
147
0.625
 71
1
 72
0
 73
0
 74
0
 75
0
 76
0
 77
1
 78
8
 79
2
170
0
171
1
172
0
173
0
174
0
175
0
176
0
177
0
178
0
270
2
179
2
271
2
272
2
273
2
274
2
275
0
280
0
281
0
282
0
283
1
284
8
285
0
286
0
287
3
288
0
340
11
278
46
341
21A
342
21A
343
21A
344
21A
  0
ENDTAB
  0
ENDSEC
  0
SECTION
  2
BLOCKS
  0
BLOCK
  5
20
100
AcDbEntity
  8
0
100
AcDbBlockBegin
  2
*Model_Space
 70
0
 10
0.0
 20
0.0
 30
0.0
  3
*Model_Space
  1

  0
ENDBLK
  5
21
100
AcDbEntity
  8
0
100
AcDbBlockEnd
  0
BLOCK
  5
1C
100
AcDbEntity
  8
0
100
AcDbBlockBegin
  2
*Paper_Space
 70
0
 10
0.0
 20
0.0
 30
0.0
  3
*Paper_Space
  1

  0
ENDBLK
  5
1D
100
AcDbEntity
  8
0
100
AcDbBlockEnd
  0
BLOCK
  5
21C
100
AcDbEntity
  8
0
100
AcDbBlockBegin
  2
_FILLED
 70
64
 10
0.0
 20
0.0
  3
_FILLED
  1

  0
SOLID
  5
21D
100
AcDbEntity
  8
0
  6
BYBLOCK
 62
0
100
AcDbTrace
 10
0.0
 20
0.0
 11
-1.0
 21
0.25
 12
-1.0
 22
-0.25
 13
-1.0
 23
-0.25
  0
ENDBLK
  5
21E
100
AcDbEntity
  8
0
  6
BYBLOCK
 62
0
100
AcDbBlockEnd
  0
ENDSEC
  0
SECTION
  2
ENTITIES
  0
LINE
  5
21F
100
AcDbEntity
  8
INTFCLR_18
100
AcDbLine
 62
7
420
3368703
  6
CONTINUOUS
 10
64.267329283
 20
10.8785940983
 11
45.667329283
 21
10.8785940983
  0
LINE
  5
220
100
AcDbEntity
  8
00_COMPONENTS_1
100
AcDbLine
 62
7
  6
CONTINUOUS
 10
43.9456911376
 20
10.8785940983
 11
45.667329283
 21
10.8785940983
  0
LINE
  5
221
100
AcDbEntity
  8
00_COMPONENTS_1
100
AcDbLine
 62
7
  6
CONTINUOUS
 10
64.267329283
 20
10.8785940983
 11
65.967329283
 21
10.8785940983
  0
LINE
  5
222
100
AcDbEntity
  8
INTFCLR_18
100
AcDbLine
 62
7
420
3368703
  6
CONTINUOUS
 10
63.967329283
 20
11.0956680983
 11
45.967329283
 21
11.0956680983
  0
LINE
  5
223
100
AcDbEntity
  8
00_COMPONENTS_1
100
AcDbLine
 62
7
  6
CONTINUOUS
 10
45.967329283
 20
11.0956680983
 11
63.967329283
 21
11.0956680983
  0
LINE
  5
224
100
AcDbEntity
  8
INTFCLR_18
100
AcDbLine
 62
7
420
3368703
  6
CONTINUOUS
 10
64.267329283
 20
11.6681810483
 11
63.967329283
 21
11.6681810483
  0
LINE
  5
225
100
AcDbEntity
  8
INTFCLR_18
100
AcDbLine
 62
7
420
3368703
  6
CONTINUOUS
 10
45.967329283
 20
11.6681810483
 11
45.667329283
 21
11.6681810483
  0
LINE
  5
226
100
AcDbEntity
  8
00_COMPONENTS_1
100
AcDbLine
 62
7
  6
CONTINUOUS
 10
52.017329283
 20
12.9956682627
 11
57.917329283
 21
12.9956682627
  0
LINE
  5
227
100
AcDbEntity
  8
00_COMPONENTS_1
100
AcDbLine
 62
7
  6
CONTINUOUS
 10
51.617329283
 20
13.9456680983
 11
52.9057767893
 21
13.9456680983
  0
LINE
  5
228
100
AcDbEntity
  8
00_COMPONENTS_1
100
AcDbLine
 62
7
  6
CONTINUOUS
 10
57.0288817767
 20
13.9456680983
 11
58.317329283
 21
13.9456680983
  0
LINE
  5
229
100
AcDbEntity
  8
00_COMPONENTS_1
100
AcDbLine
 62
7
  6
CONTINUOUS
 10
56.1673292829
 20
14.0094151323
 11
53.767329284
 21
14.0094151323
  0
LINE
  5
22A
100
AcDbEntity
  8
INTFCLR_18
100
AcDbLine
 62
7
420
3368703
  6
CONTINUOUS
 10
53.767329284
 20
14.0094151323
 11
56.1673292829
 21
14.0094151323
  0
LINE
  5
22B
100
AcDbEntity
  8
INTFCLR_18
100
AcDbLine
 62
7
420
3368703
  6
CONTINUOUS
 10
56.167329282
 20
14.8819213932
 11
53.7673292831
 21
14.8819213932
  0
LINE
  5
22C
100
AcDbEntity
  8
00_COMPONENTS_1
100
AcDbLine
 62
7
  6
CONTINUOUS
 10
53.7673292831
 20
14.8819213932
 11
56.167329282
 21
14.8819213932
  0
LINE
  5
22D
100
AcDbEntity
  8
00_COMPONENTS_1
100
AcDbLine
 62
7
  6
CONTINUOUS
 10
57.2673292829
 20
15.0094151323
 11
52.667329284
 21
15.0094151323
  0
LINE
  5
22E
100
AcDbEntity
  8
INTFCLR_18
100
AcDbLine
 62
7
420
3368703
  6
CONTINUOUS
 10
52.667329284
 20
15.0094151323
 11
57.2673292829
 21
15.0094151323
  0
LINE
  5
22F
100
AcDbEntity
  8
00_COMPONENTS_1
100
AcDbLine
 62
7
  6
CONTINUOUS
 10
27.567329283
 20
15.2956682627
 11
82.367329283
 21
15.2956682627
  0
LINE
  5
230
100
AcDbEntity
  8
INTFCLR_18
100
AcDbLine
 62
7
420
3368703
  6
CONTINUOUS
 10
27.567329283
 20
15.2956682627
 11
82.367330636
 21
15.2956682627
  0
LINE
  5
231
100
AcDbEntity
  8
00_COMPONENTS_1
100
AcDbLine
 62
7
  6
CONTINUOUS
 10
73.6220298214
 20
22.7956682627
 11
71.3126287446
 21
22.7956682627
  0
LINE
  5
232
100
AcDbEntity
  8
00_COMPONENTS_1
100
AcDbLine
 62
7
  6
CONTINUOUS
 10
56.1220298214
 20
22.7956682627
 11
53.8126287446
 21
22.7956682627
  0
LINE
  5
233
100
AcDbEntity
  8
00_COMPONENTS_1
100
AcDbLine
 62
7
  6
CONTINUOUS
 10
38.6220298214
 20
22.7956682627
 11
36.3126287446
 21
22.7956682627
  0
LINE
  5
234
100
AcDbEntity
  8
INTFCLR_18
100
AcDbLine
 62
7
420
3368703
  6
CONTINUOUS
 10
36.3126287446
 20
22.7956682627
 11
38.6220298214
 21
22.7956682627
  0
LINE
  5
235
100
AcDbEntity
  8
INTFCLR_18
100
AcDbLine
 62
7
420
3368703
  6
CONTINUOUS
 10
53.8126287446
 20
22.7956682627
 11
56.1220298214
 21
22.7956682627
  0
LINE
  5
236
100
AcDbEntity
  8
INTFCLR_18
100
AcDbLine
 62
7
420
3368703
  6
CONTINUOUS
 10
71.3126287446
 20
22.7956682627
 11
73.6220298214
 21
22.7956682627
  0
LINE
  5
237
100
AcDbEntity
  8
INTFCLR_18
100
AcDbLine
 62
7
420
3368703
  6
CONTINUOUS
 10
73.6220298214
 20
26.7956682627
 11
71.3126287446
 21
26.7956682627
  0
LINE
  5
238
100
AcDbEntity
  8
INTFCLR_18
100
AcDbLine
 62
7
420
3368703
  6
CONTINUOUS
 10
56.1220298214
 20
26.7956682627
 11
53.8126287446
 21
26.7956682627
  0
LINE
  5
239
100
AcDbEntity
  8
INTFCLR_18
100
AcDbLine
 62
7
420
3368703
  6
CONTINUOUS
 10
38.6220298214
 20
26.7956682627
 11
36.3126287446
 21
26.7956682627
  0
LINE
  5
23A
100
AcDbEntity
  8
00_COMPONENTS_1
100
AcDbLine
 62
7
  6
CONTINUOUS
 10
36.3126287446
 20
26.7956682627
 11
38.6220298214
 21
26.7956682627
  0
LINE
  5
23B
100
AcDbEntity
  8
00_COMPONENTS_1
100
AcDbLine
 62
7
  6
CONTINUOUS
 10
53.8126287446
 20
26.7956682627
 11
56.1220298214
 21
26.7956682627
  0
LINE
  5
23C
100
AcDbEntity
  8
00_COMPONENTS_1
100
AcDbLine
 62
7
  6
CONTINUOUS
 10
71.3126287446
 20
26.7956682627
 11
73.6220298214
 21
26.7956682627
  0
LINE
  5
23D
100
AcDbEntity
  8
00_COMPONENTS_1
100
AcDbLine
 62
7
  6
CONTINUOUS
 10
35.1579282063
 20
24.7956682627
 11
36.3126287446
 21
22.7956682627
  0
LINE
  5
23E
100
AcDbEntity
  8
INTFCLR_18
100
AcDbLine
 62
7
420
3368703
  6
CONTINUOUS
 10
35.1579282063
 20
24.7956682627
 11
36.3126287446
 21
22.7956682627
  0
LINE
  5
23F
100
AcDbEntity
  8
00_COMPONENTS_1
100
AcDbLine
 62
7
  6
CONTINUOUS
 10
36.3126287446
 20
124.5956682627
 11
35.1579282063
 21
122.5956682627
  0
LINE
  5
240
100
AcDbEntity
  8
INTFCLR_18
100
AcDbLine
 62
7
420
3368703
  6
CONTINUOUS
 10
36.3126287446
 20
124.5956682627
 11
35.1579282063
 21
122.5956682627
  0
LINE
  5
241
100
AcDbEntity
  8
00_COMPONENTS_1
100
AcDbLine
 62
7
  6
CONTINUOUS
 10
38.6220298214
 20
120.5956682627
 11
39.7767303598
 21
122.5956682627
  0
LINE
  5
242
100
AcDbEntity
  8
INTFCLR_18
100
AcDbLine
 62
7
420
3368703
  6
CONTINUOUS
 10
38.6220298214
 20
120.5956682627
 11
39.7767303598
 21
122.5956682627
  0
LINE
  5
243
100
AcDbEntity
  8
00_COMPONENTS_1
100
AcDbLine
 62
7
  6
CONTINUOUS
 10
39.7767303598
 20
24.7956682627
 11
38.6220298214
 21
26.7956682627
  0
LINE
  5
244
100
AcDbEntity
  8
INTFCLR_18
100
AcDbLine
 62
7
420
3368703
  6
CONTINUOUS
 10
39.7767303598
 20
24.7956682627
 11
38.6220298214
 21
26.7956682627
  0
LINE
  5
245
100
AcDbEntity
  8
INTFCLR_18
100
AcDbLine
 62
7
420
3368703
  6
CONTINUOUS
 10
27.567329283
 20
139.7655007707
 11
27.567329283
 21
132.0956682627
  0
LINE
  5
246
100
AcDbEntity
  8
INTFCLR_18
100
AcDbLine
 62
7
420
3368703
  6
CONTINUOUS
 10
27.567329283
 20
15.2956682627
 11
27.567329283
 21
12.6575699702
  0
LINE
  5
247
100
AcDbEntity
  8
00_COMPONENTS_1
100
AcDbLine
 62
7
  6
CONTINUOUS
 10
27.567329283
 20
15.2956682627
 11
27.567329283
 21
132.0956682627
  0
LINE
  5
248
100
AcDbEntity
  8
00_COMPONENTS_1
100
AcDbLine
 62
7
  6
CONTINUOUS
 10
76.667329283
 20
44.8956682627
 11
75.667329283
 21
44.8956682627
  0
LINE
  5
249
100
AcDbEntity
  8
00_COMPONENTS_1
100
AcDbLine
 62
7
  6
CONTINUOUS
 10
66.067329283
 20
44.8956682627
 11
65.067329283
 21
44.8956682627
  0
LINE
  5
24A
100
AcDbEntity
  8
00_COMPONENTS_1
100
AcDbLine
 62
7
  6
CONTINUOUS
 10
55.467329283
 20
44.8956682627
 11
54.467329283
 21
44.8956682627
  0
LINE
  5
24B
100
AcDbEntity
  8
00_COMPONENTS_1
100
AcDbLine
 62
7
  6
CONTINUOUS
 10
44.867329283
 20
44.8956682627
 11
43.867329283
 21
44.8956682627
  0
LINE
  5
24C
100
AcDbEntity
  8
INTFCLR_18
100
AcDbLine
 62
7
420
3368703
  6
CONTINUOUS
 10
82.367329283
 20
47.8956682627
 11
27.56732793
 21
47.8956682627
  0
LINE
  5
24D
100
AcDbEntity
  8
00_COMPONENTS_1
100
AcDbLine
 62
7
  6
CONTINUOUS
 10
27.567329283
 20
47.8956682627
 11
82.367329283
 21
47.8956682627
  0
LINE
  5
24E
100
AcDbEntity
  8
00_COMPONENTS_1
100
AcDbLine
 62
7
  6
CONTINUOUS
 10
53.8126287446
 20
124.5956682627
 11
52.6579282063
 21
122.5956682627
  0
LINE
  5
24F
100
AcDbEntity
  8
INTFCLR_18
100
AcDbLine
 62
7
420
3368703
  6
CONTINUOUS
 10
53.8126287446
 20
124.5956682627
 11
52.6579282063
 21
122.5956682627
  0
LINE
  5
250
100
AcDbEntity
  8
00_COMPONENTS_1
100
AcDbLine
 62
7
  6
CONTINUOUS
 10
52.6579282063
 20
24.7956682627
 11
53.8126287446
 21
22.7956682627
  0
LINE
  5
251
100
AcDbEntity
  8
INTFCLR_18
100
AcDbLine
 62
7
420
3368703
  6
CONTINUOUS
 10
52.6579282063
 20
24.7956682627
 11
53.8126287446
 21
22.7956682627
  0
LINE
  5
252
100
AcDbEntity
  8
00_COMPONENTS_1
100
AcDbLine
 62
7
  6
CONTINUOUS
 10
57.2767303598
 20
24.7956682627
 11
56.1220298214
 21
26.7956682627
  0
LINE
  5
253
100
AcDbEntity
  8
INTFCLR_18
100
AcDbLine
 62
7
420
3368703
  6
CONTINUOUS
 10
57.2767303598
 20
24.7956682627
 11
56.1220298214
 21
26.7956682627
  0
LINE
  5
254
100
AcDbEntity
  8
INTFCLR_18
100
AcDbLine
 62
7
420
3368703
  6
CONTINUOUS
 10
32.8058214829
 20
84.3956682627
 11
32.8058214829
 21
62.9956682627
  0
LINE
  5
255
100
AcDbEntity
  8
00_COMPONENTS_1
100
AcDbLine
 62
7
  6
CONTINUOUS
 10
32.827329283
 20
84.3956682627
 11
32.827329283
 21
62.9956682627
  0
LINE
  5
256
100
AcDbEntity
  8
INTFCLR_18
100
AcDbLine
 62
7
420
3368703
  6
CONTINUOUS
 10
32.827329283
 20
88.9448221673
 11
32.827329283
 21
58.4531135352
  0
LINE
  5
257
100
AcDbEntity
  8
00_COMPONENTS_1
100
AcDbLine
 62
7
  6
CONTINUOUS
 10
36.827329283
 20
88.2956682627
 11
36.827329283
 21
88.3956682627
  0
LINE
  5
258
100
AcDbEntity
  8
00_COMPONENTS_1
100
AcDbLine
 62
7
  6
CONTINUOUS
 10
56.1220298214
 20
120.5956682627
 11
57.2767303598
 21
122.5956682627
  0
LINE
  5
259
100
AcDbEntity
  8
INTFCLR_18
100
AcDbLine
 62
7
420
3368703
  6
CONTINUOUS
 10
56.1220298214
 20
120.5956682627
 11
57.2767303598
 21
122.5956682627
  0
LINE
  5
25A
100
AcDbEntity
  8
00_COMPONENTS_1
100
AcDbLine
 62
7
  6
CONTINUOUS
 10
73.8515544756
 20
53.7656682627
 11
71.497329283
 21
53.7656682627
  0
LINE
  5
25B
100
AcDbEntity
  8
00_COMPONENTS_1
100
AcDbLine
 62
7
  6
CONTINUOUS
 10
70.237329283
 20
53.7656682627
 11
67.8831040904
 21
53.7656682627
  0
LINE
  5
25C
100
AcDbEntity
  8
00_COMPONENTS_1
100
AcDbLine
 62
7
  6
CONTINUOUS
 10
63.2515544756
 20
53.7656682627
 11
60.897329283
 21
53.7656682627
  0
LINE
  5
25D
100
AcDbEntity
  8
00_COMPONENTS_1
100
AcDbLine
 62
7
  6
CONTINUOUS
 10
59.637329283
 20
53.7656682627
 11
57.2831040904
 21
53.7656682627
  0
LINE
  5
25E
100
AcDbEntity
  8
00_COMPONENTS_1
100
AcDbLine
 62
7
  6
CONTINUOUS
 10
52.6515544756
 20
53.7656682627
 11
50.297329283
 21
53.7656682627
  0
LINE
  5
25F
100
AcDbEntity
  8
00_COMPONENTS_1
100
AcDbLine
 62
7
  6
CONTINUOUS
 10
49.037329283
 20
53.7656682627
 11
46.6831040904
 21
53.7656682627
  0
LINE
  5
260
100
AcDbEntity
  8
INTFCLR_18
100
AcDbLine
 62
7
420
3368703
  6
CONTINUOUS
 10
46.6831040904
 20
53.7656682627
 11
49.037329283
 21
53.7656682627
  0
LINE
  5
261
100
AcDbEntity
  8
INTFCLR_18
100
AcDbLine
 62
7
420
3368703
  6
CONTINUOUS
 10
50.297329283
 20
53.7656682627
 11
52.6515544756
 21
53.7656682627
  0
LINE
  5
262
100
AcDbEntity
  8
INTFCLR_18
100
AcDbLine
 62
7
420
3368703
  6
CONTINUOUS
 10
57.2831040904
 20
53.7656682627
 11
59.637329283
 21
53.7656682627
  0
LINE
  5
263
100
AcDbEntity
  8
INTFCLR_18
100
AcDbLine
 62
7
420
3368703
  6
CONTINUOUS
 10
60.897329283
 20
53.7656682627
 11
63.2515544756
 21
53.7656682627
  0
LINE
  5
264
100
AcDbEntity
  8
INTFCLR_18
100
AcDbLine
 62
7
420
3368703
  6
CONTINUOUS
 10
67.8831040904
 20
53.7656682627
 11
70.237329283
 21
53.7656682627
  0
LINE
  5
265
100
AcDbEntity
  8
INTFCLR_18
100
AcDbLine
 62
7
420
3368703
  6
CONTINUOUS
 10
71.497329283
 20
53.7656682627
 11
73.8515544756
 21
53.7656682627
  0
LINE
  5
266
100
AcDbEntity
  8
INTFCLR_18
100
AcDbLine
 62
7
420
3368703
  6
CONTINUOUS
 10
73.8515544756
 20
55.0256682627
 11
71.497329283
 21
55.0256682627
  0
LINE
  5
267
100
AcDbEntity
  8
INTFCLR_18
100
AcDbLine
 62
7
420
3368703
  6
CONTINUOUS
 10
70.237329283
 20
55.0256682627
 11
67.8831040904
 21
55.0256682627
  0
LINE
  5
268
100
AcDbEntity
  8
INTFCLR_18
100
AcDbLine
 62
7
420
3368703
  6
CONTINUOUS
 10
63.2515544756
 20
55.0256682627
 11
60.897329283
 21
55.0256682627
  0
LINE
  5
269
100
AcDbEntity
  8
INTFCLR_18
100
AcDbLine
 62
7
420
3368703
  6
CONTINUOUS
 10
59.637329283
 20
55.0256682627
 11
57.2831040904
 21
55.0256682627
  0
LINE
  5
26A
100
AcDbEntity
  8
INTFCLR_18
100
AcDbLine
 62
7
420
3368703
  6
CONTINUOUS
 10
52.6515544756
 20
55.0256682627
 11
50.297329283
 21
55.0256682627
  0
LINE
  5
26B
100
AcDbEntity
  8
INTFCLR_18
100
AcDbLine
 62
7
420
3368703
  6
CONTINUOUS
 10
49.037329283
 20
55.0256682627
 11
46.6831040904
 21
55.0256682627
  0
LINE
  5
26C
100
AcDbEntity
  8
00_COMPONENTS_1
100
AcDbLine
 62
7
  6
CONTINUOUS
 10
46.6831040904
 20
55.0256682627
 11
49.037329283
 21
55.0256682627
  0
LINE
  5
26D
100
AcDbEntity
  8
00_COMPONENTS_1
100
AcDbLine
 62
7
  6
CONTINUOUS
 10
50.297329283
 20
55.0256682627
 11
52.6515544756
 21
55.0256682627
  0
LINE
  5
26E
100
AcDbEntity
  8
00_COMPONENTS_1
100
AcDbLine
 62
7
  6
CONTINUOUS
 10
57.2831040904
 20
55.0256682627
 11
59.637329283
 21
55.0256682627
  0
LINE
  5
26F
100
AcDbEntity
  8
00_COMPONENTS_1
100
AcDbLine
 62
7
  6
CONTINUOUS
 10
60.897329283
 20
55.0256682627
 11
63.2515544756
 21
55.0256682627
  0
LINE
  5
270
100
AcDbEntity
  8
00_COMPONENTS_1
100
AcDbLine
 62
7
  6
CONTINUOUS
 10
67.8831040904
 20
55.0256682627
 11
70.237329283
 21
55.0256682627
  0
LINE
  5
271
100
AcDbEntity
  8
00_COMPONENTS_1
100
AcDbLine
 62
7
  6
CONTINUOUS
 10
71.497329283
 20
55.0256682627
 11
73.8515544756
 21
55.0256682627
  0
LINE
  5
272
100
AcDbEntity
  8
INTFCLR_18
100
AcDbLine
 62
7
420
3368703
  6
CONTINUOUS
 10
36.8057360675
 20
58.9956682627
 11
49.2075603354
 21
58.9956682627
  0
LINE
  5
273
100
AcDbEntity
  8
00_COMPONENTS_1
100
AcDbLine
 62
7
  6
CONTINUOUS
 10
27.567329283
 20
58.9956682627
 11
82.367329283
 21
58.9956682627
  0
LINE
  5
274
100
AcDbEntity
  8
00_COMPONENTS_1
100
AcDbLine
 62
7
  6
CONTINUOUS
 10
35.9385098413
 20
59.0956682627
 11
74.5161487248
 21
59.0956682627
  0
LINE
  5
275
100
AcDbEntity
  8
00_COMPONENTS_1
100
AcDbLine
 62
7
  6
CONTINUOUS
 10
43.9456911376
 20
10.8785940983
 11
43.9408093367
 21
15.2956682627
  0
LINE
  5
276
100
AcDbEntity
  8
INTFCLR_18
100
AcDbLine
 62
7
420
3368703
  6
CONTINUOUS
 10
43.3915225429
 20
15.2956682627
 11
43.3915225429
 21
12.4923563695
  0
LINE
  5
277
100
AcDbEntity
  8
00_COMPONENTS_1
100
AcDbLine
 62
7
  6
CONTINUOUS
 10
43.867329283
 20
102.4956682627
 11
43.867329283
 21
99.4956682627
  0
LINE
  5
278
100
AcDbEntity
  8
00_COMPONENTS_1
100
AcDbLine
 62
7
  6
CONTINUOUS
 10
43.867329283
 20
47.8956682627
 11
43.867329283
 21
44.8956682627
  0
LINE
  5
279
100
AcDbEntity
  8
00_COMPONENTS_1
100
AcDbLine
 62
7
  6
CONTINUOUS
 10
44.867329283
 20
44.8956682627
 11
44.867329283
 21
47.8956682627
  0
LINE
  5
27A
100
AcDbEntity
  8
00_COMPONENTS_1
100
AcDbLine
 62
7
  6
CONTINUOUS
 10
44.867329283
 20
99.4956682627
 11
44.867329283
 21
102.4956682627
  0
LINE
  5
27B
100
AcDbEntity
  8
00_COMPONENTS_1
100
AcDbLine
 62
7
  6
CONTINUOUS
 10
45.667329283
 20
15.2956682627
 11
45.667329283
 21
10.8785940983
  0
LINE
  5
27C
100
AcDbEntity
  8
00_COMPONENTS_1
100
AcDbLine
 62
7
  6
CONTINUOUS
 10
45.967329283
 20
15.2956682627
 11
45.967329283
 21
11.0956680983
  0
LINE
  5
27D
100
AcDbEntity
  8
00_COMPONENTS_1
100
AcDbLine
 62
7
  6
CONTINUOUS
 10
71.3126287446
 20
124.5956682627
 11
70.1579282063
 21
122.5956682627
  0
LINE
  5
27E
100
AcDbEntity
  8
INTFCLR_18
100
AcDbLine
 62
7
420
3368703
  6
CONTINUOUS
 10
71.3126287446
 20
124.5956682627
 11
70.1579282063
 21
122.5956682627
  0
LINE
  5
27F
100
AcDbEntity
  8
INTFCLR_18
100
AcDbLine
 62
7
420
3368703
  6
CONTINUOUS
 10
64.667329283
 20
63.2456682627
 11
62.817329283
 21
63.2456682627
  0
LINE
  5
280
100
AcDbEntity
  8
00_COMPONENTS_1
100
AcDbLine
 62
7
  6
CONTINUOUS
 10
70.1579282063
 20
24.7956682627
 11
71.3126287446
 21
22.7956682627
  0
LINE
  5
281
100
AcDbEntity
  8
INTFCLR_18
100
AcDbLine
 62
7
420
3368703
  6
CONTINUOUS
 10
70.1579282063
 20
24.7956682627
 11
71.3126287446
 21
22.7956682627
  0
LINE
  5
282
100
AcDbEntity
  8
00_COMPONENTS_1
100
AcDbLine
 62
7
  6
CONTINUOUS
 10
48.067329283
 20
11.0956680983
 11
48.067329283
 21
15.2956682627
  0
LINE
  5
283
100
AcDbEntity
  8
INTFCLR_18
100
AcDbLine
 62
7
420
3368703
  6
CONTINUOUS
 10
49.037329283
 20
95.9798934553
 11
49.037329283
 21
93.6256682627
  0
LINE
  5
284
100
AcDbEntity
  8
INTFCLR_18
100
AcDbLine
 62
7
420
3368703
  6
CONTINUOUS
 10
49.037329283
 20
92.3656682627
 11
49.037329283
 21
90.0114430702
  0
LINE
  5
285
100
AcDbEntity
  8
INTFCLR_18
100
AcDbLine
 62
7
420
3368703
  6
CONTINUOUS
 10
49.037329283
 20
57.3798934553
 11
49.037329283
 21
55.0256682627
  0
LINE
  5
286
100
AcDbEntity
  8
INTFCLR_18
100
AcDbLine
 62
7
420
3368703
  6
CONTINUOUS
 10
49.037329283
 20
53.7656682627
 11
49.037329283
 21
51.4114430702
  0
LINE
  5
287
100
AcDbEntity
  8
00_COMPONENTS_1
100
AcDbLine
 62
7
  6
CONTINUOUS
 10
49.037329283
 20
51.4114430701
 11
49.037329283
 21
53.7656682627
  0
LINE
  5
288
100
AcDbEntity
  8
00_COMPONENTS_1
100
AcDbLine
 62
7
  6
CONTINUOUS
 10
49.037329283
 20
55.0256682627
 11
49.037329283
 21
57.3798934553
  0
LINE
  5
289
100
AcDbEntity
  8
00_COMPONENTS_1
100
AcDbLine
 62
7
  6
CONTINUOUS
 10
49.037329283
 20
90.0114430701
 11
49.037329283
 21
92.3656682627
  0
LINE
  5
28A
100
AcDbEntity
  8
00_COMPONENTS_1
100
AcDbLine
 62
7
  6
CONTINUOUS
 10
49.037329283
 20
93.6256682627
 11
49.037329283
 21
95.9798934553
  0
LINE
  5
28B
100
AcDbEntity
  8
00_COMPONENTS_1
100
AcDbLine
 62
7
  6
CONTINUOUS
 10
49.2075603354
 20
59.0956682627
 11
49.2075603354
 21
58.9956682627
  0
LINE
  5
28C
100
AcDbEntity
  8
00_COMPONENTS_1
100
AcDbLine
 62
7
  6
CONTINUOUS
 10
49.867329283
 20
15.2956682627
 11
49.867329283
 21
11.0956680983
  0
LINE
  5
28D
100
AcDbEntity
  8
00_COMPONENTS_1
100
AcDbLine
 62
7
  6
CONTINUOUS
 10
50.297329283
 20
95.9798934553
 11
50.297329283
 21
93.6256682627
  0
LINE
  5
28E
100
AcDbEntity
  8
00_COMPONENTS_1
100
AcDbLine
 62
7
  6
CONTINUOUS
 10
50.297329283
 20
92.3656682627
 11
50.297329283
 21
90.0114430701
  0
LINE
  5
28F
100
AcDbEntity
  8
00_COMPONENTS_1
100
AcDbLine
 62
7
  6
CONTINUOUS
 10
50.297329283
 20
57.3798934553
 11
50.297329283
 21
55.0256682627
  0
LINE
  5
290
100
AcDbEntity
  8
00_COMPONENTS_1
100
AcDbLine
 62
7
  6
CONTINUOUS
 10
50.297329283
 20
53.7656682627
 11
50.297329283
 21
51.4114430701
  0
LINE
  5
291
100
AcDbEntity
  8
INTFCLR_18
100
AcDbLine
 62
7
420
3368703
  6
CONTINUOUS
 10
50.297329283
 20
51.4114430701
 11
50.297329283
 21
53.7656682627
  0
LINE
  5
292
100
AcDbEntity
  8
INTFCLR_18
100
AcDbLine
 62
7
420
3368703
  6
CONTINUOUS
 10
50.297329283
 20
55.0256682627
 11
50.297329283
 21
57.3798934553
  0
LINE
  5
293
100
AcDbEntity
  8
INTFCLR_18
100
AcDbLine
 62
7
420
3368703
  6
CONTINUOUS
 10
50.297329283
 20
90.0114430701
 11
50.297329283
 21
92.3656682627
  0
LINE
  5
294
100
AcDbEntity
  8
INTFCLR_18
100
AcDbLine
 62
7
420
3368703
  6
CONTINUOUS
 10
50.297329283
 20
93.6256682627
 11
50.297329283
 21
95.9798934553
  0
LINE
  5
295
100
AcDbEntity
  8
00_COMPONENTS_1
100
AcDbLine
 62
7
  6
CONTINUOUS
 10
50.467329283
 20
15.2956682627
 11
50.467329283
 21
11.0956680983
  0
LINE
  5
296
100
AcDbEntity
  8
00_COMPONENTS_1
100
AcDbLine
 62
7
  6
CONTINUOUS
 10
73.6220298214
 20
120.5956682627
 11
74.7767303598
 21
122.5956682627
  0
LINE
  5
297
100
AcDbEntity
  8
INTFCLR_18
100
AcDbLine
 62
7
420
3368703
  6
CONTINUOUS
 10
73.6220298214
 20
120.5956682627
 11
74.7767303598
 21
122.5956682627
  0
LINE
  5
298
100
AcDbEntity
  8
00_COMPONENTS_1
100
AcDbLine
 62
7
  6
CONTINUOUS
 10
74.7767303598
 20
24.7956682627
 11
73.6220298214
 21
26.7956682627
  0
LINE
  5
299
100
AcDbEntity
  8
INTFCLR_18
100
AcDbLine
 62
7
420
3368703
  6
CONTINUOUS
 10
74.7767303598
 20
24.7956682627
 11
73.6220298214
 21
26.7956682627
  0
LINE
  5
29A
100
AcDbEntity
  8
00_COMPONENTS_1
100
AcDbLine
 62
7
  6
CONTINUOUS
 10
51.617329283
 20
13.9456680983
 11
51.617329283
 21
14.9410884252
  0
LINE
  5
29B
100
AcDbEntity
  8
00_COMPONENTS_1
100
AcDbLine
 62
7
  6
CONTINUOUS
 10
51.717329283
 20
13.9456680983
 11
51.717329283
 21
13.2956682627
  0
LINE
  5
29C
100
AcDbEntity
  8
00_COMPONENTS_1
100
AcDbLine
 62
7
  6
CONTINUOUS
 10
54.467329283
 20
102.4956682627
 11
54.467329283
 21
99.4956682627
  0
LINE
  5
29D
100
AcDbEntity
  8
00_COMPONENTS_1
100
AcDbLine
 62
7
  6
CONTINUOUS
 10
54.467329283
 20
47.8956682627
 11
54.467329283
 21
44.8956682627
  0
LINE
  5
29E
100
AcDbEntity
  8
0
100
AcDbLine
 62
7
420
3368703
  6
CONTINUOUS
 10
54.967329283
 20
14.5728651054
 11
54.967329283
 21
10.85107073
  0
LINE
  5
29F
100
AcDbEntity
  8
INTF_YELLOW
100
AcDbLine
 62
2
  6
CONTINUOUS
 10
54.967329283
 20
15.2956682627
 11
54.967329283
 21
44.8956682627
  0
LINE
  5
2A0
100
AcDbEntity
  8
INTF_YELLOW
100
AcDbLine
 62
2
  6
CONTINUOUS
 10
54.967329283
 20
102.4956682627
 11
54.967329283
 21
132.0956682627
  0
LINE
  5
2A1
100
AcDbEntity
  8
00_COMPONENTS_1
100
AcDbLine
 62
7
  6
CONTINUOUS
 10
55.467329283
 20
44.8956682627
 11
55.467329283
 21
47.8956682627
  0
LINE
  5
2A2
100
AcDbEntity
  8
00_COMPONENTS_1
100
AcDbLine
 62
7
  6
CONTINUOUS
 10
55.467329283
 20
99.4956682627
 11
55.467329283
 21
102.4956682627
  0
LINE
  5
2A3
100
AcDbEntity
  8
00_COMPONENTS_1
100
AcDbLine
 62
7
  6
CONTINUOUS
 10
58.217329283
 20
13.2956682627
 11
58.217329283
 21
13.9456680983
  0
LINE
  5
2A4
100
AcDbEntity
  8
00_COMPONENTS_1
100
AcDbLine
 62
7
  6
CONTINUOUS
 10
58.317329283
 20
13.9456680983
 11
58.317329283
 21
14.9410884252
  0
LINE
  5
2A5
100
AcDbEntity
  8
00_COMPONENTS_1
100
AcDbLine
 62
7
  6
CONTINUOUS
 10
59.467329283
 20
11.0956680983
 11
59.467329283
 21
15.2956682627
  0
LINE
  5
2A6
100
AcDbEntity
  8
INTFCLR_18
100
AcDbLine
 62
7
420
3368703
  6
CONTINUOUS
 10
59.637329283
 20
95.9798934553
 11
59.637329283
 21
93.6256682627
  0
LINE
  5
2A7
100
AcDbEntity
  8
INTFCLR_18
100
AcDbLine
 62
7
420
3368703
  6
CONTINUOUS
 10
59.637329283
 20
92.3656682627
 11
59.637329283
 21
90.0114430702
  0
LINE
  5
2A8
100
AcDbEntity
  8
INTFCLR_18
100
AcDbLine
 62
7
420
3368703
  6
CONTINUOUS
 10
59.637329283
 20
57.3798934553
 11
59.637329283
 21
55.0256682627
  0
LINE
  5
2A9
100
AcDbEntity
  8
INTFCLR_18
100
AcDbLine
 62
7
420
3368703
  6
CONTINUOUS
 10
59.637329283
 20
53.7656682627
 11
59.637329283
 21
51.4114430702
  0
LINE
  5
2AA
100
AcDbEntity
  8
00_COMPONENTS_1
100
AcDbLine
 62
7
  6
CONTINUOUS
 10
59.637329283
 20
51.4114430701
 11
59.637329283
 21
53.7656682627
  0
LINE
  5
2AB
100
AcDbEntity
  8
00_COMPONENTS_1
100
AcDbLine
 62
7
  6
CONTINUOUS
 10
59.637329283
 20
55.0256682627
 11
59.637329283
 21
57.3798934553
  0
LINE
  5
2AC
100
AcDbEntity
  8
00_COMPONENTS_1
100
AcDbLine
 62
7
  6
CONTINUOUS
 10
59.637329283
 20
90.0114430701
 11
59.637329283
 21
92.3656682627
  0
LINE
  5
2AD
100
AcDbEntity
  8
00_COMPONENTS_1
100
AcDbLine
 62
7
  6
CONTINUOUS
 10
59.637329283
 20
93.6256682627
 11
59.637329283
 21
95.9798934553
  0
LINE
  5
2AE
100
AcDbEntity
  8
00_COMPONENTS_1
100
AcDbLine
 62
7
  6
CONTINUOUS
 10
60.067329283
 20
11.0956680983
 11
60.067329283
 21
15.2956682627
  0
LINE
  5
2AF
100
AcDbEntity
  8
00_COMPONENTS_1
100
AcDbLine
 62
7
  6
CONTINUOUS
 10
60.897329283
 20
95.9798934553
 11
60.897329283
 21
93.6256682627
  0
LINE
  5
2B0
100
AcDbEntity
  8
00_COMPONENTS_1
100
AcDbLine
 62
7
  6
CONTINUOUS
 10
60.897329283
 20
92.3656682627
 11
60.897329283
 21
90.0114430701
  0
LINE
  5
2B1
100
AcDbEntity
  8
00_COMPONENTS_1
100
AcDbLine
 62
7
  6
CONTINUOUS
 10
60.897329283
 20
57.3798934553
 11
60.897329283
 21
55.0256682627
  0
LINE
  5
2B2
100
AcDbEntity
  8
00_COMPONENTS_1
100
AcDbLine
 62
7
  6
CONTINUOUS
 10
60.897329283
 20
53.7656682627
 11
60.897329283
 21
51.4114430701
  0
LINE
  5
2B3
100
AcDbEntity
  8
INTFCLR_18
100
AcDbLine
 62
7
420
3368703
  6
CONTINUOUS
 10
60.897329283
 20
51.4114430701
 11
60.897329283
 21
53.7656682627
  0
LINE
  5
2B4
100
AcDbEntity
  8
INTFCLR_18
100
AcDbLine
 62
7
420
3368703
  6
CONTINUOUS
 10
60.897329283
 20
55.0256682627
 11
60.897329283
 21
57.3798934553
  0
LINE
  5
2B5
100
AcDbEntity
  8
INTFCLR_18
100
AcDbLine
 62
7
420
3368703
  6
CONTINUOUS
 10
60.897329283
 20
90.0114430701
 11
60.897329283
 21
92.3656682627
  0
LINE
  5
2B6
100
AcDbEntity
  8
INTFCLR_18
100
AcDbLine
 62
7
420
3368703
  6
CONTINUOUS
 10
60.897329283
 20
93.6256682627
 11
60.897329283
 21
95.9798934553
  0
LINE
  5
2B7
100
AcDbEntity
  8
00_COMPONENTS_1
100
AcDbLine
 62
7
  6
CONTINUOUS
 10
61.867329283
 20
15.2956682627
 11
61.867329283
 21
11.0956680983
  0
LINE
  5
2B8
100
AcDbEntity
  8
00_COMPONENTS_1
100
AcDbLine
 62
7
  6
CONTINUOUS
 10
63.967329283
 20
15.2956682627
 11
63.967329283
 21
11.0956680983
  0
LINE
  5
2B9
100
AcDbEntity
  8
00_COMPONENTS_1
100
AcDbLine
 62
7
  6
CONTINUOUS
 10
64.267329283
 20
15.2956682627
 11
64.267329283
 21
10.8785940983
  0
LINE
  5
2BA
100
AcDbEntity
  8
00_COMPONENTS_1
100
AcDbLine
 62
7
  6
CONTINUOUS
 10
36.3126287446
 20
26.7956682627
 11
35.1579282063
 21
24.7956682627
  0
LINE
  5
2BB
100
AcDbEntity
  8
INTFCLR_18
100
AcDbLine
 62
7
420
3368703
  6
CONTINUOUS
 10
36.3126287446
 20
26.7956682627
 11
35.1579282063
 21
24.7956682627
  0
LINE
  5
2BC
100
AcDbEntity
  8
00_COMPONENTS_1
100
AcDbLine
 62
7
  6
CONTINUOUS
 10
35.1579282063
 20
122.5956682627
 11
36.3126287446
 21
120.5956682627
  0
LINE
  5
2BD
100
AcDbEntity
  8
INTFCLR_18
100
AcDbLine
 62
7
420
3368703
  6
CONTINUOUS
 10
35.1579282063
 20
122.5956682627
 11
36.3126287446
 21
120.5956682627
  0
LINE
  5
2BE
100
AcDbEntity
  8
00_COMPONENTS_1
100
AcDbLine
 62
7
  6
CONTINUOUS
 10
65.067329283
 20
102.4956682627
 11
65.067329283
 21
99.4956682627
  0
LINE
  5
2BF
100
AcDbEntity
  8
00_COMPONENTS_1
100
AcDbLine
 62
7
  6
CONTINUOUS
 10
65.067329283
 20
47.8956682627
 11
65.067329283
 21
44.8956682627
  0
LINE
  5
2C0
100
AcDbEntity
  8
00_COMPONENTS_1
100
AcDbLine
 62
7
  6
CONTINUOUS
 10
65.967329283
 20
15.2956682627
 11
65.967329283
 21
10.8785940983
  0
LINE
  5
2C1
100
AcDbEntity
  8
INTFCLR_18
100
AcDbLine
 62
7
420
3368703
  6
CONTINUOUS
 10
65.967329283
 20
12.3579841569
 11
65.967329283
 21
15.2956682627
  0
LINE
  5
2C2
100
AcDbEntity
  8
00_COMPONENTS_1
100
AcDbLine
 62
7
  6
CONTINUOUS
 10
66.067329283
 20
44.8956682627
 11
66.067329283
 21
47.8956682627
  0
LINE
  5
2C3
100
AcDbEntity
  8
00_COMPONENTS_1
100
AcDbLine
 62
7
  6
CONTINUOUS
 10
66.067329283
 20
99.4956682627
 11
66.067329283
 21
102.4956682627
  0
LINE
  5
2C4
100
AcDbEntity
  8
00_COMPONENTS_1
100
AcDbLine
 62
7
  6
CONTINUOUS
 10
38.6220298214
 20
22.7956682627
 11
39.7767303598
 21
24.7956682627
  0
LINE
  5
2C5
100
AcDbEntity
  8
INTFCLR_18
100
AcDbLine
 62
7
420
3368703
  6
CONTINUOUS
 10
38.6220298214
 20
22.7956682627
 11
39.7767303598
 21
24.7956682627
  0
LINE
  5
2C6
100
AcDbEntity
  8
00_COMPONENTS_1
100
AcDbLine
 62
7
  6
CONTINUOUS
 10
35.9385098413
 20
88.2956682627
 11
74.5161487248
 21
88.2956682627
  0
LINE
  5
2C7
100
AcDbEntity
  8
INTFCLR_18
100
AcDbLine
 62
7
420
3368703
  6
CONTINUOUS
 10
27.567329283
 20
88.3956682627
 11
36.827329283
 21
88.3956682627
  0
LINE
  5
2C8
100
AcDbEntity
  8
00_COMPONENTS_1
100
AcDbLine
 62
7
  6
CONTINUOUS
 10
27.567329283
 20
88.3956682627
 11
82.367329283
 21
88.3956682627
  0
LINE
  5
2C9
100
AcDbEntity
  8
INTFCLR_18
100
AcDbLine
 62
7
420
3368703
  6
CONTINUOUS
 10
73.627329283
 20
88.3956682627
 11
82.367329283
 21
88.3956682627
  0
LINE
  5
2CA
100
AcDbEntity
  8
00_COMPONENTS_1
100
AcDbLine
 62
7
  6
CONTINUOUS
 10
39.7767303598
 20
122.5956682627
 11
38.6220298214
 21
124.5956682627
  0
LINE
  5
2CB
100
AcDbEntity
  8
INTFCLR_18
100
AcDbLine
 62
7
420
3368703
  6
CONTINUOUS
 10
39.7767303598
 20
122.5956682627
 11
38.6220298214
 21
124.5956682627
  0
LINE
  5
2CC
100
AcDbEntity
  8
INTFCLR_18
100
AcDbLine
 62
7
420
3368703
  6
CONTINUOUS
 10
70.237329283
 20
95.9798934553
 11
70.237329283
 21
93.6256682627
  0
LINE
  5
2CD
100
AcDbEntity
  8
INTFCLR_18
100
AcDbLine
 62
7
420
3368703
  6
CONTINUOUS
 10
70.237329283
 20
92.3656682627
 11
70.237329283
 21
90.0114430702
  0
LINE
  5
2CE
100
AcDbEntity
  8
INTFCLR_18
100
AcDbLine
 62
7
420
3368703
  6
CONTINUOUS
 10
70.237329283
 20
57.3798934553
 11
70.237329283
 21
55.0256682627
  0
LINE
  5
2CF
100
AcDbEntity
  8
INTFCLR_18
100
AcDbLine
 62
7
420
3368703
  6
CONTINUOUS
 10
70.237329283
 20
53.7656682627
 11
70.237329283
 21
51.4114430702
  0
LINE
  5
2D0
100
AcDbEntity
  8
00_COMPONENTS_1
100
AcDbLine
 62
7
  6
CONTINUOUS
 10
70.237329283
 20
51.4114430701
 11
70.237329283
 21
53.7656682627
  0
LINE
  5
2D1
100
AcDbEntity
  8
00_COMPONENTS_1
100
AcDbLine
 62
7
  6
CONTINUOUS
 10
70.237329283
 20
55.0256682627
 11
70.237329283
 21
57.3798934553
  0
LINE
  5
2D2
100
AcDbEntity
  8
00_COMPONENTS_1
100
AcDbLine
 62
7
  6
CONTINUOUS
 10
70.237329283
 20
90.0114430701
 11
70.237329283
 21
92.3656682627
  0
LINE
  5
2D3
100
AcDbEntity
  8
00_COMPONENTS_1
100
AcDbLine
 62
7
  6
CONTINUOUS
 10
70.237329283
 20
93.6256682627
 11
70.237329283
 21
95.9798934553
  0
LINE
  5
2D4
100
AcDbEntity
  8
00_COMPONENTS_1
100
AcDbLine
 62
7
  6
CONTINUOUS
 10
71.497329283
 20
95.9798934553
 11
71.497329283
 21
93.6256682627
  0
LINE
  5
2D5
100
AcDbEntity
  8
00_COMPONENTS_1
100
AcDbLine
 62
7
  6
CONTINUOUS
 10
71.497329283
 20
92.3656682627
 11
71.497329283
 21
90.0114430701
  0
LINE
  5
2D6
100
AcDbEntity
  8
00_COMPONENTS_1
100
AcDbLine
 62
7
  6
CONTINUOUS
 10
71.497329283
 20
57.3798934553
 11
71.497329283
 21
55.0256682627
  0
LINE
  5
2D7
100
AcDbEntity
  8
00_COMPONENTS_1
100
AcDbLine
 62
7
  6
CONTINUOUS
 10
71.497329283
 20
53.7656682627
 11
71.497329283
 21
51.4114430701
  0
LINE
  5
2D8
100
AcDbEntity
  8
INTFCLR_18
100
AcDbLine
 62
7
420
3368703
  6
CONTINUOUS
 10
71.497329283
 20
51.4114430701
 11
71.497329283
 21
53.7656682627
  0
LINE
  5
2D9
100
AcDbEntity
  8
INTFCLR_18
100
AcDbLine
 62
7
420
3368703
  6
CONTINUOUS
 10
71.497329283
 20
55.0256682627
 11
71.497329283
 21
57.3798934553
  0
LINE
  5
2DA
100
AcDbEntity
  8
INTFCLR_18
100
AcDbLine
 62
7
420
3368703
  6
CONTINUOUS
 10
71.497329283
 20
90.0114430701
 11
71.497329283
 21
92.3656682627
  0
LINE
  5
2DB
100
AcDbEntity
  8
INTFCLR_18
100
AcDbLine
 62
7
420
3368703
  6
CONTINUOUS
 10
71.497329283
 20
93.6256682627
 11
71.497329283
 21
95.9798934553
  0
LINE
  5
2DC
100
AcDbEntity
  8
00_COMPONENTS_1
100
AcDbLine
 62
7
  6
CONTINUOUS
 10
73.8515544756
 20
92.3656682627
 11
71.497329283
 21
92.3656682627
  0
LINE
  5
2DD
100
AcDbEntity
  8
00_COMPONENTS_1
100
AcDbLine
 62
7
  6
CONTINUOUS
 10
70.237329283
 20
92.3656682627
 11
67.8831040904
 21
92.3656682627
  0
LINE
  5
2DE
100
AcDbEntity
  8
00_COMPONENTS_1
100
AcDbLine
 62
7
  6
CONTINUOUS
 10
63.2515544756
 20
92.3656682627
 11
60.897329283
 21
92.3656682627
  0
LINE
  5
2DF
100
AcDbEntity
  8
00_COMPONENTS_1
100
AcDbLine
 62
7
  6
CONTINUOUS
 10
59.637329283
 20
92.3656682627
 11
57.2831040904
 21
92.3656682627
  0
LINE
  5
2E0
100
AcDbEntity
  8
00_COMPONENTS_1
100
AcDbLine
 62
7
  6
CONTINUOUS
 10
52.6515544756
 20
92.3656682627
 11
50.297329283
 21
92.3656682627
  0
LINE
  5
2E1
100
AcDbEntity
  8
00_COMPONENTS_1
100
AcDbLine
 62
7
  6
CONTINUOUS
 10
49.037329283
 20
92.3656682627
 11
46.6831040904
 21
92.3656682627
  0
LINE
  5
2E2
100
AcDbEntity
  8
INTFCLR_18
100
AcDbLine
 62
7
420
3368703
  6
CONTINUOUS
 10
46.6831040904
 20
92.3656682627
 11
49.037329283
 21
92.3656682627
  0
LINE
  5
2E3
100
AcDbEntity
  8
INTFCLR_18
100
AcDbLine
 62
7
420
3368703
  6
CONTINUOUS
 10
50.297329283
 20
92.3656682627
 11
52.6515544756
 21
92.3656682627
  0
LINE
  5
2E4
100
AcDbEntity
  8
INTFCLR_18
100
AcDbLine
 62
7
420
3368703
  6
CONTINUOUS
 10
57.2831040904
 20
92.3656682627
 11
59.637329283
 21
92.3656682627
  0
LINE
  5
2E5
100
AcDbEntity
  8
INTFCLR_18
100
AcDbLine
 62
7
420
3368703
  6
CONTINUOUS
 10
60.897329283
 20
92.3656682627
 11
63.2515544756
 21
92.3656682627
  0
LINE
  5
2E6
100
AcDbEntity
  8
INTFCLR_18
100
AcDbLine
 62
7
420
3368703
  6
CONTINUOUS
 10
67.8831040904
 20
92.3656682627
 11
70.237329283
 21
92.3656682627
  0
LINE
  5
2E7
100
AcDbEntity
  8
INTFCLR_18
100
AcDbLine
 62
7
420
3368703
  6
CONTINUOUS
 10
71.497329283
 20
92.3656682627
 11
73.8515544756
 21
92.3656682627
  0
LINE
  5
2E8
100
AcDbEntity
  8
INTFCLR_18
100
AcDbLine
 62
7
420
3368703
  6
CONTINUOUS
 10
73.8515544756
 20
93.6256682627
 11
71.497329283
 21
93.6256682627
  0
LINE
  5
2E9
100
AcDbEntity
  8
INTFCLR_18
100
AcDbLine
 62
7
420
3368703
  6
CONTINUOUS
 10
70.237329283
 20
93.6256682627
 11
67.8831040904
 21
93.6256682627
  0
LINE
  5
2EA
100
AcDbEntity
  8
INTFCLR_18
100
AcDbLine
 62
7
420
3368703
  6
CONTINUOUS
 10
63.2515544756
 20
93.6256682627
 11
60.897329283
 21
93.6256682627
  0
LINE
  5
2EB
100
AcDbEntity
  8
INTFCLR_18
100
AcDbLine
 62
7
420
3368703
  6
CONTINUOUS
 10
59.637329283
 20
93.6256682627
 11
57.2831040904
 21
93.6256682627
  0
LINE
  5
2EC
100
AcDbEntity
  8
INTFCLR_18
100
AcDbLine
 62
7
420
3368703
  6
CONTINUOUS
 10
52.6515544756
 20
93.6256682627
 11
50.297329283
 21
93.6256682627
  0
LINE
  5
2ED
100
AcDbEntity
  8
INTFCLR_18
100
AcDbLine
 62
7
420
3368703
  6
CONTINUOUS
 10
49.037329283
 20
93.6256682627
 11
46.6831040904
 21
93.6256682627
  0
LINE
  5
2EE
100
AcDbEntity
  8
00_COMPONENTS_1
100
AcDbLine
 62
7
  6
CONTINUOUS
 10
46.6831040904
 20
93.6256682627
 11
49.037329283
 21
93.6256682627
  0
LINE
  5
2EF
100
AcDbEntity
  8
00_COMPONENTS_1
100
AcDbLine
 62
7
  6
CONTINUOUS
 10
50.297329283
 20
93.6256682627
 11
52.6515544756
 21
93.6256682627
  0
LINE
  5
2F0
100
AcDbEntity
  8
00_COMPONENTS_1
100
AcDbLine
 62
7
  6
CONTINUOUS
 10
57.2831040904
 20
93.6256682627
 11
59.637329283
 21
93.6256682627
  0
LINE
  5
2F1
100
AcDbEntity
  8
00_COMPONENTS_1
100
AcDbLine
 62
7
  6
CONTINUOUS
 10
60.897329283
 20
93.6256682627
 11
63.2515544756
 21
93.6256682627
  0
LINE
  5
2F2
100
AcDbEntity
  8
00_COMPONENTS_1
100
AcDbLine
 62
7
  6
CONTINUOUS
 10
67.8831040904
 20
93.6256682627
 11
70.237329283
 21
93.6256682627
  0
LINE
  5
2F3
100
AcDbEntity
  8
00_COMPONENTS_1
100
AcDbLine
 62
7
  6
CONTINUOUS
 10
71.497329283
 20
93.6256682627
 11
73.8515544756
 21
93.6256682627
  0
LINE
  5
2F4
100
AcDbEntity
  8
00_COMPONENTS_1
100
AcDbLine
 62
7
  6
CONTINUOUS
 10
75.667329283
 20
102.4956682627
 11
75.667329283
 21
99.4956682627
  0
LINE
  5
2F5
100
AcDbEntity
  8
00_COMPONENTS_1
100
AcDbLine
 62
7
  6
CONTINUOUS
 10
75.667329283
 20
47.8956682627
 11
75.667329283
 21
44.8956682627
  0
LINE
  5
2F6
100
AcDbEntity
  8
INTFCLR_18
100
AcDbLine
 62
7
420
3368703
  6
CONTINUOUS
 10
76.667329283
 20
102.4956682627
 11
76.667329283
 21
99.4956682032
  0
LINE
  5
2F7
100
AcDbEntity
  8
00_COMPONENTS_1
100
AcDbLine
 62
7
  6
CONTINUOUS
 10
76.667329283
 20
44.8956682627
 11
76.667329283
 21
47.8956682627
  0
LINE
  5
2F8
100
AcDbEntity
  8
00_COMPONENTS_1
100
AcDbLine
 62
7
  6
CONTINUOUS
 10
76.667329283
 20
99.4956682627
 11
76.667329283
 21
102.4956682627
  0
LINE
  5
2F9
100
AcDbEntity
  8
00_COMPONENTS_1
100
AcDbLine
 62
7
  6
CONTINUOUS
 10
77.627329283
 20
84.3956682627
 11
77.627329283
 21
62.9956682627
  0
LINE
  5
2FA
100
AcDbEntity
  8
00_COMPONENTS_1
100
AcDbLine
 62
7
  6
CONTINUOUS
 10
53.8126287446
 20
26.7956682627
 11
52.6579282063
 21
24.7956682627
  0
LINE
  5
2FB
100
AcDbEntity
  8
INTFCLR_18
100
AcDbLine
 62
7
420
3368703
  6
CONTINUOUS
 10
53.8126287446
 20
26.7956682627
 11
52.6579282063
 21
24.7956682627
  0
LINE
  5
2FC
100
AcDbEntity
  8
00_COMPONENTS_1
100
AcDbLine
 62
7
  6
CONTINUOUS
 10
52.6579282063
 20
122.5956682627
 11
53.8126287446
 21
120.5956682627
  0
LINE
  5
2FD
100
AcDbEntity
  8
INTFCLR_18
100
AcDbLine
 62
7
420
3368703
  6
CONTINUOUS
 10
52.6579282063
 20
122.5956682627
 11
53.8126287446
 21
120.5956682627
  0
LINE
  5
2FE
100
AcDbEntity
  8
00_COMPONENTS_1
100
AcDbLine
 62
7
  6
CONTINUOUS
 10
82.367329283
 20
15.2956682627
 11
82.367329283
 21
132.0956682627
  0
LINE
  5
2FF
100
AcDbEntity
  8
00_COMPONENTS_1
100
AcDbLine
 62
7
  6
CONTINUOUS
 10
56.1220298214
 20
22.7956682627
 11
57.2767303598
 21
24.7956682627
  0
LINE
  5
300
100
AcDbEntity
  8
INTFCLR_18
100
AcDbLine
 62
7
420
3368703
  6
CONTINUOUS
 10
56.1220298214
 20
22.7956682627
 11
57.2767303598
 21
24.7956682627
  0
LINE
  5
301
100
AcDbEntity
  8
00_COMPONENTS_1
100
AcDbLine
 62
7
  6
CONTINUOUS
 10
82.367329283
 20
99.4956682627
 11
27.567329283
 21
99.4956682627
  0
LINE
  5
302
100
AcDbEntity
  8
INTFCLR_18
100
AcDbLine
 62
7
420
3368703
  6
CONTINUOUS
 10
27.567329283
 20
99.4956682627
 11
82.3673291863
 21
99.4956682627
  0
LINE
  5
303
100
AcDbEntity
  8
00_COMPONENTS_1
100
AcDbLine
 62
7
  6
CONTINUOUS
 10
43.867329283
 20
102.4956682627
 11
44.867329283
 21
102.4956682627
  0
LINE
  5
304
100
AcDbEntity
  8
00_COMPONENTS_1
100
AcDbLine
 62
7
  6
CONTINUOUS
 10
54.467329283
 20
102.4956682627
 11
55.467329283
 21
102.4956682627
  0
LINE
  5
305
100
AcDbEntity
  8
00_COMPONENTS_1
100
AcDbLine
 62
7
  6
CONTINUOUS
 10
65.067329283
 20
102.4956682627
 11
66.067329283
 21
102.4956682627
  0
LINE
  5
306
100
AcDbEntity
  8
00_COMPONENTS_1
100
AcDbLine
 62
7
  6
CONTINUOUS
 10
75.667329283
 20
102.4956682627
 11
76.667329283
 21
102.4956682627
  0
LINE
  5
307
100
AcDbEntity
  8
00_COMPONENTS_1
100
AcDbLine
 62
7
  6
CONTINUOUS
 10
57.2767303598
 20
122.5956682627
 11
56.1220298214
 21
124.5956682627
  0
LINE
  5
308
100
AcDbEntity
  8
INTFCLR_18
100
AcDbLine
 62
7
420
3368703
  6
CONTINUOUS
 10
57.2767303598
 20
122.5956682627
 11
56.1220298214
 21
124.5956682627
  0
LINE
  5
309
100
AcDbEntity
  8
00_COMPONENTS_1
100
AcDbLine
 62
7
  6
CONTINUOUS
 10
70.1579282063
 20
122.5956682627
 11
71.3126287446
 21
120.5956682627
  0
LINE
  5
30A
100
AcDbEntity
  8
INTFCLR_18
100
AcDbLine
 62
7
420
3368703
  6
CONTINUOUS
 10
70.1579282063
 20
122.5956682627
 11
71.3126287446
 21
120.5956682627
  0
LINE
  5
30B
100
AcDbEntity
  8
00_COMPONENTS_1
100
AcDbLine
 62
7
  6
CONTINUOUS
 10
71.3126287446
 20
26.7956682627
 11
70.1579282063
 21
24.7956682627
  0
LINE
  5
30C
100
AcDbEntity
  8
INTFCLR_18
100
AcDbLine
 62
7
420
3368703
  6
CONTINUOUS
 10
71.3126287446
 20
26.7956682627
 11
70.1579282063
 21
24.7956682627
  0
LINE
  5
30D
100
AcDbEntity
  8
00_COMPONENTS_1
100
AcDbLine
 62
7
  6
CONTINUOUS
 10
73.6220298214
 20
22.7956682627
 11
74.7767303598
 21
24.7956682627
  0
LINE
  5
30E
100
AcDbEntity
  8
INTFCLR_18
100
AcDbLine
 62
7
420
3368703
  6
CONTINUOUS
 10
73.6220298214
 20
22.7956682627
 11
74.7767303598
 21
24.7956682627
  0
LINE
  5
30F
100
AcDbEntity
  8
00_COMPONENTS_1
100
AcDbLine
 62
7
  6
CONTINUOUS
 10
74.7767303598
 20
122.5956682627
 11
73.6220298214
 21
124.5956682627
  0
LINE
  5
310
100
AcDbEntity
  8
INTFCLR_18
100
AcDbLine
 62
7
420
3368703
  6
CONTINUOUS
 10
74.7767303598
 20
122.5956682627
 11
73.6220298214
 21
124.5956682627
  0
LINE
  5
311
100
AcDbEntity
  8
00_COMPONENTS_1
100
AcDbLine
 62
7
  6
CONTINUOUS
 10
73.6220298214
 20
120.5956682627
 11
71.3126287446
 21
120.5956682627
  0
LINE
  5
312
100
AcDbEntity
  8
00_COMPONENTS_1
100
AcDbLine
 62
7
  6
CONTINUOUS
 10
56.1220298214
 20
120.5956682627
 11
53.8126287446
 21
120.5956682627
  0
LINE
  5
313
100
AcDbEntity
  8
00_COMPONENTS_1
100
AcDbLine
 62
7
  6
CONTINUOUS
 10
38.6220298214
 20
120.5956682627
 11
36.3126287446
 21
120.5956682627
  0
LINE
  5
314
100
AcDbEntity
  8
INTFCLR_18
100
AcDbLine
 62
7
420
3368703
  6
CONTINUOUS
 10
36.3126287446
 20
120.5956682627
 11
38.6220298214
 21
120.5956682627
  0
LINE
  5
315
100
AcDbEntity
  8
INTFCLR_18
100
AcDbLine
 62
7
420
3368703
  6
CONTINUOUS
 10
53.8126287446
 20
120.5956682627
 11
56.1220298214
 21
120.5956682627
  0
LINE
  5
316
100
AcDbEntity
  8
INTFCLR_18
100
AcDbLine
 62
7
420
3368703
  6
CONTINUOUS
 10
71.3126287446
 20
120.5956682627
 11
73.6220298214
 21
120.5956682627
  0
LINE
  5
317
100
AcDbEntity
  8
INTFCLR_18
100
AcDbLine
 62
7
420
3368703
  6
CONTINUOUS
 10
73.6220298214
 20
124.5956682627
 11
71.3126287446
 21
124.5956682627
  0
LINE
  5
318
100
AcDbEntity
  8
INTFCLR_18
100
AcDbLine
 62
7
420
3368703
  6
CONTINUOUS
 10
56.1220298214
 20
124.5956682627
 11
53.8126287446
 21
124.5956682627
  0
LINE
  5
319
100
AcDbEntity
  8
INTFCLR_18
100
AcDbLine
 62
7
420
3368703
  6
CONTINUOUS
 10
38.6220298214
 20
124.5956682627
 11
36.3126287446
 21
124.5956682627
  0
LINE
  5
31A
100
AcDbEntity
  8
00_COMPONENTS_1
100
AcDbLine
 62
7
  6
CONTINUOUS
 10
36.3126287446
 20
124.5956682627
 11
38.6220298214
 21
124.5956682627
  0
LINE
  5
31B
100
AcDbEntity
  8
00_COMPONENTS_1
100
AcDbLine
 62
7
  6
CONTINUOUS
 10
53.8126287446
 20
124.5956682627
 11
56.1220298214
 21
124.5956682627
  0
LINE
  5
31C
100
AcDbEntity
  8
00_COMPONENTS_1
100
AcDbLine
 62
7
  6
CONTINUOUS
 10
71.3126287446
 20
124.5956682627
 11
73.6220298214
 21
124.5956682627
  0
LINE
  5
31D
100
AcDbEntity
  8
00_COMPONENTS_1
100
AcDbLine
 62
7
  6
CONTINUOUS
 10
82.367329283
 20
132.0956682627
 11
27.567329283
 21
132.0956682627
  0
CIRCLE
  5
31E
100
AcDbEntity
  8
00_COMPONENTS_1
100
AcDbCircle
 62
7
  6
CONTINUOUS
 10
37.467329283
 20
24.7956682627
 40
3.9
  0
ARC
  5
31F
100
AcDbEntity
  8
INTFCLR_18
100
AcDbCircle
 62
7
420
3368703
  6
CONTINUOUS
 10
37.3206569403
 20
62.9952985381
 40
4.5148354725
100
AcDbArc
 50
179.9953079877
 51
181.3886706829
  0
ARC
  5
320
100
AcDbEntity
  8
INTFCLR_18
100
AcDbCircle
 62
7
420
3368703
  6
CONTINUOUS
 10
37.0747395957
 20
62.9884186434
 40
4.2688237215
100
AcDbArc
 50
181.3763468243
 51
184.2235966726
  0
ARC
  5
321
100
AcDbEntity
  8
00_COMPONENTS_1
100
AcDbCircle
 62
7
  6
CONTINUOUS
 10
36.827329283
 20
62.9956682627
 40
4.0
100
AcDbArc
 50
180.0
 51
257.161431859
  0
ARC
  5
322
100
AcDbEntity
  8
00_COMPONENTS_1
100
AcDbCircle
 62
7
  6
CONTINUOUS
 10
54.967329283
 20
17.9456682627
 40
4.5
100
AcDbArc
 50
216.0977554295
 51
323.9005214042
  0
CIRCLE
  5
323
100
AcDbEntity
  8
00_COMPONENTS_1
100
AcDbCircle
 62
7
  6
CONTINUOUS
 10
54.967329283
 20
24.7956682627
 40
3.9
  0
ARC
  5
324
100
AcDbEntity
  8
00_COMPONENTS_1
100
AcDbCircle
 62
7
  6
CONTINUOUS
 10
53.7673181415
 20
14.4456654599
 40
0.3930163201
100
AcDbArc
 50
164.3350064015
 51
195.6649717959
  0
ARC
  5
325
100
AcDbEntity
  8
INTFCLR_18
100
AcDbCircle
 62
7
420
3368703
  6
CONTINUOUS
 10
53.7673181415
 20
14.4456654599
 40
0.3930163201
100
AcDbArc
 50
164.3350064011
 51
195.664971796
  0
ARC
  5
326
100
AcDbEntity
  8
00_COMPONENTS_1
100
AcDbCircle
 62
7
  6
CONTINUOUS
 10
52.017329283
 20
13.2956682627
 40
0.3
100
AcDbArc
 50
180.0
 51
270.0
  0
CIRCLE
  5
327
100
AcDbEntity
  8
00_COMPONENTS_1
100
AcDbCircle
 62
7
  6
CONTINUOUS
 10
49.667329283
 20
54.3956682627
 40
3.25
  0
CIRCLE
  5
328
100
AcDbEntity
  8
00_COMPONENTS_1
100
AcDbCircle
 62
7
  6
CONTINUOUS
 10
49.667329283
 20
54.3956682627
 40
3.05
  0
CIRCLE
  5
329
100
AcDbEntity
  8
INTFCLR_18
100
AcDbCircle
 62
7
420
3368703
  6
CONTINUOUS
 10
49.667329283
 20
54.3956682627
 40
3.05
  0
ARC
  5
32A
100
AcDbEntity
  8
INTFCLR_18
100
AcDbCircle
 62
7
420
3368703
  6
CONTINUOUS
 10
54.967329283
 20
60.7956682627
 40
49.6710100717
100
AcDbArc
 50
256.5233215064
 51
282.7946324573
  0
ARC
  5
32B
100
AcDbEntity
  8
INTFCLR_18
100
AcDbCircle
 62
7
420
3368703
  6
CONTINUOUS
 10
36.8053663349
 20
83.8811011024
 40
4.5145671755
100
AcDbArc
 50
89.9953076081
 51
91.3887377982
  0
ARC
  5
32C
100
AcDbEntity
  8
INTFCLR_18
100
AcDbCircle
 62
7
420
3368703
  6
CONTINUOUS
 10
37.1538910517
 20
84.3987072993
 40
4.3480706309
100
AcDbArc
 50
175.7978858899
 51
180.0400462639
  0
ARC
  5
32D
100
AcDbEntity
  8
INTFCLR_18
100
AcDbCircle
 62
7
420
3368703
  6
CONTINUOUS
 10
36.7919432512
 20
84.260788534
 40
4.1346681015
100
AcDbArc
 50
91.3302988815
 51
97.08493047
  0
ARC
  5
32E
100
AcDbEntity
  8
00_COMPONENTS_1
100
AcDbCircle
 62
7
  6
CONTINUOUS
 10
36.827329283
 20
84.3956682627
 40
4.0
100
AcDbArc
 50
102.838568141
 51
180.0
  0
CIRCLE
  5
32F
100
AcDbEntity
  8
00_COMPONENTS_1
100
AcDbCircle
 62
7
  6
CONTINUOUS
 10
37.467329283
 20
122.5956682627
 40
3.9
  0
CIRCLE
  5
330
100
AcDbEntity
  8
00_COMPONENTS_1
100
AcDbCircle
 62
7
  6
CONTINUOUS
 10
49.667329283
 20
92.9956682627
 40
3.25
  0
CIRCLE
  5
331
100
AcDbEntity
  8
00_COMPONENTS_1
100
AcDbCircle
 62
7
  6
CONTINUOUS
 10
49.667329283
 20
92.9956682627
 40
3.05
  0
CIRCLE
  5
332
100
AcDbEntity
  8
INTFCLR_18
100
AcDbCircle
 62
7
420
3368703
  6
CONTINUOUS
 10
49.667329283
 20
92.9956682627
 40
3.05
  0
CIRCLE
  5
333
100
AcDbEntity
  8
00_COMPONENTS_1
100
AcDbCircle
 62
7
  6
CONTINUOUS
 10
54.967329283
 20
122.5956682627
 40
3.9
  0
CIRCLE
  5
334
100
AcDbEntity
  8
00_COMPONENTS_1
100
AcDbCircle
 62
7
  6
CONTINUOUS
 10
54.967329283
 20
122.5956682627
 40
3.75
  0
CIRCLE
  5
335
100
AcDbEntity
  8
INTFCLR_18
100
AcDbCircle
 62
7
420
3368703
  6
CONTINUOUS
 10
54.967329283
 20
122.5956682627
 40
3.75
  0
ARC
  5
336
100
AcDbEntity
  8
00_COMPONENTS_1
100
AcDbCircle
 62
7
  6
CONTINUOUS
 10
56.1673467976
 20
14.4456650097
 40
0.3930110893
100
AcDbArc
 50
344.333785721
 51
15.66276766
  0
ARC
  5
337
100
AcDbEntity
  8
INTFCLR_18
100
AcDbCircle
 62
7
420
3368703
  6
CONTINUOUS
 10
56.1673467976
 20
14.4456650097
 40
0.3930110893
100
AcDbArc
 50
344.3337857214
 51
15.6627676597
  0
ARC
  5
338
100
AcDbEntity
  8
00_COMPONENTS_1
100
AcDbCircle
 62
7
  6
CONTINUOUS
 10
57.917329283
 20
13.2956682627
 40
0.3
100
AcDbArc
 50
270.0
 51
360.0
  0
CIRCLE
  5
339
100
AcDbEntity
  8
00_COMPONENTS_1
100
AcDbCircle
 62
7
  6
CONTINUOUS
 10
60.267329283
 20
54.3956682627
 40
3.25
  0
CIRCLE
  5
33A
100
AcDbEntity
  8
00_COMPONENTS_1
100
AcDbCircle
 62
7
  6
CONTINUOUS
 10
60.267329283
 20
54.3956682627
 40
3.05
  0
CIRCLE
  5
33B
100
AcDbEntity
  8
INTFCLR_18
100
AcDbCircle
 62
7
420
3368703
  6
CONTINUOUS
 10
60.267329283
 20
54.3956682627
 40
3.05
  0
CIRCLE
  5
33C
100
AcDbEntity
  8
00_COMPONENTS_1
100
AcDbCircle
 62
7
  6
CONTINUOUS
 10
64.667329283
 20
63.2456682627
 40
1.85
  0
CIRCLE
  5
33D
100
AcDbEntity
  8
00_COMPONENTS_1
100
AcDbCircle
 62
7
  6
CONTINUOUS
 10
64.667329283
 20
63.2456682627
 40
0.7
  0
CIRCLE
  5
33E
100
AcDbEntity
  8
00_COMPONENTS_1
100
AcDbCircle
 62
7
  6
CONTINUOUS
 10
72.467329283
 20
24.7956682627
 40
3.9
  0
CIRCLE
  5
33F
100
AcDbEntity
  8
00_COMPONENTS_1
100
AcDbCircle
 62
7
  6
CONTINUOUS
 10
70.867329283
 20
54.3956682627
 40
3.25
  0
CIRCLE
  5
340
100
AcDbEntity
  8
00_COMPONENTS_1
100
AcDbCircle
 62
7
  6
CONTINUOUS
 10
70.867329283
 20
54.3956682627
 40
3.05
  0
CIRCLE
  5
341
100
AcDbEntity
  8
INTFCLR_18
100
AcDbCircle
 62
7
420
3368703
  6
CONTINUOUS
 10
70.867329283
 20
54.3956682627
 40
3.05
  0
ARC
  5
342
100
AcDbEntity
  8
00_COMPONENTS_1
100
AcDbCircle
 62
7
  6
CONTINUOUS
 10
73.627329283
 20
62.9956682627
 40
4.0
100
AcDbArc
 50
270.0
 51
360.0
  0
CIRCLE
  5
343
100
AcDbEntity
  8
00_COMPONENTS_1
100
AcDbCircle
 62
7
  6
CONTINUOUS
 10
60.267329283
 20
92.9956682627
 40
3.25
  0
CIRCLE
  5
344
100
AcDbEntity
  8
00_COMPONENTS_1
100
AcDbCircle
 62
7
  6
CONTINUOUS
 10
60.267329283
 20
92.9956682627
 40
3.05
  0
CIRCLE
  5
345
100
AcDbEntity
  8
INTFCLR_18
100
AcDbCircle
 62
7
420
3368703
  6
CONTINUOUS
 10
60.267329283
 20
92.9956682627
 40
3.05
  0
CIRCLE
  5
346
100
AcDbEntity
  8
00_COMPONENTS_1
100
AcDbCircle
 62
7
  6
CONTINUOUS
 10
70.867329283
 20
92.9956682627
 40
3.25
  0
CIRCLE
  5
347
100
AcDbEntity
  8
00_COMPONENTS_1
100
AcDbCircle
 62
7
  6
CONTINUOUS
 10
70.867329283
 20
92.9956682627
 40
3.05
  0
CIRCLE
  5
348
100
AcDbEntity
  8
INTFCLR_18
100
AcDbCircle
 62
7
420
3368703
  6
CONTINUOUS
 10
70.867329283
 20
92.9956682627
 40
3.05
  0
ARC
  5
349
100
AcDbEntity
  8
00_COMPONENTS_1
100
AcDbCircle
 62
7
  6
CONTINUOUS
 10
73.627329283
 20
84.3956682627
 40
4.0
100
AcDbArc
 50
0.0
 51
90.0
  0
CIRCLE
  5
34A
100
AcDbEntity
  8
00_COMPONENTS_1
100
AcDbCircle
 62
7
  6
CONTINUOUS
 10
72.467329283
 20
122.5956682627
 40
3.9
  0
SPLINE
  5
34B
100
AcDbEntity
  8
00_COMPONENTS_1
100
AcDbSpline
 62
7
  6
CONTINUOUS
 70
0
 71
3
 72
12
 73
8
 74
0
 42
0.0000001
 43
0.0000001
 44
0.0000000001
 40
0.0
 40
0.0
 40
0.0
 40
0.0
 40
0.160101348
 40
0.3936904165
 40
0.6166712816
 40
0.8201977264
 40
1.0
 40
1.0
 40
1.0
 40
1.0
 10
52.3044340479
 20
15.2923435854
 30
0.0
 10
52.3137055538
 20
15.2679300862
 30
0.0
 10
52.3408398646
 20
15.2094705059
 30
0.0
 10
52.4000869812
 20
15.1273492468
 30
0.0
 10
52.4839025589
 20
15.0580729827
 30
0.0
 10
52.5754078927
 20
15.0178994873
 30
0.0
 10
52.6380741782
 20
15.0094321291
 30
0.0
 10
52.667329284
 20
15.0094151323
 30
0.0
  0
SPLINE
  5
34C
100
AcDbEntity
  8
00_COMPONENTS_1
100
AcDbSpline
 62
7
  6
CONTINUOUS
 70
0
 71
3
 72
12
 73
8
 74
0
 42
0.0000001
 43
0.0000001
 44
0.0000000001
 40
0.0
 40
0.0
 40
0.0
 40
0.0
 40
0.1873527853
 40
0.3873694926
 40
0.5963323786
 40
0.8358986288
 40
1.0
 40
1.0
 40
1.0
 40
1.0
 10
57.2673292829
 20
15.0094151323
 30
0.0
 10
57.2978121278
 20
15.0094151323
 30
0.0
 10
57.3611707627
 20
15.0183704009
 30
0.0
 10
57.4507785261
 20
15.0585897038
 30
0.0
 10
57.5333030272
 20
15.1261687272
 30
0.0
 10
57.5927360046
 20
15.207434562
 30
0.0
 10
57.6207013926
 20
15.2673244106
 30
0.0
 10
57.6302138712
 20
15.2923434553
 30
0.0
  0
SPLINE
  5
34D
100
AcDbEntity
  8
00_COMPONENTS_1
100
AcDbSpline
 62
7
  6
CONTINUOUS
 70
0
 71
3
 72
12
 73
8
 74
0
 42
0.0000001
 43
0.0000001
 44
0.0000000001
 40
0.0
 40
0.0
 40
0.0
 40
0.0
 40
0.1700596169
 40
0.3516142416
 40
0.5412892885
 40
0.7587429264
 40
1.0
 40
1.0
 40
1.0
 40
1.0
 10
56.1673292829
 20
14.0094151323
 30
0.0
 10
56.1978121269
 20
14.0094151323
 30
0.0
 10
56.2611707598
 20
14.0183704052
 30
0.0
 10
56.3507785191
 20
14.0585897099
 30
0.0
 10
56.4333030152
 20
14.1261687351
 30
0.0
 10
56.5026011037
 20
14.2209236634
 30
0.0
 10
56.5340805579
 20
14.2979009334
 30
0.0
 10
56.5457579748
 20
14.3395391536
 30
0.0
  0
SPLINE
  5
34E
100
AcDbEntity
  8
00_COMPONENTS_1
100
AcDbSpline
 62
7
  6
CONTINUOUS
 70
0
 71
3
 72
12
 73
8
 74
0
 42
0.0000001
 43
0.0000001
 44
0.0000000001
 40
0.0
 40
0.0
 40
0.0
 40
0.0
 40
0.2376602416
 40
0.4496789576
 40
0.6520690658
 40
0.8368012361
 40
1.0
 40
1.0
 40
1.0
 40
1.0
 10
56.5457643581
 20
14.5517681022
 30
0.0
 10
56.5342628875
 20
14.5927890574
 30
0.0
 10
56.503592916
 20
14.6683175665
 30
0.0
 10
56.4345713603
 20
14.763987133
 30
0.0
 10
56.3507558782
 20
14.8332634268
 30
0.0
 10
56.2592506208
 20
14.8734369721
 30
0.0
 10
56.1965843731
 20
14.881904374
 30
0.0
 10
56.167329282
 20
14.8819213932
 30
0.0
  0
SPLINE
  5
34F
100
AcDbEntity
  8
00_COMPONENTS_1
100
AcDbSpline
 62
7
  6
CONTINUOUS
 70
0
 71
3
 72
12
 73
8
 74
0
 42
0.0000001
 43
0.0000001
 44
0.0000000001
 40
0.0
 40
0.0
 40
0.0
 40
0.0
 40
0.1700556693
 40
0.3516060794
 40
0.5412767233
 40
0.7587253132
 40
1.0
 40
1.0
 40
1.0
 40
1.0
 10
53.7673292831
 20
14.8819213932
 30
0.0
 10
53.7368465236
 20
14.8819213932
 30
0.0
 10
53.6734881043
 20
14.872965684
 30
0.0
 10
53.5838807637
 20
14.832746194
 30
0.0
 10
53.5013567825
 20
14.7651669826
 30
0.0
 10
53.432056806
 20
14.6704086392
 30
0.0
 10
53.4005770599
 20
14.5934270486
 30
0.0
 10
53.3888996669
 20
14.5517846662
 30
0.0
  0
SPLINE
  5
350
100
AcDbEntity
  8
00_COMPONENTS_1
100
AcDbSpline
 62
7
  6
CONTINUOUS
 70
0
 71
3
 72
12
 73
8
 74
0
 42
0.0000001
 43
0.0000001
 44
0.0000000001
 40
0.0
 40
0.0
 40
0.0
 40
0.0
 40
0.2376281032
 40
0.4496557577
 40
0.6520543979
 40
0.836794356
 40
1.0
 40
1.0
 40
1.0
 40
1.0
 10
53.3888996266
 20
14.3395463975
 30
0.0
 10
53.4004007813
 20
14.29853309
 30
0.0
 10
53.4310695872
 20
14.2230125359
 30
0.0
 10
53.5000868494
 20
14.1273491614
 30
0.0
 10
53.583902483
 20
14.0580729146
 30
0.0
 10
53.6754078618
 20
14.0178994484
 30
0.0
 10
53.7380741696
 20
14.009432116
 30
0.0
 10
53.767329284
 20
14.0094151323
 30
0.0
  0
SPLINE
  5
351
100
AcDbEntity
  8
INTFCLR_18
100
AcDbSpline
 62
7
420
3368703
  6
CONTINUOUS
 70
0
 71
3
 72
8
 73
4
 74
0
 42
0.0000001
 43
0.0000001
 44
0.0000000001
 40
0.0
 40
0.0
 40
0.0
 40
0.0
 40
1.0
 40
1.0
 40
1.0
 40
1.0
 10
36.281971318
 20
59.0274505106
 30
0.0
 10
36.4465358587
 20
59.0068326119
 30
0.0
 10
36.6205538481
 20
58.9956682627
 30
0.0
 10
36.8057360675
 20
58.9956682627
 30
0.0
  0
SPLINE
  5
352
100
AcDbEntity
  8
INTFCLR_18
100
AcDbSpline
 62
7
420
3368703
  6
CONTINUOUS
 70
0
 71
3
 72
10
 73
6
 74
0
 42
0.0000001
 43
0.0000001
 44
0.0000000001
 40
0.0
 40
0.0
 40
0.0
 40
0.0
 40
0.4140011509
 40
0.9919219107
 40
1.0
 40
1.0
 40
1.0
 40
1.0
 10
52.3031882051
 20
15.2956564214
 30
0.0
 10
52.312712087
 20
15.2700802737
 30
0.0
 10
52.3401449243
 20
15.2104337489
 30
0.0
 10
52.3789776357
 20
15.156608494
 30
0.0
 10
52.4055302056
 20
15.1285344062
 30
0.0
 10
52.4058969568
 20
15.1281480638
 30
0.0
  0
SPLINE
  5
353
100
AcDbEntity
  8
INTFCLR_18
100
AcDbSpline
 62
7
420
3368703
  6
CONTINUOUS
 70
0
 71
3
 72
8
 73
4
 74
0
 42
0.0000001
 43
0.0000001
 44
0.0000000001
 40
0.0
 40
0.0
 40
0.0
 40
0.0
 40
1.0
 40
1.0
 40
1.0
 40
1.0
 10
52.4058969568
 20
15.1281480638
 30
0.0
 10
52.4300260956
 20
15.1027299852
 30
0.0
 10
52.45727039
 20
15.0801836015
 30
0.0
 10
52.4871172862
 20
15.0617938566
 30
0.0
  0
SPLINE
  5
354
100
AcDbEntity
  8
INTFCLR_18
100
AcDbSpline
 62
7
420
3368703
  6
CONTINUOUS
 70
0
 71
3
 72
10
 73
6
 74
0
 42
0.0000001
 43
0.0000001
 44
0.0000000001
 40
0.0
 40
0.0
 40
0.0
 40
0.0
 40
0.0126252257
 40
0.5368668696
 40
1.0
 40
1.0
 40
1.0
 40
1.0
 10
52.4871172862
 20
15.0617938566
 30
0.0
 10
52.4877983135
 20
15.0613742512
 30
0.0
 10
52.5168154901
 20
15.0436232513
 30
0.0
 10
52.5754078927
 20
15.0178994873
 30
0.0
 10
52.6380741782
 20
15.0094321291
 30
0.0
 10
52.667329284
 20
15.0094151323
 30
0.0
  0
SPLINE
  5
355
100
AcDbEntity
  8
INTFCLR_18
100
AcDbSpline
 62
7
420
3368703
  6
CONTINUOUS
 70
0
 71
3
 72
11
 73
7
 74
0
 42
0.0000001
 43
0.0000001
 44
0.0000000001
 40
0.0
 40
0.0
 40
0.0
 40
0.0
 40
0.3110852584
 40
0.6431980102
 40
0.9901652211
 40
1.0
 40
1.0
 40
1.0
 40
1.0
 10
57.2673292829
 20
15.0094151323
 30
0.0
 10
57.2978121278
 20
15.0094151323
 30
0.0
 10
57.3611707627
 20
15.0183704009
 30
0.0
 10
57.4507785261
 20
15.0585897038
 30
0.0
 10
57.5035729953
 20
15.1018229087
 30
0.0
 10
57.5278038038
 20
15.1271431049
 30
0.0
 10
57.5284693284
 20
15.1278432269
 30
0.0
  0
SPLINE
  5
356
100
AcDbEntity
  8
INTFCLR_18
100
AcDbSpline
 62
7
420
3368703
  6
CONTINUOUS
 70
0
 71
3
 72
9
 73
5
 74
0
 42
0.0000001
 43
0.0000001
 44
0.0000000001
 40
0.0
 40
0.0
 40
0.0
 40
0.0
 40
0.5769288563
 40
1.0
 40
1.0
 40
1.0
 40
1.0
 10
57.5284693284
 20
15.1278432269
 30
0.0
 10
57.5547219062
 20
15.155460548
 30
0.0
 10
57.5938450851
 20
15.2092744499
 30
0.0
 10
57.6216999663
 20
15.2694726606
 30
0.0
 10
57.6314608666
 20
15.2956555537
 30
0.0
  0
SPLINE
  5
357
100
AcDbEntity
  8
INTFCLR_18
100
AcDbSpline
 62
7
420
3368703
  6
CONTINUOUS
 70
0
 71
3
 72
11
 73
7
 74
0
 42
0.0000001
 43
0.0000001
 44
0.0000000001
 40
0.0
 40
0.0
 40
0.0
 40
0.0
 40
0.3110853233
 40
0.6431981444
 40
0.9901654277
 40
1.0
 40
1.0
 40
1.0
 40
1.0
 10
56.1673292829
 20
14.0094151323
 30
0.0
 10
56.1978121269
 20
14.0094151323
 30
0.0
 10
56.2611707598
 20
14.0183704052
 30
0.0
 10
56.3507785191
 20
14.0585897099
 30
0.0
 10
56.4035729691
 20
14.1018229029
 30
0.0
 10
56.4278037635
 20
14.1271430829
 30
0.0
 10
56.428469274
 20
14.12784319
 30
0.0
  0
SPLINE
  5
358
100
AcDbEntity
  8
INTFCLR_18
100
AcDbSpline
 62
7
420
3368703
  6
CONTINUOUS
 70
0
 71
3
 72
9
 73
5
 74
0
 42
0.0000001
 43
0.0000001
 44
0.0000000001
 40
0.0
 40
0.0
 40
0.0
 40
0.0
 40
0.4678166367
 40
1.0
 40
1.0
 40
1.0
 40
1.0
 10
56.428469274
 20
14.12784319
 30
0.0
 10
56.454721868
 20
14.1554605226
 30
0.0
 10
56.502970052
 20
14.2218258591
 30
0.0
 10
56.5340805579
 20
14.2979009334
 30
0.0
 10
56.5457579748
 20
14.3395391537
 30
0.0
  0
SPLINE
  5
359
100
AcDbEntity
  8
INTFCLR_18
100
AcDbSpline
 62
7
420
3368703
  6
CONTINUOUS
 70
0
 71
3
 72
10
 73
6
 74
0
 42
0.0000001
 43
0.0000001
 44
0.0000000001
 40
0.0
 40
0.0
 40
0.0
 40
0.0
 40
0.5250743514
 40
0.9934976311
 40
1.0
 40
1.0
 40
1.0
 40
1.0
 10
56.5457643581
 20
14.5517681022
 30
0.0
 10
56.5342628875
 20
14.5927890574
 30
0.0
 10
56.503592916
 20
14.6683175665
 30
0.0
 10
56.4556828382
 20
14.7347248841
 30
0.0
 10
56.4291331897
 20
14.7627966374
 30
0.0
 10
56.4287689796
 20
14.7631803231
 30
0.0
  0
SPLINE
  5
35A
100
AcDbEntity
  8
INTFCLR_18
100
AcDbSpline
 62
7
420
3368703
  6
CONTINUOUS
 70
0
 71
3
 72
8
 73
4
 74
0
 42
0.0000001
 43
0.0000001
 44
0.0000000001
 40
0.0
 40
0.0
 40
0.0
 40
0.0
 40
1.0
 40
1.0
 40
1.0
 40
1.0
 10
56.4287689796
 20
14.7631803231
 30
0.0
 10
56.4046397586
 20
14.7885998177
 30
0.0
 10
56.37739513
 20
14.8111475736
 30
0.0
 10
56.3475476946
 20
14.8295385244
 30
0.0
  0
SPLINE
  5
35B
100
AcDbEntity
  8
INTFCLR_18
100
AcDbSpline
 62
7
420
3368703
  6
CONTINUOUS
 70
0
 71
3
 72
10
 73
6
 74
0
 42
0.0000001
 43
0.0000001
 44
0.0000000001
 40
0.0
 40
0.0
 40
0.0
 40
0.0
 40
0.0126651597
 40
0.536885601
 40
1.0
 40
1.0
 40
1.0
 40
1.0
 10
56.3475476946
 20
14.8295385244
 30
0.0
 10
56.346864495
 20
14.8299594882
 30
0.0
 10
56.3178453442
 20
14.8477121357
 30
0.0
 10
56.2592506208
 20
14.8734369721
 30
0.0
 10
56.1965843731
 20
14.881904374
 30
0.0
 10
56.167329282
 20
14.8819213932
 30
0.0
  0
SPLINE
  5
35C
100
AcDbEntity
  8
INTFCLR_18
100
AcDbSpline
 62
7
420
3368703
  6
CONTINUOUS
 70
0
 71
3
 72
11
 73
7
 74
0
 42
0.0000001
 43
0.0000001
 44
0.0000000001
 40
0.0
 40
0.0
 40
0.0
 40
0.0
 40
0.3110797042
 40
0.6431865261
 40
0.9901475421
 40
1.0
 40
1.0
 40
1.0
 40
1.0
 10
53.7673292831
 20
14.8819213932
 30
0.0
 10
53.7368465236
 20
14.8819213932
 30
0.0
 10
53.6734881043
 20
14.872965684
 30
0.0
 10
53.5838807637
 20
14.832746194
 30
0.0
 10
53.5310852588
 20
14.7895117483
 30
0.0
 10
53.5068535696
 20
14.7641901027
 30
0.0
 10
53.5061868502
 20
14.7634887007
 30
0.0
  0
SPLINE
  5
35D
100
AcDbEntity
  8
INTFCLR_18
100
AcDbSpline
 62
7
420
3368703
  6
CONTINUOUS
 70
0
 71
3
 72
9
 73
5
 74
0
 42
0.0000001
 43
0.0000001
 44
0.0000000001
 40
0.0
 40
0.0
 40
0.0
 40
0.0
 40
0.4677810897
 40
1.0
 40
1.0
 40
1.0
 40
1.0
 10
53.5061868502
 20
14.7634887007
 30
0.0
 10
53.4799360111
 20
14.7358722969
 30
0.0
 10
53.4316871954
 20
14.6695047814
 30
0.0
 10
53.4005770599
 20
14.5934270486
 30
0.0
 10
53.3888996669
 20
14.5517846662
 30
0.0
  0
SPLINE
  5
35E
100
AcDbEntity
  8
INTFCLR_18
100
AcDbSpline
 62
7
420
3368703
  6
CONTINUOUS
 70
0
 71
3
 72
10
 73
6
 74
0
 42
0.0000001
 43
0.0000001
 44
0.0000000001
 40
0.0
 40
0.0
 40
0.0
 40
0.0
 40
0.525006151
 40
0.9934516813
 40
1.0
 40
1.0
 40
1.0
 40
1.0
 10
53.3888996266
 20
14.3395463975
 30
0.0
 10
53.4004007813
 20
14.29853309
 30
0.0
 10
53.4310695872
 20
14.2230125359
 30
0.0
 10
53.4789775065
 20
14.1566083774
 30
0.0
 10
53.5055301261
 20
14.1285342695
 30
0.0
 10
53.5058969033
 20
14.1281479002
 30
0.0
  0
SPLINE
  5
35F
100
AcDbEntity
  8
INTFCLR_18
100
AcDbSpline
 62
7
420
3368703
  6
CONTINUOUS
 70
0
 71
3
 72
8
 73
4
 74
0
 42
0.0000001
 43
0.0000001
 44
0.0000000001
 40
0.0
 40
0.0
 40
0.0
 40
0.0
 40
1.0
 40
1.0
 40
1.0
 40
1.0
 10
53.5058969033
 20
14.1281479002
 30
0.0
 10
53.5300260596
 20
14.1027298391
 30
0.0
 10
53.5572703686
 20
14.0801834748
 30
0.0
 10
53.5871172762
 20
14.0617937499
 30
0.0
  0
SPLINE
  5
360
100
AcDbEntity
  8
INTFCLR_18
100
AcDbSpline
 62
7
420
3368703
  6
CONTINUOUS
 70
0
 71
3
 72
10
 73
6
 74
0
 42
0.0000001
 43
0.0000001
 44
0.0000000001
 40
0.0
 40
0.0
 40
0.0
 40
0.0
 40
0.0126248194
 40
0.536866679
 40
1.0
 40
1.0
 40
1.0
 40
1.0
 10
53.5871172762
 20
14.0617937499
 30
0.0
 10
53.5877982817
 20
14.0613741586
 30
0.0
 10
53.6168154545
 20
14.0436231831
 30
0.0
 10
53.6754078618
 20
14.0178994484
 30
0.0
 10
53.7380741696
 20
14.009432116
 30
0.0
 10
53.767329284
 20
14.0094151323
 30
0.0
  0
ENDSEC
  0
SECTION
  2
OBJECTS
  0
DICTIONARY
  5
C
100
AcDbDictionary
280
0
281
1
  3
ACAD_GROUP
350
D
  3
ACAD_MLINESTYLE
350
17
  3
ACAD_LAYOUT
350
1A
  3
ACAD_PLOTSETTINGS
350
19
  3
ACAD_PLOTSTYLENAME
350
E
  0
DICTIONARY
  5
D
102
{ACAD_REACTORS
330
C
102
}
100
AcDbDictionary
280
0
281
1
  0
ACDBDICTIONARYWDFLT
  5
E
102
{ACAD_REACTORS
330
C
102
}
100
AcDbDictionary
281
1
  3
Normal
350
F
100
AcDbDictionaryWithDefault
340
F
  0
DICTIONARY
  5
17
102
{ACAD_REACTORS
330
C
102
}
100
AcDbDictionary
280
0
281
1
  3
Standard
350
18
  0
DICTIONARY
  5
19
102
{ACAD_REACTORS
330
C
102
}
100
AcDbDictionary
281
1
  0
DICTIONARY
  5
1A
102
{ACAD_REACTORS
330
C
102
}
100
AcDbDictionary
281
1
  3
Model
350
361
  3
Layout1
350
362
  0
ACDBPLACEHOLDER
  5
F
102
{ACAD_REACTORS
330
E
102
}
  0
MLINESTYLE
  5
18
102
{ACAD_REACTORS
330
17
102
}
100
AcDbMlineStyle
  2
STANDARD
 70
0
  3

 62
256
 51
90.0
 52
90.0
 71
2
 49
0.5
 62
256
  6
BYLAYER
 49
-0.5
 62
256
  6
BYLAYER
  0
LAYOUT
  5
361
102
{ACAD_REACTORS
330
1A
102
}
100
AcDbPlotSettings
  1

  2
none_device
  4

  6

 40
0.0
 41
0.0
 42
0.0
 43
0.0
 44
210.0
 45
297.0
 46
0.0
 47
0.0
 48
0.0
 49
0.0
140
0.0
141
0.0
142
1.0
143
1.0
 70
1024
 72
1
 73
0
 74
0
  7

 75
0
147
1.0
148
0.0
149
0.0
100
AcDbLayout
  1
Model
 70
0
 71
0
 10
0.0
 20
0.0
 11
210.0
 21
297.0
 12
0.0
 22
0.0
 32
0.0
 14
0.0
 24
0.0
 34
0.0
 15
0.0
 25
0.0
 35
0.0
146
0.0
 13
0.0
 23
0.0
 33
0.0
 16
1.0
 26
0.0
 36
0.0
 17
0.0
 27
1.0
 37
0.0
 76
0
330
218
345
0
346
0
  0
LAYOUT
  5
362
102
{ACAD_REACTORS
330
1A
102
}
100
AcDbPlotSettings
  1

  2
none_device
  4

  6

 40
0.0
 41
0.0
 42
0.0
 43
0.0
 44
210.0
 45
297.0
 46
0.0
 47
0.0
 48
0.0
 49
0.0
140
0.0
141
0.0
142
1.0
143
1.0
 70
0
 72
1
 73
0
 74
0
  7

 75
0
147
1.0
148
0.0
149
0.0
100
AcDbLayout
  1
Layout1
 70
0
 71
1
 10
0.0
 20
0.0
 11
210.0
 21
297.0
 12
0.0
 22
0.0
 32
0.0
 14
0.0
 24
0.0
 34
0.0
 15
0.0
 25
0.0
 35
0.0
146
0.0
 13
0.0
 23
0.0
 33
0.0
 16
1.0
 26
0.0
 36
0.0
 17
0.0
 27
1.0
 37
0.0
 76
0
330
219
345
0
346
0
  0
ENDSEC
  0
EOF
