999
DXF file: C:\Users\sesa63760\Dev\_Creo\CAD\MCADPE0010548_3D-CAD\drw0001_7.dxf
999
Pro/ENGINEER 2019471 by Parametric Technology Corporation
  0
SECTION
  2
HEADER
  9
$ACADVER
  1
AC1024
  9
$DWGCODEPAGE
  3
ANSI_1252
  9
$EXTMAX
 10
43.7511552424
 20
61.8766338428
 30
0.0
  9
$EXTMIN
 10
0.0
 20
0.0
 30
0.0
  9
$LIMMIN
 10
0.0
 20
0.0
  9
$LIMMAX
 10
43.7511552424
 20
61.8766338428
  9
$VIEWCTR
 10
21.8755776212
 20
30.9383169214
  9
$VIEWSIZE
 40
61.8766338428
  9
$CLAYER
  8
0
  9
$LTSCALE
 40
4.0334398357
  9
$CELTYPE
  6
BYLAYER
  9
$DIMSCALE
 40
1.0
  9
$DIMASZ
 40
0.5208470862
  9
$DIMEXO
 40
1.0
  9
$DIMDLI
 40
2.7867402501
  9
$DIMEXE
 40
1.0
  9
$DIMCEN
 40
0.6600174277
  9
$DIMLFAC
 40
1.0
  9
$DIMBLK
  1
_FILLED
  9
$DIMALT
 70
0
  9
$DIMALTF
 40
0.0393700787
  9
$DIMTXT
 40
0.7291859207
  9
$DIMTOL
 70
1
  9
$DIMLIM
 70
0
  9
$DIMTFAC
 40
1.0
  9
$DIMTP
 40
0.01
  9
$DIMTM
 40
0.01
  9
$DIMGAP
 40
0.625
  9
$DIMDSEP
 70
46
  9
$AUNITS
 70
0
  9
$PDMODE
 70
3
  9
$PDSIZE
 40
0.3125
  9
$HANDSEED
  5
248
  9
$TILEMODE
 70
1
  9
$MEASUREMENT
 70
1
  9
$INSUNITS
 70
4
  0
ENDSEC
  0
SECTION
  2
CLASSES
  0
CLASS
  1
ACDBDICTIONARYWDFLT
  2
AcDbDictionaryWithDefault
  3
AutoCAD 2000
 90
0
 91
1
280
0
281
0
  0
CLASS
  1
ACDBPLACEHOLDER
  2
AcDbPlaceHolder
  3
AutoCAD 2000
 90
0
 91
1
280
0
281
0
  0
CLASS
  1
LAYOUT
  2
AcDbLayout
  3
AutoCAD 2000
 90
0
 91
0
280
0
281
0
  0
ENDSEC
  0
SECTION
  2
TABLES
  0
TABLE
  2
VPORT
  5
8
100
AcDbSymbolTable
 70
2
  0
VPORT
  5
1F4
100
AcDbSymbolTableRecord
100
AcDbViewportTableRecord
  2
*ACTIVE
 70
0
 10
0.0
 20
0.0
 11
1.0
 21
1.0
 12
21.8755776212
 22
30.9383169214
 13
0.0
 23
0.0
 14
1.0
 24
1.0
 15
0.0
 25
0.0
 16
0.0
 26
0.0
 36
1.0
 17
0.0
 27
0.0
 37
0.0
 40
61.8766338428
 41
0.7070707071
 42
50.0
 43
0.0
 44
0.0
 50
0.0
 51
0.0
 71
0
 72
100
 73
1
 74
1
 75
0
 76
0
 77
0
 78
0
  0
ENDTAB
  0
TABLE
  2
LTYPE
  5
5
100
AcDbSymbolTable
 70
6
  0
LTYPE
  5
14
100
AcDbSymbolTableRecord
100
AcDbLinetypeTableRecord
  2
BYBLOCK
 70
0
  3

 72
65
 73
0
 40
0.0
  0
LTYPE
  5
15
100
AcDbSymbolTableRecord
100
AcDbLinetypeTableRecord
  2
BYLAYER
 70
0
  3

 72
65
 73
0
 40
0.0
  0
LTYPE
  5
16
100
AcDbSymbolTableRecord
100
AcDbLinetypeTableRecord
  2
CONTINUOUS
 70
64
  3
Solid line
 72
65
 73
0
 40
0.0
  0
LTYPE
  5
1F5
100
AcDbSymbolTableRecord
100
AcDbLinetypeTableRecord
  2
CENTER
 70
64
  3
____ _ ____ _ ____ _ ____ _ ____ _ ____ _ ____
 72
65
 73
4
 40
0.6
 49
0.375
 74
0
 49
-0.075
 74
0
 49
0.075
 74
0
 49
-0.075
 74
0
  0
LTYPE
  5
1F6
100
AcDbSymbolTableRecord
100
AcDbLinetypeTableRecord
  2
HIDDEN
 70
64
  3
- - - - - - - - - - - - - - - - - - - -
 72
65
 73
2
 40
0.2
 49
0.1
 74
0
 49
-0.1
 74
0
  0
LTYPE
  5
1F7
100
AcDbSymbolTableRecord
100
AcDbLinetypeTableRecord
  2
PHANTOM
 70
64
  3
_____ _ _ _____ _ _ _____ _ _ _____
 72
65
 73
6
 40
0.8
 49
0.45
 74
0
 49
-0.05
 74
0
 49
0.1
 74
0
 49
-0.05
 74
0
 49
0.1
 74
0
 49
-0.05
 74
0
  0
LTYPE
  5
1F8
100
AcDbSymbolTableRecord
100
AcDbLinetypeTableRecord
  2
DOT
 70
64
  3
. . . . . . . . . . . . . . . . . . . .
 72
65
 73
2
 40
0.2
 49
0.1
 74
0
 49
-0.1
 74
0
  0
LTYPE
  5
1F9
100
AcDbSymbolTableRecord
100
AcDbLinetypeTableRecord
  2
DASHED
 70
64
  3
- - - - - - - - - - - - - - - - - - - -
 72
65
 73
2
 40
0.2
 49
0.1
 74
0
 49
-0.1
 74
0
  0
ENDTAB
  0
TABLE
  2
LAYER
  5
2
100
AcDbSymbolTable
 70
36
  0
LAYER
  5
10
100
AcDbSymbolTableRecord
100
AcDbLayerTableRecord
  2
0
 70
0
 62
7
  6
CONTINUOUS
370
-3
390
F
  0
LAYER
  5
1FA
100
AcDbSymbolTableRecord
100
AcDbLayerTableRecord
  2
DEFAULT_1
 70
0
 62
7
  6
CENTER
370
-3
390
F
  0
LAYER
  5
1FB
100
AcDbSymbolTableRecord
100
AcDbLayerTableRecord
  2
DEFAULT_2
 70
0
 62
7
  6
HIDDEN
370
-3
390
F
  0
LAYER
  5
1FC
100
AcDbSymbolTableRecord
100
AcDbLayerTableRecord
  2
DEFAULT_3
 70
0
 62
7
  6
PHANTOM
370
-3
390
F
  0
LAYER
  5
1FD
100
AcDbSymbolTableRecord
100
AcDbLayerTableRecord
  2
00_COMPONENTS
 70
0
 62
7
  6
CONTINUOUS
370
-3
390
F
  0
LAYER
  5
1FE
100
AcDbSymbolTableRecord
100
AcDbLayerTableRecord
  2
01_1_DEFAULT_DATUMS
 70
0
 62
7
  6
CONTINUOUS
370
-3
390
F
  0
LAYER
  5
1FF
100
AcDbSymbolTableRecord
100
AcDbLayerTableRecord
  2
01_PLANES
 70
0
 62
7
  6
CONTINUOUS
370
-3
390
F
  0
LAYER
  5
200
100
AcDbSymbolTableRecord
100
AcDbLayerTableRecord
  2
02_COORD_SYS
 70
0
 62
7
  6
CONTINUOUS
370
-3
390
F
  0
LAYER
  5
201
100
AcDbSymbolTableRecord
100
AcDbLayerTableRecord
  2
03_AXES
 70
0
 62
7
  6
CONTINUOUS
370
-3
390
F
  0
LAYER
  5
202
100
AcDbSymbolTableRecord
100
AcDbLayerTableRecord
  2
04_POINTS
 70
0
 62
7
  6
CONTINUOUS
370
-3
390
F
  0
LAYER
  5
203
100
AcDbSymbolTableRecord
100
AcDbLayerTableRecord
  2
05_CURVES
 70
0
 62
7
  6
CONTINUOUS
370
-3
390
F
  0
LAYER
  5
204
100
AcDbSymbolTableRecord
100
AcDbLayerTableRecord
  2
06_SURFS
 70
0
 62
7
  6
CONTINUOUS
370
-3
390
F
  0
LAYER
  5
205
100
AcDbSymbolTableRecord
100
AcDbLayerTableRecord
  2
07_COSMETICS
 70
0
 62
7
  6
CONTINUOUS
370
-3
390
F
  0
LAYER
  5
206
100
AcDbSymbolTableRecord
100
AcDbLayerTableRecord
  2
10_NOTES
 70
0
 62
7
  6
CONTINUOUS
370
-3
390
F
  0
LAYER
  5
207
100
AcDbSymbolTableRecord
100
AcDbLayerTableRecord
  2
11_NOTES_PUB
 70
0
 62
7
  6
CONTINUOUS
370
-3
390
F
  0
LAYER
  5
208
100
AcDbSymbolTableRecord
100
AcDbLayerTableRecord
  2
13_REF_GTOL
 70
0
 62
7
  6
CONTINUOUS
370
-3
390
F
  0
LAYER
  5
209
100
AcDbSymbolTableRecord
100
AcDbLayerTableRecord
  2
16_MISC
 70
0
 62
7
  6
CONTINUOUS
370
-3
390
F
  0
LAYER
  5
20A
100
AcDbSymbolTableRecord
100
AcDbLayerTableRecord
  2
17_NO_PRINT
 70
0
 62
7
  6
CONTINUOUS
370
-3
390
F
  0
LAYER
  5
20B
100
AcDbSymbolTableRecord
100
AcDbLayerTableRecord
  2
18_DATUM_CAMS_JOINTS
 70
0
 62
7
  6
CONTINUOUS
370
-3
390
F
  0
LAYER
  5
20C
100
AcDbSymbolTableRecord
100
AcDbLayerTableRecord
  2
19_DATUM_FUNCTIONAL
 70
0
 62
7
  6
CONTINUOUS
370
-3
390
F
  0
LAYER
  5
20D
100
AcDbSymbolTableRecord
100
AcDbLayerTableRecord
  2
20_DATUM_KINEMATIC_SCHEME
 70
0
 62
7
  6
CONTINUOUS
370
-3
390
F
  0
ENDTAB
  0
TABLE
  2
STYLE
  5
3
100
AcDbSymbolTable
 70
1
  0
STYLE
  5
11
100
AcDbSymbolTableRecord
100
AcDbTextStyleTableRecord
  2
STANDARD
 70
0
 40
0.0
 41
1.0
 50
0.0
 71
0
 42
0.2
  3
ARIAL.TTF
  4

  0
STYLE
  5
20E
100
AcDbSymbolTableRecord
100
AcDbTextStyleTableRecord
  2
TEXTSTYLE_1
 70
0
 40
0.0
 41
0.8
 50
0.0
 71
0
 42
0.2
  3
gdt
  4

  0
ENDTAB
  0
TABLE
  2
VIEW
  5
6
100
AcDbSymbolTable
 70
0
  0
ENDTAB
  0
TABLE
  2
UCS
  5
7
100
AcDbSymbolTable
 70
0
  0
ENDTAB
  0
TABLE
  2
APPID
  5
9
100
AcDbSymbolTable
 70
1
  0
APPID
  5
20F
100
AcDbSymbolTableRecord
100
AcDbRegAppTableRecord
  2
ACAD
 70
0
  0
ENDTAB
  0
TABLE
  2
BLOCK_RECORD
  5
1
100
AcDbSymbolTable
 70
0
  0
BLOCK_RECORD
  5
210
100
AcDbSymbolTableRecord
100
AcDbBlockTableRecord
  2
*Model_Space
  0
BLOCK_RECORD
  5
211
100
AcDbSymbolTableRecord
100
AcDbBlockTableRecord
  2
*Paper_Space
  0
BLOCK_RECORD
  5
212
100
AcDbSymbolTableRecord
100
AcDbBlockTableRecord
  2
_FILLED
  0
ENDTAB
  0
TABLE
  2
DIMSTYLE
  5
A
100
AcDbSymbolTable
 70
1
100
AcDbDimStyleTable
 71
0
  0
DIMSTYLE
105
213
100
AcDbSymbolTableRecord
100
AcDbDimStyleTableRecord
  2
STANDARD
 70
0
  3

  4

 40
1.0
 41
0.5208470862
 42
1.0
 43
0.38
 44
1.0
 45
0.0
 46
0.0
 47
0.01
 48
0.01
140
0.7291859207
141
0.09
142
0.0
143
25.4
144
1.0
145
0.0
146
1.0
147
0.625
 71
1
 72
0
 73
0
 74
0
 75
0
 76
0
 77
1
 78
8
 79
2
170
0
171
1
172
0
173
0
174
0
175
0
176
0
177
0
178
0
270
2
179
2
271
2
272
2
273
2
274
2
275
0
280
0
281
0
282
0
283
1
284
8
285
0
286
0
287
3
288
0
340
11
278
46
341
212
342
212
343
212
344
212
  0
ENDTAB
  0
ENDSEC
  0
SECTION
  2
BLOCKS
  0
BLOCK
  5
20
100
AcDbEntity
  8
0
100
AcDbBlockBegin
  2
*Model_Space
 70
0
 10
0.0
 20
0.0
 30
0.0
  3
*Model_Space
  1

  0
ENDBLK
  5
21
100
AcDbEntity
  8
0
100
AcDbBlockEnd
  0
BLOCK
  5
1C
100
AcDbEntity
  8
0
100
AcDbBlockBegin
  2
*Paper_Space
 70
0
 10
0.0
 20
0.0
 30
0.0
  3
*Paper_Space
  1

  0
ENDBLK
  5
1D
100
AcDbEntity
  8
0
100
AcDbBlockEnd
  0
BLOCK
  5
214
100
AcDbEntity
  8
0
100
AcDbBlockBegin
  2
_FILLED
 70
64
 10
0.0
 20
0.0
  3
_FILLED
  1

  0
SOLID
  5
215
100
AcDbEntity
  8
0
  6
BYBLOCK
 62
0
100
AcDbTrace
 10
0.0
 20
0.0
 11
-1.0
 21
0.25
 12
-1.0
 22
-0.25
 13
-1.0
 23
-0.25
  0
ENDBLK
  5
216
100
AcDbEntity
  8
0
  6
BYBLOCK
 62
0
100
AcDbBlockEnd
  0
ENDSEC
  0
SECTION
  2
ENTITIES
  0
LINE
  5
217
100
AcDbEntity
  8
0
100
AcDbLine
 62
7
  6
BYLAYER
 10
25.0262920366
 20
4.5820518329
 11
18.8762920366
 21
4.5820518329
  0
LINE
  5
218
100
AcDbEntity
  8
0
100
AcDbLine
 62
7
  6
BYLAYER
 10
18.8762920366
 20
4.6412563596
 11
25.0262920366
 21
4.6412563596
  0
LINE
  5
219
100
AcDbEntity
  8
0
100
AcDbLine
 62
7
  6
BYLAYER
 10
25.0262920366
 20
5.0857085959
 11
18.8762920366
 21
5.0857085959
  0
LINE
  5
21A
100
AcDbEntity
  8
0
100
AcDbLine
 62
7
  6
BYLAYER
 10
25.0262920366
 20
6.5978549656
 11
18.8762920366
 21
6.5978549656
  0
LINE
  5
21B
100
AcDbEntity
  8
0
100
AcDbLine
 62
7
  6
BYLAYER
 10
18.8762920366
 20
8.0654275073
 11
25.0262920366
 21
8.0654275073
  0
LINE
  5
21C
100
AcDbEntity
  8
0
100
AcDbLine
 62
7
  6
BYLAYER
 10
25.0262920366
 20
8.0955811969
 11
18.8762920366
 21
8.0955811969
  0
LINE
  5
21D
100
AcDbEntity
  8
0
100
AcDbLine
 62
7
  6
BYLAYER
 10
19.5262920366
 20
8.4547023476
 11
24.3762920366
 21
8.4547023476
  0
LINE
  5
21E
100
AcDbEntity
  8
0
100
AcDbLine
 62
7
  6
BYLAYER
 10
24.3762920366
 20
9.9937929567
 11
19.5262920366
 21
9.9937929567
  0
LINE
  5
21F
100
AcDbEntity
  8
0
100
AcDbLine
 62
7
  6
BYLAYER
 10
25.0262920366
 20
11.464479573
 11
24.766367793
 21
11.464479573
  0
LINE
  5
220
100
AcDbEntity
  8
0
100
AcDbLine
 62
7
  6
BYLAYER
 10
25.0262920366
 20
12.490540003
 11
24.766367793
 21
12.490540003
  0
LINE
  5
221
100
AcDbEntity
  8
0
100
AcDbLine
 62
7
  6
BYLAYER
 10
18.8762920366
 20
13.1387211729
 11
25.0262920366
 21
13.1387211729
  0
LINE
  5
222
100
AcDbEntity
  8
0
100
AcDbLine
 62
7
  6
BYLAYER
 10
25.0262920366
 20
13.3157466084
 11
18.8762920366
 21
13.3157466084
  0
LINE
  5
223
100
AcDbEntity
  8
0
100
AcDbLine
 62
7
  6
BYLAYER
 10
25.0262920366
 20
21.8790266169
 11
18.8762920366
 21
21.8790266169
  0
LINE
  5
224
100
AcDbEntity
  8
0
100
AcDbLine
 62
7
  6
BYLAYER
 10
18.8762920366
 20
27.4273427736
 11
25.0262920366
 21
27.4273427736
  0
LINE
  5
225
100
AcDbEntity
  8
0
100
AcDbLine
 62
7
  6
BYLAYER
 10
25.0262920366
 20
27.4574964632
 11
18.8762920366
 21
27.4574964632
  0
LINE
  5
226
100
AcDbEntity
  8
0
100
AcDbLine
 62
7
  6
BYLAYER
 10
18.8762920366
 20
4.5820518329
 11
18.8762920366
 21
57.5975275856
  0
LINE
  5
227
100
AcDbEntity
  8
0
100
AcDbLine
 62
7
  6
BYLAYER
 10
19.2262920366
 20
31.4420310973
 11
19.2262920366
 21
31.2368190113
  0
LINE
  5
228
100
AcDbEntity
  8
0
100
AcDbLine
 62
7
  6
BYLAYER
 10
19.2262920366
 20
12.080115831
 11
19.2262920366
 21
11.874903745
  0
LINE
  5
229
100
AcDbEntity
  8
0
100
AcDbLine
 62
7
  6
BYLAYER
 10
19.5262920366
 20
29.355708223
 11
19.5262920366
 21
27.8166176139
  0
LINE
  5
22A
100
AcDbEntity
  8
0
100
AcDbLine
 62
7
  6
BYLAYER
 10
19.5262920366
 20
9.9937929567
 11
19.5262920366
 21
8.4547023476
  0
LINE
  5
22B
100
AcDbEntity
  8
0
100
AcDbLine
 62
7
  6
BYLAYER
 10
19.5262920366
 20
27.8166176139
 11
24.3762920366
 21
27.8166176139
  0
LINE
  5
22C
100
AcDbEntity
  8
0
100
AcDbLine
 62
7
  6
BYLAYER
 10
24.3762920366
 20
29.355708223
 11
19.5262920366
 21
29.355708223
  0
LINE
  5
22D
100
AcDbEntity
  8
0
100
AcDbLine
 62
7
  6
BYLAYER
 10
25.0262920366
 20
30.8263948393
 11
24.766367793
 21
30.8263948393
  0
LINE
  5
22E
100
AcDbEntity
  8
0
100
AcDbLine
 62
7
  6
BYLAYER
 10
25.0262920366
 20
31.8524552693
 11
24.766367793
 21
31.8524552693
  0
LINE
  5
22F
100
AcDbEntity
  8
0
100
AcDbLine
 62
7
  6
BYLAYER
 10
25.0262920366
 20
32.6042785271
 11
18.8762920366
 21
32.604278525
  0
LINE
  5
230
100
AcDbEntity
  8
0
100
AcDbLine
 62
7
  6
BYLAYER
 10
25.0262920366
 20
32.7919203337
 11
18.8762920366
 21
32.7919203337
  0
LINE
  5
231
100
AcDbEntity
  8
0
100
AcDbLine
 62
7
  6
BYLAYER
 10
24.3762920366
 20
8.4547023476
 11
24.3762920366
 21
9.9937929567
  0
LINE
  5
232
100
AcDbEntity
  8
0
100
AcDbLine
 62
7
  6
BYLAYER
 10
24.3762920366
 20
27.8166176139
 11
24.3762920366
 21
29.355708223
  0
LINE
  5
233
100
AcDbEntity
  8
0
100
AcDbLine
 62
7
  6
BYLAYER
 10
24.766367793
 20
11.464479573
 11
24.766367793
 21
12.490540003
  0
LINE
  5
234
100
AcDbEntity
  8
0
100
AcDbLine
 62
7
  6
BYLAYER
 10
24.766367793
 20
30.8263948393
 11
24.766367793
 21
31.8524552693
  0
LINE
  5
235
100
AcDbEntity
  8
0
100
AcDbLine
 62
7
  6
BYLAYER
 10
25.0262920366
 20
4.5820518329
 11
25.0262920366
 21
57.5975275856
  0
LINE
  5
236
100
AcDbEntity
  8
0
100
AcDbLine
 62
7
  6
BYLAYER
 10
25.0262920366
 20
33.9936126935
 11
18.8762920366
 21
33.9936126935
  0
LINE
  5
237
100
AcDbEntity
  8
0
100
AcDbLine
 62
7
  6
BYLAYER
 10
18.8762920366
 20
34.747085691
 11
25.0262920366
 21
34.747085691
  0
LINE
  5
238
100
AcDbEntity
  8
0
100
AcDbLine
 62
7
  6
BYLAYER
 10
18.8762920366
 20
46.047969463
 11
25.0262920366
 21
46.047969463
  0
LINE
  5
239
100
AcDbEntity
  8
0
100
AcDbLine
 62
7
  6
BYLAYER
 10
25.0262920366
 20
46.8013617145
 11
18.8762920366
 21
46.8013617145
  0
LINE
  5
23A
100
AcDbEntity
  8
0
100
AcDbLine
 62
7
  6
BYLAYER
 10
18.8762920366
 20
46.8975833807
 11
25.0262920366
 21
46.8975833807
  0
LINE
  5
23B
100
AcDbEntity
  8
0
100
AcDbLine
 62
7
  6
BYLAYER
 10
25.0262920366
 20
48.8175634065
 11
18.8762920366
 21
48.8175634065
  0
LINE
  5
23C
100
AcDbEntity
  8
0
100
AcDbLine
 62
7
  6
BYLAYER
 10
18.8762920366
 20
57.5175075737
 11
25.0262920366
 21
57.5175075737
  0
LINE
  5
23D
100
AcDbEntity
  8
0
100
AcDbLine
 62
7
  6
BYLAYER
 10
25.0262920366
 20
57.5975275856
 11
18.8762920366
 21
57.5975275856
  0
SPLINE
  5
23E
100
AcDbEntity
  8
0
100
AcDbSpline
 62
7
  6
BYLAYER
 70
0
 71
3
 72
14
 73
10
 74
0
 42
0.0000001
 43
0.0000001
 44
0.0000000001
 40
0.0
 40
0.0
 40
0.0
 40
0.0
 40
0.2991639358
 40
0.4420489758
 40
0.5770920155
 40
0.7020608109
 40
0.8150252846
 40
0.9146244557
 40
1.0
 40
1.0
 40
1.0
 40
1.0
 10
22.1262920366
 20
32.433889513
 30
0.0
 10
22.3993962474
 20
32.433889513
 30
0.0
 10
22.8033866828
 20
32.4147740236
 30
0.0
 10
23.3262386212
 20
32.3486791361
 30
0.0
 10
23.6881301771
 20
32.2816796652
 30
0.0
 10
24.0184652512
 20
32.1980630523
 30
0.0
 10
24.3108146687
 20
32.0994292815
 30
0.0
 10
24.5593194941
 20
31.98779653
 30
0.0
 10
24.7040906977
 20
31.8993166603
 30
0.0
 10
24.766367793
 20
31.8524552693
 30
0.0
  0
SPLINE
  5
23F
100
AcDbEntity
  8
0
100
AcDbSpline
 62
7
  6
BYLAYER
 70
0
 71
3
 72
20
 73
16
 74
0
 42
0.0000001
 43
0.0000001
 44
0.0000000001
 40
0.0
 40
0.0
 40
0.0
 40
0.0
 40
0.0302611402
 40
0.0626534541
 40
0.0987745951
 40
0.1396982655
 40
0.1860103997
 40
0.2379732441
 40
0.2955653458
 40
0.3585760374
 40
0.4266886577
 40
0.4994354262
 40
0.6566253704
 40
0.8254279018
 40
1.0
 40
1.0
 40
1.0
 40
1.0
 10
19.2262920366
 20
31.4420310973
 30
0.0
 10
19.2262920366
 20
31.4747299919
 30
0.0
 10
19.2365034622
 20
31.5427516587
 30
0.0
 10
19.2805333803
 20
31.6411103635
 30
0.0
 10
19.3519601995
 20
31.7363306741
 30
0.0
 10
19.4496182561
 20
31.8277924228
 30
0.0
 10
19.5724022089
 20
31.9152704195
 30
0.0
 10
19.719349826
 20
31.9980759356
 30
0.0
 10
19.8891337214
 20
32.0756055463
 30
0.0
 10
20.0802320656
 20
32.1471686043
 30
0.0
 10
20.29089584
 20
32.2119784002
 30
0.0
 10
20.6032968839
 20
32.2907277642
 30
0.0
 10
21.0279789045
 20
32.3667295923
 30
0.0
 10
21.5664883476
 20
32.4215679266
 30
0.0
 10
21.9376568892
 20
32.433889513
 30
0.0
 10
22.1262920366
 20
32.433889513
 30
0.0
  0
SPLINE
  5
240
100
AcDbEntity
  8
0
100
AcDbSpline
 62
7
  6
BYLAYER
 70
0
 71
3
 72
20
 73
16
 74
0
 42
0.0000001
 43
0.0000001
 44
0.0000000001
 40
0.0
 40
0.0
 40
0.0
 40
0.0
 40
0.0302611402
 40
0.0626534541
 40
0.0987745951
 40
0.1396982655
 40
0.1860103997
 40
0.2379732441
 40
0.2955653458
 40
0.3585760374
 40
0.4266886577
 40
0.4994354262
 40
0.6566253704
 40
0.8254279018
 40
1.0
 40
1.0
 40
1.0
 40
1.0
 10
19.2262920366
 20
12.080115831
 30
0.0
 10
19.2262920366
 20
12.1128147256
 30
0.0
 10
19.2365034622
 20
12.1808363924
 30
0.0
 10
19.2805333803
 20
12.2791950972
 30
0.0
 10
19.3519601995
 20
12.3744154078
 30
0.0
 10
19.4496182561
 20
12.4658771565
 30
0.0
 10
19.5724022089
 20
12.5533551532
 30
0.0
 10
19.719349826
 20
12.6361606693
 30
0.0
 10
19.8891337214
 20
12.71369028
 30
0.0
 10
20.0802320656
 20
12.785253338
 30
0.0
 10
20.29089584
 20
12.8500631339
 30
0.0
 10
20.6032968839
 20
12.9288124979
 30
0.0
 10
21.0279789045
 20
13.004814326
 30
0.0
 10
21.5664883476
 20
13.0596526603
 30
0.0
 10
21.9376568892
 20
13.0719742467
 30
0.0
 10
22.1262920366
 20
13.0719742467
 30
0.0
  0
SPLINE
  5
241
100
AcDbEntity
  8
0
100
AcDbSpline
 62
7
  6
BYLAYER
 70
0
 71
3
 72
14
 73
10
 74
0
 42
0.0000001
 43
0.0000001
 44
0.0000000001
 40
0.0
 40
0.0
 40
0.0
 40
0.0
 40
0.2991639358
 40
0.4420489758
 40
0.5770920155
 40
0.7020608109
 40
0.8150252846
 40
0.9146244557
 40
1.0
 40
1.0
 40
1.0
 40
1.0
 10
22.1262920366
 20
13.0719742467
 30
0.0
 10
22.3993962474
 20
13.0719742467
 30
0.0
 10
22.8033866828
 20
13.0528587573
 30
0.0
 10
23.3262386212
 20
12.9867638698
 30
0.0
 10
23.6881301771
 20
12.9197643989
 30
0.0
 10
24.0184652512
 20
12.836147786
 30
0.0
 10
24.3108146687
 20
12.7375140152
 30
0.0
 10
24.5593194941
 20
12.6258812637
 30
0.0
 10
24.7040906977
 20
12.537401394
 30
0.0
 10
24.766367793
 20
12.490540003
 30
0.0
  0
SPLINE
  5
242
100
AcDbEntity
  8
0
100
AcDbSpline
 62
7
  6
BYLAYER
 70
0
 71
3
 72
20
 73
16
 74
0
 42
0.0000001
 43
0.0000001
 44
0.0000000001
 40
0.0
 40
0.0
 40
0.0
 40
0.0
 40
0.1745720489
 40
0.3433744967
 40
0.5005644283
 40
0.5733112056
 40
0.6414238297
 40
0.7044345311
 40
0.7620266526
 40
0.8139895094
 40
0.8603016657
 40
0.901225361
 40
0.9373465232
 40
0.9697388542
 40
1.0
 40
1.0
 40
1.0
 40
1.0
 10
22.1262920366
 20
30.2449605957
 30
0.0
 10
21.9376569432
 20
30.2449605957
 30
0.0
 10
21.566488546
 20
30.2572821529
 30
0.0
 10
21.0279792607
 20
30.3121204704
 30
0.0
 10
20.6032973336
 20
30.3881222637
 30
0.0
 10
20.2908962771
 20
30.4668715722
 30
0.0
 10
20.080232476
 20
30.5316813628
 30
0.0
 10
19.889134098
 20
30.6032444275
 30
0.0
 10
19.7193501371
 20
30.6807740028
 30
0.0
 10
19.5724024634
 20
30.7635795384
 30
0.0
 10
19.4496184386
 20
30.8510575401
 30
0.0
 10
19.3519602972
 20
30.9425193106
 30
0.0
 10
19.2805334576
 20
31.0377396906
 30
0.0
 10
19.2365034887
 20
31.1360984202
 30
0.0
 10
19.2262920366
 20
31.2041201108
 30
0.0
 10
19.2262920366
 20
31.2368190113
 30
0.0
  0
SPLINE
  5
243
100
AcDbEntity
  8
0
100
AcDbSpline
 62
7
  6
BYLAYER
 70
0
 71
3
 72
14
 73
10
 74
0
 42
0.0000001
 43
0.0000001
 44
0.0000000001
 40
0.0
 40
0.0
 40
0.0
 40
0.0
 40
0.0853755641
 40
0.1849747731
 40
0.2979392736
 40
0.4229080758
 40
0.5579511225
 40
0.7008361438
 40
1.0
 40
1.0
 40
1.0
 40
1.0
 10
24.766367793
 20
30.8263948393
 30
0.0
 10
24.7040906832
 20
30.7795334374
 30
0.0
 10
24.5593194231
 20
30.6910535587
 30
0.0
 10
24.3108145329
 20
30.5794207654
 30
0.0
 10
24.0184650443
 20
30.4807869982
 30
0.0
 10
23.6881299317
 20
30.3971703894
 30
0.0
 10
23.3262383773
 20
30.3301709346
 30
0.0
 10
22.8033865197
 20
30.2640760764
 30
0.0
 10
22.3993961746
 20
30.2449605957
 30
0.0
 10
22.1262920366
 20
30.2449605957
 30
0.0
  0
SPLINE
  5
244
100
AcDbEntity
  8
0
100
AcDbSpline
 62
7
  6
BYLAYER
 70
0
 71
3
 72
14
 73
10
 74
0
 42
0.0000001
 43
0.0000001
 44
0.0000000001
 40
0.0
 40
0.0
 40
0.0
 40
0.0
 40
0.0853755641
 40
0.1849747731
 40
0.2979392736
 40
0.4229080758
 40
0.5579511225
 40
0.7008361438
 40
1.0
 40
1.0
 40
1.0
 40
1.0
 10
24.766367793
 20
11.464479573
 30
0.0
 10
24.7040906832
 20
11.4176181711
 30
0.0
 10
24.5593194231
 20
11.3291382924
 30
0.0
 10
24.3108145329
 20
11.2175054991
 30
0.0
 10
24.0184650443
 20
11.1188717319
 30
0.0
 10
23.6881299317
 20
11.0352551231
 30
0.0
 10
23.3262383773
 20
10.9682556683
 30
0.0
 10
22.8033865197
 20
10.9021608101
 30
0.0
 10
22.3993961746
 20
10.8830453294
 30
0.0
 10
22.1262920366
 20
10.8830453294
 30
0.0
  0
SPLINE
  5
245
100
AcDbEntity
  8
0
100
AcDbSpline
 62
7
  6
BYLAYER
 70
0
 71
3
 72
20
 73
16
 74
0
 42
0.0000001
 43
0.0000001
 44
0.0000000001
 40
0.0
 40
0.0
 40
0.0
 40
0.0
 40
0.1745720489
 40
0.3433744967
 40
0.5005644283
 40
0.5733112056
 40
0.6414238297
 40
0.7044345311
 40
0.7620266526
 40
0.8139895094
 40
0.8603016657
 40
0.901225361
 40
0.9373465232
 40
0.9697388542
 40
1.0
 40
1.0
 40
1.0
 40
1.0
 10
22.1262920366
 20
10.8830453294
 30
0.0
 10
21.9376569432
 20
10.8830453294
 30
0.0
 10
21.566488546
 20
10.8953668866
 30
0.0
 10
21.0279792607
 20
10.9502052041
 30
0.0
 10
20.6032973336
 20
11.0262069974
 30
0.0
 10
20.2908962771
 20
11.1049563059
 30
0.0
 10
20.080232476
 20
11.1697660965
 30
0.0
 10
19.889134098
 20
11.2413291612
 30
0.0
 10
19.7193501371
 20
11.3188587365
 30
0.0
 10
19.5724024634
 20
11.4016642721
 30
0.0
 10
19.4496184386
 20
11.4891422739
 30
0.0
 10
19.3519602972
 20
11.5806040443
 30
0.0
 10
19.2805334576
 20
11.6758244243
 30
0.0
 10
19.2365034887
 20
11.7741831539
 30
0.0
 10
19.2262920366
 20
11.8422048445
 30
0.0
 10
19.2262920366
 20
11.874903745
 30
0.0
  0
ENDSEC
  0
SECTION
  2
OBJECTS
  0
DICTIONARY
  5
C
100
AcDbDictionary
280
0
281
1
  3
ACAD_GROUP
350
D
  3
ACAD_MLINESTYLE
350
17
  3
ACAD_LAYOUT
350
1A
  3
ACAD_PLOTSETTINGS
350
19
  3
ACAD_PLOTSTYLENAME
350
E
  0
DICTIONARY
  5
D
102
{ACAD_REACTORS
330
C
102
}
100
AcDbDictionary
280
0
281
1
  0
ACDBDICTIONARYWDFLT
  5
E
102
{ACAD_REACTORS
330
C
102
}
100
AcDbDictionary
281
1
  3
Normal
350
F
100
AcDbDictionaryWithDefault
340
F
  0
DICTIONARY
  5
17
102
{ACAD_REACTORS
330
C
102
}
100
AcDbDictionary
280
0
281
1
  3
Standard
350
18
  0
DICTIONARY
  5
19
102
{ACAD_REACTORS
330
C
102
}
100
AcDbDictionary
281
1
  0
DICTIONARY
  5
1A
102
{ACAD_REACTORS
330
C
102
}
100
AcDbDictionary
281
1
  3
Model
350
246
  3
Layout1
350
247
  0
ACDBPLACEHOLDER
  5
F
102
{ACAD_REACTORS
330
E
102
}
  0
MLINESTYLE
  5
18
102
{ACAD_REACTORS
330
17
102
}
100
AcDbMlineStyle
  2
STANDARD
 70
0
  3

 62
256
 51
90.0
 52
90.0
 71
2
 49
0.5
 62
256
  6
BYLAYER
 49
-0.5
 62
256
  6
BYLAYER
  0
LAYOUT
  5
246
102
{ACAD_REACTORS
330
1A
102
}
100
AcDbPlotSettings
  1

  2
none_device
  4

  6

 40
0.0
 41
0.0
 42
0.0
 43
0.0
 44
210.0
 45
297.0
 46
0.0
 47
0.0
 48
0.0
 49
0.0
140
0.0
141
0.0
142
1.0
143
1.0
 70
1024
 72
1
 73
0
 74
0
  7

 75
0
147
1.0
148
0.0
149
0.0
100
AcDbLayout
  1
Model
 70
0
 71
0
 10
0.0
 20
0.0
 11
210.0
 21
297.0
 12
0.0
 22
0.0
 32
0.0
 14
0.0
 24
0.0
 34
0.0
 15
0.0
 25
0.0
 35
0.0
146
0.0
 13
0.0
 23
0.0
 33
0.0
 16
1.0
 26
0.0
 36
0.0
 17
0.0
 27
1.0
 37
0.0
 76
0
330
210
345
0
346
0
  0
LAYOUT
  5
247
102
{ACAD_REACTORS
330
1A
102
}
100
AcDbPlotSettings
  1

  2
none_device
  4

  6

 40
0.0
 41
0.0
 42
0.0
 43
0.0
 44
210.0
 45
297.0
 46
0.0
 47
0.0
 48
0.0
 49
0.0
140
0.0
141
0.0
142
1.0
143
1.0
 70
0
 72
1
 73
0
 74
0
  7

 75
0
147
1.0
148
0.0
149
0.0
100
AcDbLayout
  1
Layout1
 70
0
 71
1
 10
0.0
 20
0.0
 11
210.0
 21
297.0
 12
0.0
 22
0.0
 32
0.0
 14
0.0
 24
0.0
 34
0.0
 15
0.0
 25
0.0
 35
0.0
146
0.0
 13
0.0
 23
0.0
 33
0.0
 16
1.0
 26
0.0
 36
0.0
 17
0.0
 27
1.0
 37
0.0
 76
0
330
211
345
0
346
0
  0
ENDSEC
  0
EOF
