999
DXF file: C:\Users\sesa63760\Dev\_Creo\CAD\MCADPD0003995_3D-CAD\drw0001_1.dxf
999
Pro/ENGINEER 2019471 by Parametric Technology Corporation
  0
SECTION
  2
HEADER
  9
$ACADVER
  1
AC1024
  9
$DWGCODEPAGE
  3
ANSI_1252
  9
$EXTMAX
 10
155.7695551685
 20
220.3026565955
 30
0.0
  9
$EXTMIN
 10
0.0
 20
0.0
 30
0.0
  9
$LIMMIN
 10
0.0
 20
0.0
  9
$LIMMAX
 10
155.7695551685
 20
220.3026565955
  9
$VIEWCTR
 10
77.8847775843
 20
110.1513282977
  9
$VIEWSIZE
 40
220.3026565955
  9
$CLAYER
  8
0
  9
$LTSCALE
 40
14.360469467
  9
$CELTYPE
  6
BYLAYER
  9
$DIMSCALE
 40
1.0
  9
$DIMASZ
 40
1.8543994663
  9
$DIMEXO
 40
1.0
  9
$DIMDLI
 40
9.9217789044
  9
$DIMEXE
 40
1.0
  9
$DIMCEN
 40
2.3498950037
  9
$DIMLFAC
 40
1.0
  9
$DIMBLK
  1
_FILLED
  9
$DIMALT
 70
0
  9
$DIMALTF
 40
0.0393700787
  9
$DIMTXT
 40
2.5961592528
  9
$DIMTOL
 70
1
  9
$DIMLIM
 70
0
  9
$DIMTFAC
 40
1.0
  9
$DIMTP
 40
0.01
  9
$DIMTM
 40
0.01
  9
$DIMGAP
 40
0.625
  9
$DIMDSEP
 70
46
  9
$AUNITS
 70
0
  9
$PDMODE
 70
3
  9
$PDSIZE
 40
0.3125
  9
$HANDSEED
  5
32D
  9
$TILEMODE
 70
1
  9
$MEASUREMENT
 70
1
  9
$INSUNITS
 70
4
  0
ENDSEC
  0
SECTION
  2
CLASSES
  0
CLASS
  1
ACDBDICTIONARYWDFLT
  2
AcDbDictionaryWithDefault
  3
AutoCAD 2000
 90
0
 91
1
280
0
281
0
  0
CLASS
  1
ACDBPLACEHOLDER
  2
AcDbPlaceHolder
  3
AutoCAD 2000
 90
0
 91
1
280
0
281
0
  0
CLASS
  1
LAYOUT
  2
AcDbLayout
  3
AutoCAD 2000
 90
0
 91
0
280
0
281
0
  0
ENDSEC
  0
SECTION
  2
TABLES
  0
TABLE
  2
VPORT
  5
8
100
AcDbSymbolTable
 70
2
  0
VPORT
  5
1F4
100
AcDbSymbolTableRecord
100
AcDbViewportTableRecord
  2
*ACTIVE
 70
0
 10
0.0
 20
0.0
 11
1.0
 21
1.0
 12
77.8847775843
 22
110.1513282977
 13
0.0
 23
0.0
 14
1.0
 24
1.0
 15
0.0
 25
0.0
 16
0.0
 26
0.0
 36
1.0
 17
0.0
 27
0.0
 37
0.0
 40
220.3026565955
 41
0.7070707071
 42
50.0
 43
0.0
 44
0.0
 50
0.0
 51
0.0
 71
0
 72
100
 73
1
 74
1
 75
0
 76
0
 77
0
 78
0
  0
ENDTAB
  0
TABLE
  2
LTYPE
  5
5
100
AcDbSymbolTable
 70
6
  0
LTYPE
  5
14
100
AcDbSymbolTableRecord
100
AcDbLinetypeTableRecord
  2
BYBLOCK
 70
0
  3

 72
65
 73
0
 40
0.0
  0
LTYPE
  5
15
100
AcDbSymbolTableRecord
100
AcDbLinetypeTableRecord
  2
BYLAYER
 70
0
  3

 72
65
 73
0
 40
0.0
  0
LTYPE
  5
16
100
AcDbSymbolTableRecord
100
AcDbLinetypeTableRecord
  2
CONTINUOUS
 70
64
  3
Solid line
 72
65
 73
0
 40
0.0
  0
LTYPE
  5
1F5
100
AcDbSymbolTableRecord
100
AcDbLinetypeTableRecord
  2
CENTER
 70
64
  3
____ _ ____ _ ____ _ ____ _ ____ _ ____ _ ____
 72
65
 73
4
 40
0.6
 49
0.375
 74
0
 49
-0.075
 74
0
 49
0.075
 74
0
 49
-0.075
 74
0
  0
LTYPE
  5
1F6
100
AcDbSymbolTableRecord
100
AcDbLinetypeTableRecord
  2
HIDDEN
 70
64
  3
- - - - - - - - - - - - - - - - - - - -
 72
65
 73
2
 40
0.2
 49
0.1
 74
0
 49
-0.1
 74
0
  0
LTYPE
  5
1F7
100
AcDbSymbolTableRecord
100
AcDbLinetypeTableRecord
  2
PHANTOM
 70
64
  3
_____ _ _ _____ _ _ _____ _ _ _____
 72
65
 73
6
 40
0.8
 49
0.45
 74
0
 49
-0.05
 74
0
 49
0.1
 74
0
 49
-0.05
 74
0
 49
0.1
 74
0
 49
-0.05
 74
0
  0
LTYPE
  5
1F8
100
AcDbSymbolTableRecord
100
AcDbLinetypeTableRecord
  2
DOT
 70
64
  3
. . . . . . . . . . . . . . . . . . . .
 72
65
 73
2
 40
0.2
 49
0.1
 74
0
 49
-0.1
 74
0
  0
LTYPE
  5
1F9
100
AcDbSymbolTableRecord
100
AcDbLinetypeTableRecord
  2
DASHED
 70
64
  3
- - - - - - - - - - - - - - - - - - - -
 72
65
 73
2
 40
0.2
 49
0.1
 74
0
 49
-0.1
 74
0
  0
ENDTAB
  0
TABLE
  2
LAYER
  5
2
100
AcDbSymbolTable
 70
36
  0
LAYER
  5
10
100
AcDbSymbolTableRecord
100
AcDbLayerTableRecord
  2
0
 70
0
 62
7
  6
CONTINUOUS
370
-3
390
F
  0
LAYER
  5
1FA
100
AcDbSymbolTableRecord
100
AcDbLayerTableRecord
  2
DEFAULT_1
 70
0
 62
7
  6
CENTER
370
-3
390
F
  0
LAYER
  5
1FB
100
AcDbSymbolTableRecord
100
AcDbLayerTableRecord
  2
DEFAULT_2
 70
0
 62
7
  6
HIDDEN
370
-3
390
F
  0
LAYER
  5
1FC
100
AcDbSymbolTableRecord
100
AcDbLayerTableRecord
  2
DEFAULT_3
 70
0
 62
7
  6
PHANTOM
370
-3
390
F
  0
LAYER
  5
1FD
100
AcDbSymbolTableRecord
100
AcDbLayerTableRecord
  2
00_COMPONENTS
 70
0
 62
7
  6
CONTINUOUS
370
-3
390
F
  0
LAYER
  5
1FE
100
AcDbSymbolTableRecord
100
AcDbLayerTableRecord
  2
01_1_DEFAULT_DATUMS
 70
0
 62
7
  6
CONTINUOUS
370
-3
390
F
  0
LAYER
  5
1FF
100
AcDbSymbolTableRecord
100
AcDbLayerTableRecord
  2
01_PLANES
 70
0
 62
7
  6
CONTINUOUS
370
-3
390
F
  0
LAYER
  5
200
100
AcDbSymbolTableRecord
100
AcDbLayerTableRecord
  2
02_COORD_SYS
 70
0
 62
7
  6
CONTINUOUS
370
-3
390
F
  0
LAYER
  5
201
100
AcDbSymbolTableRecord
100
AcDbLayerTableRecord
  2
03_AXES
 70
0
 62
7
  6
CONTINUOUS
370
-3
390
F
  0
LAYER
  5
202
100
AcDbSymbolTableRecord
100
AcDbLayerTableRecord
  2
04_POINTS
 70
0
 62
7
  6
CONTINUOUS
370
-3
390
F
  0
LAYER
  5
203
100
AcDbSymbolTableRecord
100
AcDbLayerTableRecord
  2
05_CURVES
 70
0
 62
7
  6
CONTINUOUS
370
-3
390
F
  0
LAYER
  5
204
100
AcDbSymbolTableRecord
100
AcDbLayerTableRecord
  2
06_SURFS
 70
0
 62
7
  6
CONTINUOUS
370
-3
390
F
  0
LAYER
  5
205
100
AcDbSymbolTableRecord
100
AcDbLayerTableRecord
  2
07_COSMETICS
 70
0
 62
7
  6
CONTINUOUS
370
-3
390
F
  0
LAYER
  5
206
100
AcDbSymbolTableRecord
100
AcDbLayerTableRecord
  2
10_NOTES
 70
0
 62
7
  6
CONTINUOUS
370
-3
390
F
  0
LAYER
  5
207
100
AcDbSymbolTableRecord
100
AcDbLayerTableRecord
  2
11_NOTES_PUB
 70
0
 62
7
  6
CONTINUOUS
370
-3
390
F
  0
LAYER
  5
208
100
AcDbSymbolTableRecord
100
AcDbLayerTableRecord
  2
13_REF_GTOL
 70
0
 62
7
  6
CONTINUOUS
370
-3
390
F
  0
LAYER
  5
209
100
AcDbSymbolTableRecord
100
AcDbLayerTableRecord
  2
16_MISC
 70
0
 62
7
  6
CONTINUOUS
370
-3
390
F
  0
LAYER
  5
20A
100
AcDbSymbolTableRecord
100
AcDbLayerTableRecord
  2
17_NO_PRINT
 70
0
 62
7
  6
CONTINUOUS
370
-3
390
F
  0
LAYER
  5
20B
100
AcDbSymbolTableRecord
100
AcDbLayerTableRecord
  2
18_DATUM_CAMS_JOINTS
 70
0
 62
7
  6
CONTINUOUS
370
-3
390
F
  0
LAYER
  5
20C
100
AcDbSymbolTableRecord
100
AcDbLayerTableRecord
  2
19_DATUM_FUNCTIONAL
 70
0
 62
7
  6
CONTINUOUS
370
-3
390
F
  0
LAYER
  5
20D
100
AcDbSymbolTableRecord
100
AcDbLayerTableRecord
  2
20_DATUM_KINEMATIC_SCHEME
 70
0
 62
7
  6
CONTINUOUS
370
-3
390
F
  0
ENDTAB
  0
TABLE
  2
STYLE
  5
3
100
AcDbSymbolTable
 70
1
  0
STYLE
  5
11
100
AcDbSymbolTableRecord
100
AcDbTextStyleTableRecord
  2
STANDARD
 70
0
 40
0.0
 41
1.0
 50
0.0
 71
0
 42
0.2
  3
ARIAL.TTF
  4

  0
STYLE
  5
20E
100
AcDbSymbolTableRecord
100
AcDbTextStyleTableRecord
  2
TEXTSTYLE_1
 70
0
 40
0.0
 41
0.8
 50
0.0
 71
0
 42
0.2
  3
gdt
  4

  0
ENDTAB
  0
TABLE
  2
VIEW
  5
6
100
AcDbSymbolTable
 70
0
  0
ENDTAB
  0
TABLE
  2
UCS
  5
7
100
AcDbSymbolTable
 70
0
  0
ENDTAB
  0
TABLE
  2
APPID
  5
9
100
AcDbSymbolTable
 70
1
  0
APPID
  5
20F
100
AcDbSymbolTableRecord
100
AcDbRegAppTableRecord
  2
ACAD
 70
0
  0
ENDTAB
  0
TABLE
  2
BLOCK_RECORD
  5
1
100
AcDbSymbolTable
 70
0
  0
BLOCK_RECORD
  5
210
100
AcDbSymbolTableRecord
100
AcDbBlockTableRecord
  2
*Model_Space
  0
BLOCK_RECORD
  5
211
100
AcDbSymbolTableRecord
100
AcDbBlockTableRecord
  2
*Paper_Space
  0
BLOCK_RECORD
  5
212
100
AcDbSymbolTableRecord
100
AcDbBlockTableRecord
  2
_FILLED
  0
ENDTAB
  0
TABLE
  2
DIMSTYLE
  5
A
100
AcDbSymbolTable
 70
1
100
AcDbDimStyleTable
 71
0
  0
DIMSTYLE
105
213
100
AcDbSymbolTableRecord
100
AcDbDimStyleTableRecord
  2
STANDARD
 70
0
  3

  4

 40
1.0
 41
1.8543994663
 42
1.0
 43
0.38
 44
1.0
 45
0.0
 46
0.0
 47
0.01
 48
0.01
140
2.5961592528
141
0.09
142
0.0
143
25.4
144
1.0
145
0.0
146
1.0
147
0.625
 71
1
 72
0
 73
0
 74
0
 75
0
 76
0
 77
1
 78
8
 79
2
170
0
171
1
172
0
173
0
174
0
175
0
176
0
177
0
178
0
270
2
179
2
271
2
272
2
273
2
274
2
275
0
280
0
281
0
282
0
283
1
284
8
285
0
286
0
287
3
288
0
340
11
278
46
341
212
342
212
343
212
344
212
  0
ENDTAB
  0
ENDSEC
  0
SECTION
  2
BLOCKS
  0
BLOCK
  5
20
100
AcDbEntity
  8
0
100
AcDbBlockBegin
  2
*Model_Space
 70
0
 10
0.0
 20
0.0
 30
0.0
  3
*Model_Space
  1

  0
ENDBLK
  5
21
100
AcDbEntity
  8
0
100
AcDbBlockEnd
  0
BLOCK
  5
1C
100
AcDbEntity
  8
0
100
AcDbBlockBegin
  2
*Paper_Space
 70
0
 10
0.0
 20
0.0
 30
0.0
  3
*Paper_Space
  1

  0
ENDBLK
  5
1D
100
AcDbEntity
  8
0
100
AcDbBlockEnd
  0
BLOCK
  5
214
100
AcDbEntity
  8
0
100
AcDbBlockBegin
  2
_FILLED
 70
64
 10
0.0
 20
0.0
  3
_FILLED
  1

  0
SOLID
  5
215
100
AcDbEntity
  8
0
  6
BYBLOCK
 62
0
100
AcDbTrace
 10
0.0
 20
0.0
 11
-1.0
 21
0.25
 12
-1.0
 22
-0.25
 13
-1.0
 23
-0.25
  0
ENDBLK
  5
216
100
AcDbEntity
  8
0
  6
BYBLOCK
 62
0
100
AcDbBlockEnd
  0
ENDSEC
  0
SECTION
  2
ENTITIES
  0
LINE
  5
217
100
AcDbEntity
  8
0
100
AcDbLine
 62
7
  6
BYLAYER
 10
98.6811360983
 20
22.2579017071
 11
81.4022107803
 21
23.9492617394
  0
LINE
  5
218
100
AcDbEntity
  8
0
100
AcDbLine
 62
7
  6
BYLAYER
 10
52.470728304
 20
185.9169284379
 11
37.2792761212
 21
177.1461917851
  0
LINE
  5
219
100
AcDbEntity
  8
0
100
AcDbLine
 62
7
  6
BYLAYER
 10
101.6981229163
 20
24.4591614397
 11
83.8324707093
 21
26.2079533304
  0
LWPOLYLINE
  5
21A
100
AcDbEntity
  8
0
100
AcDbPolyline
 62
7
  6
BYLAYER
 90
3
 70
0
 10
80.1806635254
 20
24.3516413184
 10
81.3045520707
 20
23.9606097678
 10
81.4017770241
 20
23.9493282708
  0
LWPOLYLINE
  5
21B
100
AcDbEntity
  8
0
100
AcDbPolyline
 62
7
  6
BYLAYER
 90
3
 70
0
 10
18.7268462065
 20
154.3220957837
 10
18.3232883504
 20
153.6425647495
 10
18.0511736192
 20
152.2352629565
  0
LINE
  5
21C
100
AcDbEntity
  8
0
100
AcDbLine
 62
7
  6
BYLAYER
 10
18.7266463753
 20
154.3218600674
 11
36.2236561282
 21
176.2382531151
  0
LINE
  5
21D
100
AcDbEntity
  8
0
100
AcDbLine
 62
7
  6
BYLAYER
 10
37.8157444278
 20
175.7689454447
 11
20.5747364336
 21
154.1732149005
  0
LINE
  5
21E
100
AcDbEntity
  8
0
100
AcDbLine
 62
7
  6
BYLAYER
 10
54.3457199098
 20
185.7312123916
 11
39.1542677271
 21
176.9604757388
  0
LINE
  5
21F
100
AcDbEntity
  8
0
100
AcDbLine
 62
7
  6
BYLAYER
 10
55.5585859069
 20
185.6789702879
 11
77.8115171543
 21
198.5266294436
  0
LINE
  5
220
100
AcDbEntity
  8
0
100
AcDbLine
 62
7
  6
BYLAYER
 10
78.8115126774
 20
198.4275808856
 11
56.325610654
 21
185.4454167925
  0
LINE
  5
221
100
AcDbEntity
  8
0
100
AcDbLine
 62
7
  6
BYLAYER
 10
20.2886324871
 20
58.929539273
 11
80.1808272478
 21
24.3515467643
  0
LINE
  5
222
100
AcDbEntity
  8
0
100
AcDbLine
 62
7
  6
BYLAYER
 10
19.8744078456
 20
59.8451115686
 11
79.7666015656
 21
25.2671196608
  0
LINE
  5
223
100
AcDbEntity
  8
0
100
AcDbLine
 62
7
  6
BYLAYER
 10
80.1808272478
 20
24.3515467643
 11
80.1806571701
 21
24.3516449899
  0
LWPOLYLINE
  5
224
100
AcDbEntity
  8
0
100
AcDbPolyline
 62
7
  6
BYLAYER
 90
4
 70
0
 10
18.0511748069
 20
63.0325888173
 10
18.3382173551
 20
61.4215779925
 10
19.2538900348
 20
59.8088580632
 10
20.289438755
 20
58.9290745346
  0
LINE
  5
225
100
AcDbEntity
  8
0
100
AcDbLine
 62
7
  6
BYLAYER
 10
18.0511735011
 20
152.2348660229
 11
18.0511735011
 21
63.0312693136
  0
LINE
  5
226
100
AcDbEntity
  8
0
100
AcDbLine
 62
7
  6
BYLAYER
 10
18.6369658266
 20
151.4183777152
 11
18.6369658266
 21
62.2147810804
  0
LINE
  5
227
100
AcDbEntity
  8
0
100
AcDbLine
 62
7
  6
BYLAYER
 10
23.7635113339
 20
128.3519064414
 11
23.7635113339
 21
88.5882387272
  0
LINE
  5
228
100
AcDbEntity
  8
0
100
AcDbLine
 62
7
  6
BYLAYER
 10
26.5919266828
 20
90.2212153427
 11
26.5919266828
 21
92.7115477149
  0
LINE
  5
229
100
AcDbEntity
  8
0
100
AcDbLine
 62
7
  6
BYLAYER
 10
29.7738939503
 20
94.5486464073
 11
29.7738939503
 21
124.8818889222
  0
LINE
  5
22A
100
AcDbEntity
  8
0
100
AcDbLine
 62
7
  6
BYLAYER
 10
78.4935170236
 20
171.7897906248
 11
102.9593097912
 21
185.9150383487
  0
LINE
  5
22B
100
AcDbEntity
  8
0
100
AcDbLine
 62
7
  6
BYLAYER
 10
79.4127590775
 20
171.3407261347
 11
86.4484422578
 21
175.4027554658
  0
LINE
  5
22C
100
AcDbEntity
  8
0
100
AcDbLine
 62
7
  6
BYLAYER
 10
93.3780601568
 20
179.3627239283
 11
87.3676775405
 21
175.8926486204
  0
LINE
  5
22D
100
AcDbEntity
  8
0
100
AcDbLine
 62
7
  6
BYLAYER
 10
90.6847600899
 20
177.1545537578
 11
93.3780601568
 21
178.7095219946
  0
LINE
  5
22E
100
AcDbEntity
  8
0
100
AcDbLine
 62
7
  6
BYLAYER
 10
88.2869275431
 20
174.341329504
 11
81.2512443629
 21
170.279300173
  0
LINE
  5
22F
100
AcDbEntity
  8
0
100
AcDbLine
 62
7
  6
BYLAYER
 10
33.5569309798
 20
102.8362018704
 11
33.5569309798
 21
119.1662502129
  0
LINE
  5
230
100
AcDbEntity
  8
0
100
AcDbLine
 62
7
  6
BYLAYER
 10
34.0519054322
 20
106.1430369741
 11
34.0519054322
 21
115.9410659796
  0
LINE
  5
231
100
AcDbEntity
  8
0
100
AcDbLine
 62
7
  6
BYLAYER
 10
34.264034817
 20
103.2444460242
 11
34.264034817
 21
106.0205667873
  0
LINE
  5
232
100
AcDbEntity
  8
0
100
AcDbLine
 62
7
  6
BYLAYER
 10
34.264034817
 20
116.063538206
 11
34.264034817
 21
118.7580128577
  0
LINE
  5
233
100
AcDbEntity
  8
0
100
AcDbLine
 62
7
  6
BYLAYER
 10
66.0776871545
 20
155.7046391149
 11
64.9599389458
 21
155.0593107378
  0
LINE
  5
234
100
AcDbEntity
  8
0
100
AcDbLine
 62
7
  6
BYLAYER
 10
53.3177301594
 20
147.5210034032
 11
62.7866938003
 21
152.9878794774
  0
LINE
  5
235
100
AcDbEntity
  8
0
100
AcDbLine
 62
7
  6
BYLAYER
 10
65.9071046376
 20
152.9084046055
 11
65.2000008004
 21
152.5001604516
  0
LINE
  5
236
100
AcDbEntity
  8
0
100
AcDbLine
 62
7
  6
BYLAYER
 10
67.0208024547
 20
153.1227529551
 11
66.3136986175
 21
152.7145088012
  0
LINE
  5
237
100
AcDbEntity
  8
0
100
AcDbLine
 62
7
  6
BYLAYER
 10
97.1965027201
 20
170.2181021325
 11
103.2068853364
 21
173.6881774404
  0
LINE
  5
238
100
AcDbEntity
  8
0
100
AcDbLine
 62
7
  6
BYLAYER
 10
67.0208024547
 20
152.2654254171
 11
66.3136986175
 21
151.8571812633
  0
LINE
  5
239
100
AcDbEntity
  8
0
100
AcDbLine
 62
7
  6
BYLAYER
 10
75.8774980773
 20
58.500895119
 11
23.7635113339
 21
88.5882387272
  0
LINE
  5
23A
100
AcDbEntity
  8
0
100
AcDbLine
 62
7
  6
BYLAYER
 10
75.8774980773
 20
61.7668211553
 11
26.5919266828
 21
90.2212153427
  0
LINE
  5
23B
100
AcDbEntity
  8
0
100
AcDbLine
 62
7
  6
BYLAYER
 10
39.213808781
 20
115.9003241768
 11
39.213808781
 21
99.5702758342
  0
LINE
  5
23C
100
AcDbEntity
  8
0
100
AcDbLine
 62
7
  6
BYLAYER
 10
43.0322012968
 20
98.855892671
 11
43.0322012968
 21
100.9787989556
  0
LINE
  5
23D
100
AcDbEntity
  8
0
100
AcDbLine
 62
7
  6
BYLAYER
 10
43.986791477
 20
99.4070222788
 11
43.986791477
 21
100.4276785261
  0
LINE
  5
23E
100
AcDbEntity
  8
0
100
AcDbLine
 62
7
  6
BYLAYER
 10
61.1454274759
 20
160.3291958131
 11
53.3177301594
 21
147.5210034032
  0
LINE
  5
23F
100
AcDbEntity
  8
0
100
AcDbLine
 62
7
  6
BYLAYER
 10
72.2244349704
 20
153.9328725579
 11
61.1142050051
 21
143.0198083829
  0
LINE
  5
240
100
AcDbEntity
  8
0
100
AcDbLine
 62
7
  6
BYLAYER
 10
114.5559092836
 20
179.2198899746
 11
90.090116516
 21
165.0946422506
  0
LINE
  5
241
100
AcDbEntity
  8
0
100
AcDbLine
 62
7
  6
BYLAYER
 10
67.7632676661
 20
151.8367726249
 11
67.0561638289
 21
151.428528471
  0
LINE
  5
242
100
AcDbEntity
  8
0
100
AcDbLine
 62
7
  6
BYLAYER
 10
67.0208024547
 20
150.9794341101
 11
66.3136986175
 21
150.5711899563
  0
LINE
  5
243
100
AcDbEntity
  8
0
100
AcDbLine
 62
7
  6
BYLAYER
 10
114.5559092836
 20
177.7910107446
 11
92.0700072602
 21
164.8088466515
  0
LINE
  5
244
100
AcDbEntity
  8
0
100
AcDbLine
 62
7
  6
BYLAYER
 10
75.8774980773
 20
64.2571535276
 11
26.5919266828
 21
92.7115477149
  0
LINE
  5
245
100
AcDbEntity
  8
0
100
AcDbLine
 62
7
  6
BYLAYER
 10
75.8774980773
 20
67.9313203184
 11
29.7738939503
 21
94.5486464073
  0
LINE
  5
246
100
AcDbEntity
  8
0
100
AcDbLine
 62
7
  6
BYLAYER
 10
46.4263279775
 20
99.0192433339
 11
46.4263279775
 21
96.8963370493
  0
LINE
  5
247
100
AcDbEntity
  8
0
100
AcDbLine
 62
7
  6
BYLAYER
 10
49.113344933
 20
92.0790125136
 11
49.113344933
 21
113.7165042861
  0
LINE
  5
248
100
AcDbEntity
  8
0
100
AcDbLine
 62
7
  6
BYLAYER
 10
49.6083217406
 20
113.4307357579
 11
49.6083217406
 21
92.3647956775
  0
LINE
  5
249
100
AcDbEntity
  8
0
100
AcDbLine
 62
7
  6
BYLAYER
 10
75.8774980773
 20
76.6270710608
 11
49.113344933
 21
92.0790125136
  0
LINE
  5
24A
100
AcDbEntity
  8
0
100
AcDbLine
 62
7
  6
BYLAYER
 10
49.6083217406
 20
92.3647956775
 11
75.8774980773
 21
77.1986227528
  0
LINE
  5
24B
100
AcDbEntity
  8
0
100
AcDbLine
 62
7
  6
BYLAYER
 10
39.213808781
 20
99.5702758342
 11
33.5569309798
 21
102.8362018704
  0
LINE
  5
24C
100
AcDbEntity
  8
0
100
AcDbLine
 62
7
  6
BYLAYER
 10
39.213808781
 20
100.3867573433
 11
34.264034817
 21
103.2444460242
  0
LINE
  5
24D
100
AcDbEntity
  8
0
100
AcDbLine
 62
7
  6
BYLAYER
 10
46.4263279775
 20
96.8963370493
 11
43.0322012968
 21
98.855892671
  0
LINE
  5
24E
100
AcDbEntity
  8
0
100
AcDbLine
 62
7
  6
BYLAYER
 10
34.0519054322
 20
115.9410659796
 11
34.4761677346
 21
116.1860124719
  0
LINE
  5
24F
100
AcDbEntity
  8
0
100
AcDbLine
 62
7
  6
BYLAYER
 10
46.4263279775
 20
97.9985870866
 11
43.986791477
 21
99.4070222788
  0
LINE
  5
250
100
AcDbEntity
  8
0
100
AcDbLine
 62
7
  6
BYLAYER
 10
39.213808781
 20
103.1628781063
 11
34.0519054322
 21
106.1430369741
  0
LINE
  5
251
100
AcDbEntity
  8
0
100
AcDbLine
 62
7
  6
BYLAYER
 10
43.0322012968
 20
100.9787989556
 11
46.4263279775
 21
99.0192433339
  0
LINE
  5
252
100
AcDbEntity
  8
0
100
AcDbLine
 62
7
  6
BYLAYER
 10
62.6241778188
 20
184.2819768733
 11
62.6241778188
 21
185.506730499
  0
LINE
  5
253
100
AcDbEntity
  8
0
100
AcDbLine
 62
7
  6
BYLAYER
 10
65.2000008004
 20
152.5001604516
 11
65.2000008004
 21
153.3574879896
  0
LINE
  5
254
100
AcDbEntity
  8
0
100
AcDbLine
 62
7
  6
BYLAYER
 10
99.046461447
 20
142.3824838309
 11
114.2379136298
 21
151.1532204838
  0
LINE
  5
255
100
AcDbEntity
  8
0
100
AcDbLine
 62
7
  6
BYLAYER
 10
116.217804374
 20
150.8674248846
 11
138.7037063974
 21
163.8495889778
  0
LINE
  5
256
100
AcDbEntity
  8
0
100
AcDbLine
 62
7
  6
BYLAYER
 10
34.264034817
 20
103.2444460242
 11
33.5569309798
 21
102.8362018704
  0
LINE
  5
257
100
AcDbEntity
  8
0
100
AcDbLine
 62
7
  6
BYLAYER
 10
140.1179258477
 20
161.4001026345
 11
117.6320238243
 21
148.4179385413
  0
LINE
  5
258
100
AcDbEntity
  8
0
100
AcDbLine
 62
7
  6
BYLAYER
 10
34.0519054322
 20
115.9410659796
 11
39.213808781
 21
112.9609071119
  0
LINE
  5
259
100
AcDbEntity
  8
0
100
AcDbLine
 62
7
  6
BYLAYER
 10
34.4761677346
 20
116.1860124719
 11
39.213808781
 21
113.4507960173
  0
LINE
  5
25A
100
AcDbEntity
  8
0
100
AcDbLine
 62
7
  6
BYLAYER
 10
33.5569309798
 20
119.1662502129
 11
39.213808781
 21
115.9003241768
  0
LINE
  5
25B
100
AcDbEntity
  8
0
100
AcDbLine
 62
7
  6
BYLAYER
 10
65.9071046376
 20
152.9084046055
 11
65.9071046376
 21
152.9492506344
  0
LINE
  5
25C
100
AcDbEntity
  8
0
100
AcDbLine
 62
7
  6
BYLAYER
 10
66.1491778188
 20
184.2819768733
 11
66.1491778188
 21
185.506730499
  0
LINE
  5
25D
100
AcDbEntity
  8
0
100
AcDbLine
 62
7
  6
BYLAYER
 10
66.3136986175
 20
150.5711899563
 11
66.3136986175
 21
151.8571812633
  0
LINE
  5
25E
100
AcDbEntity
  8
0
100
AcDbLine
 62
7
  6
BYLAYER
 10
66.3136986175
 20
152.7145088012
 11
66.3136986175
 21
154.0005001082
  0
LINE
  5
25F
100
AcDbEntity
  8
0
100
AcDbLine
 62
7
  6
BYLAYER
 10
67.0208024547
 20
150.9794341101
 11
67.0208024547
 21
152.2654254171
  0
LINE
  5
260
100
AcDbEntity
  8
0
100
AcDbLine
 62
7
  6
BYLAYER
 10
67.0208024547
 20
153.1227529551
 11
67.0208024547
 21
153.592262753
  0
LINE
  5
261
100
AcDbEntity
  8
0
100
AcDbLine
 62
7
  6
BYLAYER
 10
67.0561638289
 20
153.571847316
 11
67.0561638289
 21
152.285856009
  0
LINE
  5
262
100
AcDbEntity
  8
0
100
AcDbLine
 62
7
  6
BYLAYER
 10
67.0561638289
 20
151.428528471
 11
67.0561638289
 21
150.142537164
  0
LINE
  5
263
100
AcDbEntity
  8
0
100
AcDbLine
 62
7
  6
BYLAYER
 10
68.169861646
 20
151.6428768206
 11
68.169861646
 21
150.7855492826
  0
LINE
  5
264
100
AcDbEntity
  8
0
100
AcDbLine
 62
7
  6
BYLAYER
 10
116.8895750991
 20
146.5604335901
 11
101.6981229163
 21
137.7896969372
  0
LINE
  5
265
100
AcDbEntity
  8
0
100
AcDbLine
 62
7
  6
BYLAYER
 10
29.7738939503
 20
94.5486464073
 11
26.5919266828
 21
92.7115477149
  0
LINE
  5
266
100
AcDbEntity
  8
0
100
AcDbLine
 62
7
  6
BYLAYER
 10
26.5919266828
 20
90.2212153427
 11
23.7635113339
 21
88.5882387272
  0
LINE
  5
267
100
AcDbEntity
  8
0
100
AcDbLine
 62
7
  6
BYLAYER
 10
43.986791477
 20
99.4070222788
 11
43.0322012968
 21
98.855892671
  0
LINE
  5
268
100
AcDbEntity
  8
0
100
AcDbLine
 62
7
  6
BYLAYER
 10
23.7635113339
 20
128.3519064414
 11
75.8774980773
 21
98.2645628333
  0
LINE
  5
269
100
AcDbEntity
  8
0
100
AcDbLine
 62
7
  6
BYLAYER
 10
62.7866938003
 20
152.9878794774
 11
61.1454274759
 21
160.3291958131
  0
LINE
  5
26A
100
AcDbEntity
  8
0
100
AcDbLine
 62
7
  6
BYLAYER
 10
75.8774980773
 20
58.500895119
 11
75.8774980773
 21
98.2645628333
  0
LINE
  5
26B
100
AcDbEntity
  8
0
100
AcDbLine
 62
7
  6
BYLAYER
 10
80.46693014
 20
119.5952230005
 11
97.7079381478
 21
141.1909535369
  0
LINE
  5
26C
100
AcDbEntity
  8
0
100
AcDbLine
 62
7
  6
BYLAYER
 10
83.8324707093
 20
115.4115499652
 11
101.6981229163
 21
137.7896969372
  0
LINE
  5
26D
100
AcDbEntity
  8
0
100
AcDbLine
 62
7
  6
BYLAYER
 10
49.6083176191
 20
92.3647834214
 11
49.113344933
 21
92.0790125136
  0
LINE
  5
26E
100
AcDbEntity
  8
0
100
AcDbLine
 62
7
  6
BYLAYER
 10
81.0040435846
 20
26.2079465317
 11
81.0040435846
 21
115.4115431665
  0
LINE
  5
26F
100
AcDbEntity
  8
0
100
AcDbLine
 62
7
  6
BYLAYER
 10
83.8324707093
 20
115.4115499652
 11
83.8324707093
 21
26.2079533304
  0
LINE
  5
270
100
AcDbEntity
  8
0
100
AcDbLine
 62
7
  6
BYLAYER
 10
86.4484422578
 20
173.2798858656
 11
86.4484422578
 21
175.4027554658
  0
LINE
  5
271
100
AcDbEntity
  8
0
100
AcDbLine
 62
7
  6
BYLAYER
 10
79.7666015656
 20
117.7812126782
 11
19.8744078456
 21
152.3592045861
  0
LINE
  5
272
100
AcDbEntity
  8
0
100
AcDbLine
 62
7
  6
BYLAYER
 10
62.6242979863
 20
184.2819769028
 11
63.5676441678
 21
181.2643213829
  0
LINE
  5
273
100
AcDbEntity
  8
0
100
AcDbLine
 62
7
  6
BYLAYER
 10
88.9991778188
 20
184.2819768733
 11
88.9991778188
 21
185.506730499
  0
LINE
  5
274
100
AcDbEntity
  8
0
100
AcDbLine
 62
7
  6
BYLAYER
 10
90.6847600899
 20
173.9775734424
 11
90.6847600899
 21
177.1545537578
  0
LINE
  5
275
100
AcDbEntity
  8
0
100
AcDbLine
 62
7
  6
BYLAYER
 10
92.5241778188
 20
184.2819768733
 11
92.5241778188
 21
185.506730499
  0
LINE
  5
276
100
AcDbEntity
  8
0
100
AcDbLine
 62
7
  6
BYLAYER
 10
93.3780601568
 20
178.7095219946
 11
93.3780601568
 21
179.3627239283
  0
LINE
  5
277
100
AcDbEntity
  8
0
100
AcDbLine
 62
7
  6
BYLAYER
 10
20.5747364336
 20
154.1732149005
 11
80.46693014
 21
119.5952230005
  0
LINE
  5
278
100
AcDbEntity
  8
0
100
AcDbLine
 62
7
  6
BYLAYER
 10
99.2524615814
 20
163.1351057891
 11
99.2524615814
 21
164.3598594148
  0
LINE
  5
279
100
AcDbEntity
  8
0
100
AcDbLine
 62
7
  6
BYLAYER
 10
117.6320238243
 20
148.4179385413
 11
116.8895750991
 21
146.5604335901
  0
LINE
  5
27A
100
AcDbEntity
  8
0
100
AcDbLine
 62
7
  6
BYLAYER
 10
102.7774615814
 20
163.1351057891
 11
102.7774615814
 21
164.3598594148
  0
LINE
  5
27B
100
AcDbEntity
  8
0
100
AcDbLine
 62
7
  6
BYLAYER
 10
67.0561638289
 20
150.142537164
 11
66.3136986175
 21
150.5711899563
  0
LINE
  5
27C
100
AcDbEntity
  8
0
100
AcDbLine
 62
7
  6
BYLAYER
 10
67.0561638289
 20
150.9590186731
 11
67.0208024547
 21
150.9794341101
  0
LINE
  5
27D
100
AcDbEntity
  8
0
100
AcDbLine
 62
7
  6
BYLAYER
 10
68.169861646
 20
150.7855492826
 11
67.0561638289
 21
151.428528471
  0
LINE
  5
27E
100
AcDbEntity
  8
0
100
AcDbLine
 62
7
  6
BYLAYER
 10
66.3136986175
 20
151.8571812633
 11
65.2000008004
 21
152.5001604516
  0
LINE
  5
27F
100
AcDbEntity
  8
0
100
AcDbLine
 62
7
  6
BYLAYER
 10
114.5559092836
 20
177.7910107446
 11
114.5559092836
 21
179.2198899746
  0
LINE
  5
280
100
AcDbEntity
  8
0
100
AcDbLine
 62
7
  6
BYLAYER
 10
115.5460778084
 20
145.7847696977
 11
115.5460778084
 21
32.4542342001
  0
LINE
  5
281
100
AcDbEntity
  8
0
100
AcDbLine
 62
7
  6
BYLAYER
 10
68.169861646
 20
151.6020307917
 11
67.7632676661
 21
151.8367726249
  0
LINE
  5
282
100
AcDbEntity
  8
0
100
AcDbLine
 62
7
  6
BYLAYER
 10
67.0208024547
 20
152.2654254171
 11
65.9071046376
 21
152.9084046055
  0
LINE
  5
283
100
AcDbEntity
  8
0
100
AcDbLine
 62
7
  6
BYLAYER
 10
65.2000008004
 20
153.3574879896
 11
66.3136986175
 21
152.7145088012
  0
LINE
  5
284
100
AcDbEntity
  8
0
100
AcDbLine
 62
7
  6
BYLAYER
 10
67.0561638289
 20
152.285856009
 11
68.169861646
 21
151.6428768206
  0
LINE
  5
285
100
AcDbEntity
  8
0
100
AcDbLine
 62
7
  6
BYLAYER
 10
66.3136986175
 20
154.0005001082
 11
67.0561638289
 21
153.571847316
  0
LINE
  5
286
100
AcDbEntity
  8
0
100
AcDbLine
 62
7
  6
BYLAYER
 10
72.2244349704
 20
153.9328725579
 11
61.1454274759
 21
160.3291958131
  0
LINE
  5
287
100
AcDbEntity
  8
0
100
AcDbLine
 62
7
  6
BYLAYER
 10
97.7079381478
 20
141.1909535369
 11
37.8157444278
 21
175.7689454447
  0
LINE
  5
288
100
AcDbEntity
  8
0
100
AcDbLine
 62
7
  6
BYLAYER
 10
99.252581749
 20
163.1351058187
 11
100.1959279304
 21
160.1174502987
  0
LINE
  5
289
100
AcDbEntity
  8
0
100
AcDbLine
 62
7
  6
BYLAYER
 10
116.8895750991
 20
146.5604335901
 11
116.8895750991
 21
33.2298980925
  0
LINE
  5
28A
100
AcDbEntity
  8
0
100
AcDbLine
 62
7
  6
BYLAYER
 10
117.6320238243
 20
35.0874030438
 11
117.6320238243
 21
148.4179385413
  0
LINE
  5
28B
100
AcDbEntity
  8
0
100
AcDbLine
 62
7
  6
BYLAYER
 10
39.1542677271
 20
176.9604757388
 11
99.046461447
 21
142.3824838309
  0
LINE
  5
28C
100
AcDbEntity
  8
0
100
AcDbLine
 62
7
  6
BYLAYER
 10
125.6274615814
 20
163.1351057891
 11
125.6274615814
 21
164.3598594148
  0
LINE
  5
28D
100
AcDbEntity
  8
0
100
AcDbLine
 62
7
  6
BYLAYER
 10
129.1524615814
 20
163.1351057891
 11
129.1524615814
 21
164.3598594148
  0
LINE
  5
28E
100
AcDbEntity
  8
0
100
AcDbLine
 62
7
  6
BYLAYER
 10
116.748521644
 20
32.326000871
 11
116.8895750991
 21
33.2298980925
  0
LINE
  5
28F
100
AcDbEntity
  8
0
100
AcDbLine
 62
7
  6
BYLAYER
 10
117.6320238243
 20
35.0874030438
 11
117.5567953149
 21
34.6053245256
  0
LINE
  5
290
100
AcDbEntity
  8
0
100
AcDbLine
 62
7
  6
BYLAYER
 10
114.2379136298
 20
151.1532204838
 11
116.217804374
 21
150.8674248846
  0
LINE
  5
291
100
AcDbEntity
  8
0
100
AcDbLine
 62
7
  6
BYLAYER
 10
92.0700072602
 20
164.8088466515
 11
90.090116516
 21
165.0946422506
  0
LINE
  5
292
100
AcDbEntity
  8
0
100
AcDbLine
 62
7
  6
BYLAYER
 10
53.0022226191
 20
184.9555484993
 11
112.8944163391
 21
150.3775565914
  0
LINE
  5
293
100
AcDbEntity
  8
0
100
AcDbLine
 62
7
  6
BYLAYER
 10
54.3457199098
 20
185.7312123916
 11
78.4935170236
 21
171.7897906248
  0
LINE
  5
294
100
AcDbEntity
  8
0
100
AcDbLine
 62
7
  6
BYLAYER
 10
90.090116516
 20
165.0946422506
 11
114.2379136298
 21
151.1532204838
  0
LINE
  5
295
100
AcDbEntity
  8
0
100
AcDbLine
 62
7
  6
BYLAYER
 10
81.2512443629
 20
170.279300173
 11
79.4127590775
 21
171.3407261347
  0
LINE
  5
296
100
AcDbEntity
  8
0
100
AcDbLine
 62
7
  6
BYLAYER
 10
56.325610654
 20
185.4454167925
 11
63.5676441678
 21
181.2643213829
  0
LINE
  5
297
100
AcDbEntity
  8
0
100
AcDbLine
 62
7
  6
BYLAYER
 10
72.3474870975
 20
176.1953913784
 11
79.2359443651
 21
172.2184286916
  0
LINE
  5
298
100
AcDbEntity
  8
0
100
AcDbLine
 62
7
  6
BYLAYER
 10
92.0700072602
 20
164.8088466515
 11
100.1959279304
 21
160.1174502987
  0
LINE
  5
299
100
AcDbEntity
  8
0
100
AcDbLine
 62
7
  6
BYLAYER
 10
108.9757708602
 20
155.0485202943
 11
116.217804374
 21
150.8674248846
  0
LINE
  5
29A
100
AcDbEntity
  8
0
100
AcDbLine
 62
7
  6
BYLAYER
 10
140.1179258477
 20
48.0695671369
 11
140.1179258477
 21
161.4001026345
  0
LINE
  5
29B
100
AcDbEntity
  8
0
100
AcDbLine
 62
7
  6
BYLAYER
 10
117.5567953149
 20
34.6053245256
 11
116.748521644
 21
32.326000871
  0
LINE
  5
29C
100
AcDbEntity
  8
0
100
AcDbLine
 62
7
  6
BYLAYER
 10
116.8895750991
 20
33.2298980925
 11
117.6320238243
 21
35.0874030438
  0
LINE
  5
29D
100
AcDbEntity
  8
0
100
AcDbLine
 62
7
  6
BYLAYER
 10
91.2706073985
 20
173.6393419929
 11
97.9194599407
 21
171.4519762072
  0
LINE
  5
29E
100
AcDbEntity
  8
0
100
AcDbLine
 62
7
  6
BYLAYER
 10
54.3457199098
 20
185.7312123916
 11
53.4924427527
 21
186.0609830832
  0
LINE
  5
29F
100
AcDbEntity
  8
0
100
AcDbLine
 62
7
  6
BYLAYER
 10
55.8705295035
 20
185.6212944947
 11
56.325610654
 21
185.4454167925
  0
LINE
  5
2A0
100
AcDbEntity
  8
0
100
AcDbLine
 62
7
  6
BYLAYER
 10
86.4484422578
 20
175.4027554658
 11
88.2869275431
 21
174.341329504
  0
LINE
  5
2A1
100
AcDbEntity
  8
0
100
AcDbLine
 62
7
  6
BYLAYER
 10
87.3676775405
 20
175.8926486204
 11
97.1965027201
 21
170.2181021325
  0
LINE
  5
2A2
100
AcDbEntity
  8
0
100
AcDbLine
 62
7
  6
BYLAYER
 10
98.6265598905
 20
171.0437410964
 11
97.9194599407
 21
171.4519762072
  0
LINE
  5
2A3
100
AcDbEntity
  8
0
100
AcDbLine
 62
7
  6
BYLAYER
 10
56.325610654
 20
185.4454167925
 11
54.3457199098
 21
185.7312123916
  0
LINE
  5
2A4
100
AcDbEntity
  8
0
100
AcDbLine
 62
7
  6
BYLAYER
 10
55.8705295035
 20
185.6212944947
 11
53.4924427527
 21
186.0609830832
  0
LINE
  5
2A5
100
AcDbEntity
  8
0
100
AcDbLine
 62
7
  6
BYLAYER
 10
102.4861750264
 20
173.2720776328
 11
90.6847600899
 21
177.1545537578
  0
LINE
  5
2A6
100
AcDbEntity
  8
0
100
AcDbLine
 62
7
  6
BYLAYER
 10
93.3780601568
 20
178.7095219946
 11
102.6411877809
 21
173.3615737541
  0
LINE
  5
2A7
100
AcDbEntity
  8
0
100
AcDbLine
 62
7
  6
BYLAYER
 10
93.3780601568
 20
179.3627239283
 11
103.2068853364
 21
173.6881774404
  0
LINE
  5
2A8
100
AcDbEntity
  8
0
100
AcDbLine
 62
7
  6
BYLAYER
 10
78.8115126774
 20
198.4275808856
 11
101.7218463885
 21
185.2005927847
  0
LINE
  5
2A9
100
AcDbEntity
  8
0
100
AcDbLine
 62
7
  6
BYLAYER
 10
114.5559092836
 20
177.7910107446
 11
138.7037063974
 21
163.8495889778
  0
LINE
  5
2AA
100
AcDbEntity
  8
0
100
AcDbLine
 62
7
  6
BYLAYER
 10
102.9593097912
 20
185.9150383487
 11
114.5559092836
 21
179.2198899746
  0
LINE
  5
2AB
100
AcDbEntity
  8
0
100
AcDbLine
 62
7
  6
BYLAYER
 10
117.6320238243
 20
35.0874030438
 11
140.1179258477
 21
48.0695671369
  0
LINE
  5
2AC
100
AcDbEntity
  8
0
100
AcDbLine
 62
7
  6
BYLAYER
 10
117.4507706731
 20
34.3063360978
 11
139.7037019205
 21
47.1539952536
  0
LINE
  5
2AD
100
AcDbEntity
  8
0
100
AcDbLine
 62
7
  6
BYLAYER
 10
101.6981229163
 20
24.4591614397
 11
116.8895750991
 21
33.2298980925
  0
LINE
  5
2AE
100
AcDbEntity
  8
0
100
AcDbLine
 62
7
  6
BYLAYER
 10
100.9214530529
 20
22.7424641586
 11
116.1129052356
 21
31.5132008114
  0
ARC
  5
2AF
100
AcDbEntity
  8
0
100
AcDbCircle
 62
7
  6
BYLAYER
 10
109.2781239236
 20
145.2352380618
 40
6.3370987698
100
AcDbArc
 50
29.9420421839
 51
38.7316734646
  0
ARC
  5
2B0
100
AcDbEntity
  8
0
100
AcDbCircle
 62
7
  6
BYLAYER
 10
85.8046256206
 20
184.2535051667
 40
4.4216290362
100
AcDbArc
 50
8.4182619427
 51
14.9774767247
  0
ARC
  5
2B1
100
AcDbEntity
  8
0
100
AcDbCircle
 62
7
  6
BYLAYER
 10
122.4329093832
 20
163.1066340825
 40
4.4216290362
100
AcDbArc
 50
8.4182619427
 51
14.9774767247
  0
ARC
  5
2B2
100
AcDbEntity
  8
0
100
AcDbCircle
 62
7
  6
BYLAYER
 10
69.3105525306
 20
184.2604132918
 40
4.3878149007
100
AcDbArc
 50
164.9680512099
 51
171.5606403622
  0
ARC
  5
2B3
100
AcDbEntity
  8
0
100
AcDbCircle
 62
7
  6
BYLAYER
 10
105.9388362932
 20
163.1135422076
 40
4.3878149007
100
AcDbArc
 50
164.9680512099
 51
171.5606403622
  0
ARC
  5
2B4
100
AcDbEntity
  8
0
100
AcDbCircle
 62
7
  6
BYLAYER
 10
39.1542677271
 20
173.8985916746
 40
3.75
100
AcDbArc
 50
119.9998519061
 51
141.3977917164
  0
ARC
  5
2B5
100
AcDbEntity
  8
0
100
AcDbCircle
 62
7
  6
BYLAYER
 10
99.046461447
 20
25.9900642691
 40
3.75
100
AcDbArc
 50
264.4136659809
 51
299.9998519061
  0
ARC
  5
2B6
100
AcDbEntity
  8
0
100
AcDbCircle
 62
7
  6
BYLAYER
 10
68.5748750335
 20
155.1585980432
 40
2.7646571456
100
AcDbArc
 50
166.2696253803
 51
168.3061295454
  0
ARC
  5
2B7
100
AcDbEntity
  8
0
100
AcDbCircle
 62
7
  6
BYLAYER
 10
33.6294677809
 20
97.2441120599
 40
1.3099871457
100
AcDbArc
 50
175.4530524818
 51
180.0434611724
  0
SPLINE
  5
2B8
100
AcDbEntity
  8
0
100
AcDbSpline
 62
7
  6
BYLAYER
 70
0
 71
3
 72
23
 73
19
 74
0
 42
0.0000001
 43
0.0000001
 44
0.0000000001
 40
0.0
 40
0.0
 40
0.0
 40
0.0
 40
0.0623862539
 40
0.1287462796
 40
0.1983448052
 40
0.2703334413
 40
0.3437209561
 40
0.4174651502
 40
0.4905020179
 40
0.5618003711
 40
0.6304092802
 40
0.6955078232
 40
0.7564650904
 40
0.8129111825
 40
0.8648201727
 40
0.9126031728
 40
0.957185306
 40
1.0
 40
1.0
 40
1.0
 40
1.0
 10
66.6849312232
 20
149.254585297
 30
0.0
 10
66.560991813
 20
149.32614013
 30
0.0
 10
66.3147519122
 20
149.490711413
 30
0.0
 10
65.9660285365
 20
149.7841480528
 30
0.0
 10
65.6327020979
 20
150.1264129307
 30
0.0
 10
65.3218694908
 20
150.5100898211
 30
0.0
 10
65.0401272248
 20
150.9271036115
 30
0.0
 10
64.7934857046
 20
151.3685354665
 30
0.0
 10
64.58720056
 20
151.8249724073
 30
0.0
 10
64.42567003
 20
152.2866844398
 30
0.0
 10
64.3123321977
 20
152.7438673122
 30
0.0
 10
64.2496215208
 20
153.1868761105
 30
0.0
 10
64.2389483152
 20
153.606451772
 30
0.0
 10
64.2807520209
 20
153.9939368585
 30
0.0
 10
64.37463208
 20
154.3413713759
 30
0.0
 10
64.5196163309
 20
154.641430525
 30
0.0
 10
64.7136424958
 20
154.8867963032
 30
0.0
 10
64.8748912125
 20
155.0101867358
 30
0.0
 10
64.9599438724
 20
155.0593023159
 30
0.0
  0
SPLINE
  5
2B9
100
AcDbEntity
  8
0
100
AcDbSpline
 62
7
  6
BYLAYER
 70
0
 71
3
 72
9
 73
5
 74
0
 42
0.0000001
 43
0.0000001
 44
0.0000000001
 40
0.0
 40
0.0
 40
0.0
 40
0.0
 40
0.2379488725
 40
1.0
 40
1.0
 40
1.0
 40
1.0
 10
67.262245559
 20
149.0012939216
 30
0.0
 10
67.214234875
 20
149.015508131
 30
0.0
 10
67.0145237634
 20
149.0821536138
 30
0.0
 10
66.8238038773
 20
149.1744089466
 30
0.0
 10
66.6849312232
 20
149.254585297
 30
0.0
  0
SPLINE
  5
2BA
100
AcDbEntity
  8
0
100
AcDbSpline
 62
7
  6
BYLAYER
 70
0
 71
3
 72
15
 73
11
 74
0
 42
0.0000001
 43
0.0000001
 44
0.0000000001
 40
0.0
 40
0.0
 40
0.0
 40
0.0
 40
0.1132968242
 40
0.2352352685
 40
0.3635699318
 40
0.4955402632
 40
0.6281275524
 40
0.7582593567
 40
0.8830440078
 40
1.0
 40
1.0
 40
1.0
 40
1.0
 10
66.6849312232
 20
154.8884519752
 30
0.0
 10
66.8437265166
 20
154.7967735438
 30
0.0
 10
67.1577634741
 20
154.5786122177
 30
0.0
 10
67.5923839576
 20
154.1798594308
 30
0.0
 10
67.9960650269
 20
153.7092705784
 30
0.0
 10
68.3549808087
 20
153.182898872
 30
0.0
 10
68.6569764985
 20
152.618645706
 30
0.0
 10
68.891752439
 20
152.0356799369
 30
0.0
 10
69.0513025025
 20
151.4539841141
 30
0.0
 10
69.1059814824
 20
151.0650628404
 30
0.0
 10
69.1177206947
 20
150.8761452383
 30
0.0
  0
SPLINE
  5
2BB
100
AcDbEntity
  8
0
100
AcDbSpline
 62
7
  6
BYLAYER
 70
0
 71
3
 72
14
 73
10
 74
0
 42
0.0000001
 43
0.0000001
 44
0.0000000001
 40
0.0
 40
0.0
 40
0.0
 40
0.0
 40
0.1080456687
 40
0.2181279682
 40
0.332105469
 40
0.4515005775
 40
0.5774464025
 40
0.710720537
 40
1.0
 40
1.0
 40
1.0
 40
1.0
 10
64.9599438724
 20
155.0593023159
 30
0.0
 10
65.016502983
 20
155.0919636522
 30
0.0
 10
65.1365982886
 20
155.1481928049
 30
0.0
 10
65.3309111257
 20
155.2019406817
 30
0.0
 10
65.5380617988
 20
155.2250240319
 30
0.0
 10
65.7558201869
 20
155.2174703835
 30
0.0
 10
65.9821365329
 20
155.1795063389
 30
0.0
 10
66.300988554
 20
155.0865452102
 30
0.0
 10
66.5334920348
 20
154.9758834534
 30
0.0
 10
66.6849312232
 20
154.8884519752
 30
0.0
  0
SPLINE
  5
2BC
100
AcDbEntity
  8
0
100
AcDbSpline
 62
7
  6
BYLAYER
 70
0
 71
3
 72
11
 73
7
 74
0
 42
0.0000001
 43
0.0000001
 44
0.0000000001
 40
0.0
 40
0.0
 40
0.0
 40
0.0
 40
0.2372539654
 40
0.5000012591
 40
0.7627478695
 40
1.0
 40
1.0
 40
1.0
 40
1.0
 10
140.1179258477
 20
161.4001026345
 30
0.0
 10
140.1179258477
 20
161.6319544007
 30
0.0
 10
140.0309973164
 20
162.1209004498
 30
0.0
 10
139.7277858059
 20
162.8078530467
 30
0.0
 10
139.2844713296
 20
163.4139146455
 30
0.0
 10
138.9044954996
 20
163.7336659581
 30
0.0
 10
138.7037063974
 20
163.8495889778
 30
0.0
  0
SPLINE
  5
2BD
100
AcDbEntity
  8
0
100
AcDbSpline
 62
7
  6
BYLAYER
 70
0
 71
3
 72
11
 73
7
 74
0
 42
0.0000001
 43
0.0000001
 44
0.0000000001
 40
0.0
 40
0.0
 40
0.0
 40
0.0
 40
0.2895391946
 40
0.5491157945
 40
0.7822541179
 40
1.0
 40
1.0
 40
1.0
 40
1.0
 10
78.8115126774
 20
198.4275808856
 30
0.0
 10
78.7238061618
 20
198.4782171205
 30
0.0
 10
78.5491840454
 20
198.5611772384
 30
0.0
 10
78.2808956744
 20
198.626115373
 30
0.0
 10
78.0290328519
 20
198.6197884633
 30
0.0
 10
77.8775318778
 20
198.5646136484
 30
0.0
 10
77.8115731077
 20
198.5265325306
 30
0.0
  0
SPLINE
  5
2BE
100
AcDbEntity
  8
0
100
AcDbSpline
 62
7
  6
BYLAYER
 70
0
 71
3
 72
9
 73
5
 74
0
 42
0.0000001
 43
0.0000001
 44
0.0000000001
 40
0.0
 40
0.0
 40
0.0
 40
0.0
 40
0.4777464228
 40
1.0
 40
1.0
 40
1.0
 40
1.0
 10
116.1129052356
 20
31.5132008114
 30
0.0
 10
116.257510519
 20
31.5966881932
 30
0.0
 10
116.525632419
 20
31.8365329676
 30
0.0
 10
116.6875110198
 20
32.1539642212
 30
0.0
 10
116.7485278238
 20
32.3259948774
 30
0.0
  0
SPLINE
  5
2BF
100
AcDbEntity
  8
0
100
AcDbSpline
 62
7
  6
BYLAYER
 70
0
 71
3
 72
19
 73
15
 74
0
 42
0.0000001
 43
0.0000001
 44
0.0000000001
 40
0.0
 40
0.0
 40
0.0
 40
0.0
 40
0.0428397582
 40
0.0874487148
 40
0.1352614823
 40
0.1872036682
 40
0.2436845479
 40
0.3046791992
 40
0.3698182037
 40
0.4384685961
 40
0.5827509319
 40
0.7298405774
 40
0.8713667133
 40
1.0
 40
1.0
 40
1.0
 40
1.0
 10
104.1274962753
 20
164.3598594123
 30
0.0
 10
104.1274672056
 20
164.0730556562
 30
0.0
 10
104.2042531981
 20
163.4851212501
 30
0.0
 10
104.5413507255
 20
162.6361520516
 30
0.0
 10
105.088528004
 20
161.8313517587
 30
0.0
 10
105.8301630125
 20
161.0866761647
 30
0.0
 10
106.7490814429
 20
160.4151761296
 30
0.0
 10
107.8257608021
 20
159.8295458927
 30
0.0
 10
109.0377556581
 20
159.3412910233
 30
0.0
 10
110.8291599134
 20
158.8252183267
 30
0.0
 10
113.2296594018
 20
158.4884376413
 30
0.0
 10
116.14003545
 20
158.5688866674
 30
0.0
 10
118.8922101124
 20
159.1195593776
 30
0.0
 10
120.5807919017
 20
159.8162484599
 30
0.0
 10
121.3265920623
 20
160.2468338131
 30
0.0
  0
SPLINE
  5
2C0
100
AcDbEntity
  8
0
100
AcDbSpline
 62
7
  6
BYLAYER
 70
0
 71
3
 72
12
 73
8
 74
0
 42
0.0000001
 43
0.0000001
 44
0.0000000001
 40
0.0
 40
0.0
 40
0.0
 40
0.0
 40
0.1081590094
 40
0.2183607152
 40
0.4513549154
 40
0.7104291001
 40
1.0
 40
1.0
 40
1.0
 40
1.0
 10
102.7775071982
 20
164.3598594133
 30
0.0
 10
102.7775287464
 20
164.5761411281
 30
0.0
 10
102.8151007722
 20
165.0136960477
 30
0.0
 10
103.042416116
 20
165.8908823603
 30
0.0
 10
103.6258376919
 20
166.9665468798
 30
0.0
 10
104.7126348567
 20
168.1079654845
 30
0.0
 10
105.6222648834
 20
168.7344890277
 30
0.0
 10
106.1237329716
 20
169.0240100352
 30
0.0
  0
SPLINE
  5
2C1
100
AcDbEntity
  8
0
100
AcDbSpline
 62
7
  6
BYLAYER
 70
0
 71
3
 72
20
 73
16
 74
0
 42
0.0000001
 43
0.0000001
 44
0.0000000001
 40
0.0
 40
0.0
 40
0.0
 40
0.0
 40
0.0428321445
 40
0.087432962
 40
0.1352356195
 40
0.1871664276
 40
0.2436372485
 40
0.3046203093
 40
0.3697449931
 40
0.4383817253
 40
0.5826355756
 40
0.7296955089
 40
0.8711944136
 40
0.937589693
 40
1.0
 40
1.0
 40
1.0
 40
1.0
 10
101.5524748915
 20
164.3598594218
 30
0.0
 10
101.5524827009
 20
163.9997451208
 30
0.0
 10
101.6487916016
 20
163.2615183435
 30
0.0
 10
102.0721995977
 20
162.1956007864
 30
0.0
 10
102.7591809619
 20
161.1851057292
 30
0.0
 10
103.6903026864
 20
160.2500320559
 30
0.0
 10
104.8441381334
 20
159.4069615391
 30
0.0
 10
106.1960271171
 20
158.6717090356
 30
0.0
 10
107.7177620325
 20
158.0585975581
 30
0.0
 10
109.9669668597
 20
157.4105947374
 30
0.0
 10
112.9813845037
 20
156.9879143218
 30
0.0
 10
116.6340434065
 20
157.0885126984
 30
0.0
 10
119.5789544402
 20
157.6778133312
 30
0.0
 10
121.7188699907
 20
158.453014198
 30
0.0
 10
122.6929788603
 20
158.9332554972
 30
0.0
 10
123.1473996045
 20
159.1956138702
 30
0.0
  0
SPLINE
  5
2C2
100
AcDbEntity
  8
0
100
AcDbSpline
 62
7
  6
BYLAYER
 70
0
 71
3
 72
21
 73
17
 74
0
 42
0.0000001
 43
0.0000001
 44
0.0000000001
 40
0.0
 40
0.0
 40
0.0
 40
0.0
 40
0.0624003568
 40
0.1287842294
 40
0.1984007746
 40
0.2704101996
 40
0.4174487529
 40
0.5616835311
 40
0.6303110758
 40
0.695426729
 40
0.7564009521
 40
0.812863191
 40
0.864785745
 40
0.912580601
 40
0.9571742933
 40
1.0
 40
1.0
 40
1.0
 40
1.0
 10
67.0028874278
 20
191.6099297791
 30
0.0
 10
67.5399250624
 20
191.9199867512
 30
0.0
 10
68.6910826494
 20
192.4874623487
 30
0.0
 10
70.5478152732
 20
193.1603809145
 30
0.0
 10
72.5545920311
 20
193.6697500606
 30
0.0
 10
75.3910904493
 20
194.1193918704
 30
0.0
 10
79.0179697859
 20
194.2189762366
 30
0.0
 10
82.5796429346
 20
193.7195140749
 30
0.0
 10
85.2379425252
 20
192.953671923
 30
0.0
 10
87.0363557207
 20
192.2290756505
 30
0.0
 10
88.6340533131
 20
191.3601317009
 30
0.0
 10
89.9976699005
 20
190.3637716058
 30
0.0
 10
91.0980732629
 20
189.2586889085
 30
0.0
 10
91.9099511184
 20
188.0644784639
 30
0.0
 10
92.4103250358
 20
186.8047643766
 30
0.0
 10
92.5241561498
 20
185.9323199993
 30
0.0
 10
92.5241603799
 20
185.5067304973
 30
0.0
  0
SPLINE
  5
2C3
100
AcDbEntity
  8
0
100
AcDbSpline
 62
7
  6
BYLAYER
 70
0
 71
3
 72
12
 73
8
 74
0
 42
0.0000001
 43
0.0000001
 44
0.0000000001
 40
0.0
 40
0.0
 40
0.0
 40
0.0
 40
0.2895820975
 40
0.5486374157
 40
0.7816405376
 40
0.89184001
 40
1.0
 40
1.0
 40
1.0
 40
1.0
 10
86.5191158419
 20
180.3424849543
 30
0.0
 10
87.0743746437
 20
180.6630618594
 30
0.0
 10
88.0815604361
 20
181.3567244409
 30
0.0
 10
89.2847916009
 20
182.6205883101
 30
0.0
 10
89.9309229708
 20
183.8115049632
 30
0.0
 10
90.182447014
 20
184.7827980711
 30
0.0
 10
90.2241697019
 20
185.2672560882
 30
0.0
 10
90.2241645087
 20
185.506730492
 30
0.0
  0
SPLINE
  5
2C4
100
AcDbEntity
  8
0
100
AcDbSpline
 62
7
  6
BYLAYER
 70
0
 71
3
 72
20
 73
16
 74
0
 42
0.0000001
 43
0.0000001
 44
0.0000000001
 40
0.0
 40
0.0
 40
0.0
 40
0.0
 40
0.0624053709
 40
0.1288058178
 40
0.2703020727
 40
0.4173625116
 40
0.5616185332
 40
0.6302561164
 40
0.695382627
 40
0.7563651903
 40
0.8128344476
 40
0.8647656617
 40
0.9125684545
 40
0.9571684557
 40
1.0
 40
1.0
 40
1.0
 40
1.0
 10
69.495449209
 20
190.1708811194
 30
0.0
 10
69.9058318736
 20
190.407814247
 30
0.0
 10
70.7856252436
 20
190.8415173215
 30
0.0
 10
72.718268424
 20
191.5417195072
 30
0.0
 10
75.3780383857
 20
192.0738772355
 30
0.0
 10
78.6769725677
 20
192.1648363237
 30
0.0
 10
81.3994979333
 20
191.7830022494
 30
0.0
 10
83.4309275571
 20
191.1977585335
 30
0.0
 10
84.8053418263
 20
190.6440765195
 30
0.0
 10
86.0262906924
 20
189.9799729486
 30
0.0
 10
87.0683329527
 20
189.2184955846
 30
0.0
 10
87.9093304445
 20
188.3740399114
 30
0.0
 10
88.5298294209
 20
187.4614122731
 30
0.0
 10
88.9120942157
 20
186.4986843717
 30
0.0
 10
88.9991646056
 20
185.8319671582
 30
0.0
 10
88.999132202
 20
185.5067305005
 30
0.0
  0
SPLINE
  5
2C5
100
AcDbEntity
  8
0
100
AcDbSpline
 62
7
  6
BYLAYER
 70
0
 71
3
 72
12
 73
8
 74
0
 42
0.0000001
 43
0.0000001
 44
0.0000000001
 40
0.0
 40
0.0
 40
0.0
 40
0.0
 40
0.2895719162
 40
0.5486431553
 40
0.7816383062
 40
0.8918401776
 40
1.0
 40
1.0
 40
1.0
 40
1.0
 10
84.6983082996
 20
181.3937048972
 30
0.0
 10
85.1405237351
 20
181.6490165739
 30
0.0
 10
85.9426703484
 20
182.2015051202
 30
0.0
 10
86.9010427686
 20
183.208053162
 30
0.0
 10
87.4155402421
 20
184.1566068618
 30
0.0
 10
87.6159827405
 20
184.9301500748
 30
0.0
 10
87.6491237932
 20
185.3160035177
 30
0.0
 10
87.6491431249
 20
185.5067305016
 30
0.0
  0
SPLINE
  5
2C6
100
AcDbEntity
  8
0
100
AcDbSpline
 62
7
  6
BYLAYER
 70
0
 71
3
 72
12
 73
8
 74
0
 42
0.0000001
 43
0.0000001
 44
0.0000000001
 40
0.0
 40
0.0
 40
0.0
 40
0.0
 40
0.1081590136
 40
0.2183577102
 40
0.4513594284
 40
0.7104167501
 40
1.0
 40
1.0
 40
1.0
 40
1.0
 10
99.2524790202
 20
164.3598594165
 30
0.0
 10
99.2524762073
 20
164.6428720126
 30
0.0
 10
99.3017788693
 20
165.2154086934
 30
0.0
 10
99.5990349058
 20
166.3632920949
 30
0.0
 10
100.3626337729
 20
167.7707430284
 30
0.0
 10
101.784638861
 20
169.2644035757
 30
0.0
 10
102.9749537556
 20
170.0841936438
 30
0.0
 10
103.6311711905
 20
170.4630586949
 30
0.0
  0
SPLINE
  5
2C7
100
AcDbEntity
  8
0
100
AcDbSpline
 62
7
  6
BYLAYER
 70
0
 71
3
 72
21
 73
17
 74
0
 42
0.0000001
 43
0.0000001
 44
0.0000000001
 40
0.0
 40
0.0
 40
0.0
 40
0.0
 40
0.0624003568
 40
0.1287842294
 40
0.1984007746
 40
0.2704101996
 40
0.4174487529
 40
0.5616835311
 40
0.6303110758
 40
0.695426729
 40
0.7564009521
 40
0.812863191
 40
0.864785745
 40
0.912580601
 40
0.9571742933
 40
1.0
 40
1.0
 40
1.0
 40
1.0
 10
103.6311711905
 20
170.4630586949
 30
0.0
 10
104.1682088251
 20
170.773115667
 30
0.0
 10
105.319366412
 20
171.3405912646
 30
0.0
 10
107.1760990358
 20
172.0135098304
 30
0.0
 10
109.1828757938
 20
172.5228789765
 30
0.0
 10
112.0193742119
 20
172.9725207863
 30
0.0
 10
115.6462535485
 20
173.0721051525
 30
0.0
 10
119.2079266972
 20
172.5726429907
 30
0.0
 10
121.8662262878
 20
171.8068008388
 30
0.0
 10
123.6646394833
 20
171.0822045663
 30
0.0
 10
125.2623370757
 20
170.2132606167
 30
0.0
 10
126.6259536631
 20
169.2169005216
 30
0.0
 10
127.7263570255
 20
168.1118178244
 30
0.0
 10
128.538234881
 20
166.9176073798
 30
0.0
 10
129.0386087984
 20
165.6578932924
 30
0.0
 10
129.1524399124
 20
164.7854489151
 30
0.0
 10
129.1524441426
 20
164.3598594132
 30
0.0
  0
SPLINE
  5
2C8
100
AcDbEntity
  8
0
100
AcDbSpline
 62
7
  6
BYLAYER
 70
0
 71
3
 72
12
 73
8
 74
0
 42
0.0000001
 43
0.0000001
 44
0.0000000001
 40
0.0
 40
0.0
 40
0.0
 40
0.0
 40
0.2895820975
 40
0.5486374157
 40
0.7816405376
 40
0.89184001
 40
1.0
 40
1.0
 40
1.0
 40
1.0
 10
123.1473996045
 20
159.1956138702
 30
0.0
 10
123.7026584063
 20
159.5161907753
 30
0.0
 10
124.7098441987
 20
160.2098533568
 30
0.0
 10
125.9130753635
 20
161.4737172259
 30
0.0
 10
126.5592067334
 20
162.6646338791
 30
0.0
 10
126.8107307766
 20
163.635926987
 30
0.0
 10
126.8524534645
 20
164.120385004
 30
0.0
 10
126.8524482713
 20
164.3598594079
 30
0.0
  0
SPLINE
  5
2C9
100
AcDbEntity
  8
0
100
AcDbSpline
 62
7
  6
BYLAYER
 70
0
 71
3
 72
19
 73
15
 74
0
 42
0.0000001
 43
0.0000001
 44
0.0000000001
 40
0.0
 40
0.0
 40
0.0
 40
0.0
 40
0.0428397582
 40
0.0874487148
 40
0.1352614823
 40
0.1872036682
 40
0.2436845479
 40
0.3046791992
 40
0.3698182037
 40
0.4384685961
 40
0.5827509319
 40
0.7298405774
 40
0.8713667133
 40
1.0
 40
1.0
 40
1.0
 40
1.0
 10
67.4992125127
 20
185.5067304964
 30
0.0
 10
67.4991834429
 20
185.2199267403
 30
0.0
 10
67.5759694355
 20
184.6319923343
 30
0.0
 10
67.9130669629
 20
183.7830231357
 30
0.0
 10
68.4602442414
 20
182.9782228428
 30
0.0
 10
69.2018792499
 20
182.2335472488
 30
0.0
 10
70.1207976803
 20
181.5620472137
 30
0.0
 10
71.1974770395
 20
180.9764169769
 30
0.0
 10
72.4094718955
 20
180.4881621075
 30
0.0
 10
74.2008761507
 20
179.9720894109
 30
0.0
 10
76.6013756392
 20
179.6353087254
 30
0.0
 10
79.5117516874
 20
179.7157577515
 30
0.0
 10
82.2639263497
 20
180.2664304617
 30
0.0
 10
83.9525081391
 20
180.963119544
 30
0.0
 10
84.6983082996
 20
181.3937048972
 30
0.0
  0
SPLINE
  5
2CA
100
AcDbEntity
  8
0
100
AcDbSpline
 62
7
  6
BYLAYER
 70
0
 71
3
 72
20
 73
16
 74
0
 42
0.0000001
 43
0.0000001
 44
0.0000000001
 40
0.0
 40
0.0
 40
0.0
 40
0.0
 40
0.0624053709
 40
0.1288058178
 40
0.2703020727
 40
0.4173625116
 40
0.5616185332
 40
0.6302561164
 40
0.695382627
 40
0.7563651903
 40
0.8128344476
 40
0.8647656617
 40
0.9125684545
 40
0.9571684557
 40
1.0
 40
1.0
 40
1.0
 40
1.0
 10
106.1237329716
 20
169.0240100352
 30
0.0
 10
106.5341156362
 20
169.2609431628
 30
0.0
 10
107.4139090062
 20
169.6946462374
 30
0.0
 10
109.3465521866
 20
170.3948484231
 30
0.0
 10
112.0063221484
 20
170.9270061514
 30
0.0
 10
115.3052563303
 20
171.0179652396
 30
0.0
 10
118.0277816959
 20
170.6361311653
 30
0.0
 10
120.0592113197
 20
170.0508874494
 30
0.0
 10
121.4336255889
 20
169.4972054353
 30
0.0
 10
122.654574455
 20
168.8331018644
 30
0.0
 10
123.6966167153
 20
168.0716245004
 30
0.0
 10
124.5376142071
 20
167.2271688273
 30
0.0
 10
125.1581131835
 20
166.3145411889
 30
0.0
 10
125.5403779783
 20
165.3518132876
 30
0.0
 10
125.6274483682
 20
164.685096074
 30
0.0
 10
125.6274159646
 20
164.3598594164
 30
0.0
  0
SPLINE
  5
2CB
100
AcDbEntity
  8
0
100
AcDbSpline
 62
7
  6
BYLAYER
 70
0
 71
3
 72
12
 73
8
 74
0
 42
0.0000001
 43
0.0000001
 44
0.0000000001
 40
0.0
 40
0.0
 40
0.0
 40
0.0
 40
0.2895719162
 40
0.5486431553
 40
0.7816383062
 40
0.8918401776
 40
1.0
 40
1.0
 40
1.0
 40
1.0
 10
121.3265920623
 20
160.2468338131
 30
0.0
 10
121.7688074978
 20
160.5021454898
 30
0.0
 10
122.570954111
 20
161.054634036
 30
0.0
 10
123.5293265312
 20
162.0611820779
 30
0.0
 10
124.0438240047
 20
163.0097357777
 30
0.0
 10
124.2442665031
 20
163.7832789907
 30
0.0
 10
124.2774075558
 20
164.1691324335
 30
0.0
 10
124.2774268875
 20
164.3598594174
 30
0.0
  0
SPLINE
  5
2CC
100
AcDbEntity
  8
0
100
AcDbSpline
 62
7
  6
BYLAYER
 70
0
 71
3
 72
12
 73
8
 74
0
 42
0.0000001
 43
0.0000001
 44
0.0000000001
 40
0.0
 40
0.0
 40
0.0
 40
0.0
 40
0.1081590094
 40
0.2183607152
 40
0.4513549154
 40
0.7104291001
 40
1.0
 40
1.0
 40
1.0
 40
1.0
 10
66.1492234355
 20
185.5067304975
 30
0.0
 10
66.1492449838
 20
185.7230122123
 30
0.0
 10
66.1868170096
 20
186.1605671318
 30
0.0
 10
66.4141323534
 20
187.0377534444
 30
0.0
 10
66.9975539293
 20
188.1134179639
 30
0.0
 10
68.0843510941
 20
189.2548365687
 30
0.0
 10
68.9939811208
 20
189.8813601119
 30
0.0
 10
69.495449209
 20
190.1708811194
 30
0.0
  0
SPLINE
  5
2CD
100
AcDbEntity
  8
0
100
AcDbSpline
 62
7
  6
BYLAYER
 70
0
 71
3
 72
20
 73
16
 74
0
 42
0.0000001
 43
0.0000001
 44
0.0000000001
 40
0.0
 40
0.0
 40
0.0
 40
0.0
 40
0.0428321445
 40
0.087432962
 40
0.1352356195
 40
0.1871664276
 40
0.2436372485
 40
0.3046203093
 40
0.3697449931
 40
0.4383817253
 40
0.5826355756
 40
0.7296955089
 40
0.8711944136
 40
0.937589693
 40
1.0
 40
1.0
 40
1.0
 40
1.0
 10
64.9241911289
 20
185.506730506
 30
0.0
 10
64.9241989383
 20
185.146616205
 30
0.0
 10
65.020507839
 20
184.4083894277
 30
0.0
 10
65.443915835
 20
183.3424718706
 30
0.0
 10
66.1308971992
 20
182.3319768134
 30
0.0
 10
67.0620189238
 20
181.39690314
 30
0.0
 10
68.2158543708
 20
180.5538326232
 30
0.0
 10
69.5677433545
 20
179.8185801198
 30
0.0
 10
71.0894782699
 20
179.2054686422
 30
0.0
 10
73.3386830971
 20
178.5574658216
 30
0.0
 10
76.3531007411
 20
178.1347854059
 30
0.0
 10
80.0057596439
 20
178.2353837826
 30
0.0
 10
82.9506706776
 20
178.8246844153
 30
0.0
 10
85.0905862281
 20
179.5998852821
 30
0.0
 10
86.0646950977
 20
180.0801265814
 30
0.0
 10
86.5191158419
 20
180.3424849543
 30
0.0
  0
SPLINE
  5
2CE
100
AcDbEntity
  8
0
100
AcDbSpline
 62
7
  6
BYLAYER
 70
0
 71
3
 72
12
 73
8
 74
0
 42
0.0000001
 43
0.0000001
 44
0.0000000001
 40
0.0
 40
0.0
 40
0.0
 40
0.0
 40
0.1081590136
 40
0.2183577102
 40
0.4513594284
 40
0.7104167501
 40
1.0
 40
1.0
 40
1.0
 40
1.0
 10
62.6241952576
 20
185.5067305006
 30
0.0
 10
62.6241924446
 20
185.7897430968
 30
0.0
 10
62.6734951067
 20
186.3622797776
 30
0.0
 10
62.9707511432
 20
187.5101631791
 30
0.0
 10
63.7343500102
 20
188.9176141126
 30
0.0
 10
65.1563550984
 20
190.4112746598
 30
0.0
 10
66.346669993
 20
191.231064728
 30
0.0
 10
67.0028874278
 20
191.6099297791
 30
0.0
  0
SPLINE
  5
2CF
100
AcDbEntity
  8
0
100
AcDbSpline
 62
7
  6
BYLAYER
 70
0
 71
3
 72
9
 73
5
 74
0
 42
0.0000001
 43
0.0000001
 44
0.0000000001
 40
0.0
 40
0.0
 40
0.0
 40
0.0
 40
0.5222535883
 40
1.0
 40
1.0
 40
1.0
 40
1.0
 10
53.4924406512
 20
186.0609914349
 30
0.0
 10
53.3129494986
 20
186.0941655936
 30
0.0
 10
52.9571067511
 20
186.1126921047
 30
0.0
 10
52.6153335844
 20
186.000415818
 30
0.0
 10
52.470728304
 20
185.9169284379
 30
0.0
  0
SPLINE
  5
2D0
100
AcDbEntity
  8
0
100
AcDbSpline
 62
7
  6
BYLAYER
 70
0
 71
3
 72
11
 73
7
 74
0
 42
0.0000001
 43
0.0000001
 44
0.0000000001
 40
0.0
 40
0.0
 40
0.0
 40
0.0
 40
0.217745073
 40
0.4508830113
 40
0.7104597664
 40
1.0
 40
1.0
 40
1.0
 40
1.0
 10
139.7036459671
 20
47.1540921667
 30
0.0
 10
139.7696062564
 20
47.1921741616
 30
0.0
 10
139.8931427853
 20
47.2957928452
 30
0.0
 10
140.0245556068
 20
47.5107552805
 30
0.0
 10
140.1024618688
 20
47.7755768732
 30
0.0
 10
140.1179258477
 20
47.9682898764
 30
0.0
 10
140.1179258477
 20
48.0695671369
 30
0.0
  0
SPLINE
  5
2D1
100
AcDbEntity
  8
0
100
AcDbSpline
 62
7
  6
BYLAYER
 70
0
 71
3
 72
11
 73
7
 74
0
 42
0.0000001
 43
0.0000001
 44
0.0000000001
 40
0.0
 40
0.0
 40
0.0
 40
0.0
 40
0.2713773385
 40
0.5252839774
 40
0.766159449
 40
1.0
 40
1.0
 40
1.0
 40
1.0
 10
124.2349434771
 20
159.9792047367
 30
0.0
 10
124.4540704424
 20
160.2114131617
 30
0.0
 10
124.8471898707
 20
160.6921532076
 30
0.0
 10
125.2932359331
 20
161.4810639305
 30
0.0
 10
125.5660125092
 20
162.2997154966
 30
0.0
 10
125.6273932814
 20
162.8599916084
 30
0.0
 10
125.6274211993
 20
163.1351057894
 30
0.0
  0
SPLINE
  5
2D2
100
AcDbEntity
  8
0
100
AcDbSpline
 62
7
  6
BYLAYER
 70
0
 71
3
 72
20
 73
16
 74
0
 42
0.0000001
 43
0.0000001
 44
0.0000000001
 40
0.0
 40
0.0
 40
0.0
 40
0.0
 40
0.0624053709
 40
0.1288058178
 40
0.2703020727
 40
0.4173625116
 40
0.5616185332
 40
0.6302561164
 40
0.695382627
 40
0.7563651903
 40
0.8128344476
 40
0.8647656617
 40
0.9125684545
 40
0.9571684557
 40
1.0
 40
1.0
 40
1.0
 40
1.0
 10
122.2811901912
 20
159.6957087944
 30
0.0
 10
121.8708075266
 20
159.4587756669
 30
0.0
 10
120.9910141566
 20
159.0250725923
 30
0.0
 10
119.0583709762
 20
158.3248704066
 30
0.0
 10
116.3986010144
 20
157.7927126783
 30
0.0
 10
113.0996668325
 20
157.7017535901
 30
0.0
 10
110.3771414669
 20
158.0835876644
 30
0.0
 10
108.3457118431
 20
158.6688313803
 30
0.0
 10
106.9712975739
 20
159.2225133944
 30
0.0
 10
105.7503487078
 20
159.8866169653
 30
0.0
 10
104.7083064475
 20
160.6480943292
 30
0.0
 10
103.8673089557
 20
161.4925500024
 30
0.0
 10
103.2468099793
 20
162.4051776408
 30
0.0
 10
102.8645451845
 20
163.3679055421
 30
0.0
 10
102.7774747946
 20
164.0346227557
 30
0.0
 10
102.7775071982
 20
164.3598594133
 30
0.0
  0
SPLINE
  5
2D3
100
AcDbEntity
  8
0
100
AcDbSpline
 62
7
  6
BYLAYER
 70
0
 71
3
 72
12
 73
8
 74
0
 42
0.0000001
 43
0.0000001
 44
0.0000000001
 40
0.0
 40
0.0
 40
0.0
 40
0.0
 40
0.2895719162
 40
0.5486431553
 40
0.7816383062
 40
0.8918401776
 40
1.0
 40
1.0
 40
1.0
 40
1.0
 10
107.0783311005
 20
168.4728850166
 30
0.0
 10
106.636115665
 20
168.2175733399
 30
0.0
 10
105.8339690518
 20
167.6650847937
 30
0.0
 10
104.8755966316
 20
166.6585367518
 30
0.0
 10
104.3610991581
 20
165.709983052
 30
0.0
 10
104.1606566597
 20
164.936439839
 30
0.0
 10
104.127515607
 20
164.5505863962
 30
0.0
 10
104.1274962753
 20
164.3598594123
 30
0.0
  0
SPLINE
  5
2D4
100
AcDbEntity
  8
0
100
AcDbSpline
 62
7
  6
BYLAYER
 70
0
 71
3
 72
17
 73
13
 74
0
 42
0.0000001
 43
0.0000001
 44
0.0000000001
 40
0.0
 40
0.0
 40
0.0
 40
0.0
 40
0.124398733
 40
0.2607417945
 40
0.4032670334
 40
0.5452264107
 40
0.6799612713
 40
0.8019532922
 40
0.8571773329
 40
0.9083515073
 40
0.9557433049
 40
1.0
 40
1.0
 40
1.0
 40
1.0
 10
107.0783311005
 20
167.2481313909
 30
0.0
 10
107.7567682673
 20
167.6398249337
 30
0.0
 10
109.2802162058
 20
168.2888882308
 30
0.0
 10
111.7678667849
 20
168.8497494622
 30
0.0
 10
114.4233584989
 20
169.0189516337
 30
0.0
 10
117.0637053214
 20
168.7835894894
 30
0.0
 10
119.5073984809
 20
168.1604971073
 30
0.0
 10
121.3035989224
 20
167.3239179967
 30
0.0
 10
122.4763387157
 20
166.484729187
 30
0.0
 10
123.1799702899
 20
165.8136793524
 30
0.0
 10
123.7231999624
 20
165.0913550894
 30
0.0
 10
123.9779452749
 20
164.5681014844
 30
0.0
 10
124.0713411769
 20
164.3055134581
 30
0.0
  0
SPLINE
  5
2D5
100
AcDbEntity
  8
0
100
AcDbSpline
 62
7
  6
BYLAYER
 70
0
 71
3
 72
9
 73
5
 74
0
 42
0.0000001
 43
0.0000001
 44
0.0000000001
 40
0.0
 40
0.0
 40
0.0
 40
0.0
 40
0.2534640341
 40
1.0
 40
1.0
 40
1.0
 40
1.0
 10
124.0713411769
 20
164.3055134581
 30
0.0
 10
124.0921167453
 20
164.2471017354
 30
0.0
 10
124.1684129785
 20
164.0146815048
 30
0.0
 10
124.2212922427
 20
163.7744870288
 30
0.0
 10
124.2460890887
 20
163.5935785154
 30
0.0
  0
SPLINE
  5
2D6
100
AcDbEntity
  8
0
100
AcDbSpline
 62
7
  6
BYLAYER
 70
0
 71
3
 72
11
 73
7
 74
0
 42
0.0000001
 43
0.0000001
 44
0.0000000001
 40
0.0
 40
0.0
 40
0.0
 40
0.0
 40
0.220639949
 40
0.4586496426
 40
0.7180928778
 40
1.0
 40
1.0
 40
1.0
 40
1.0
 10
67.672863357
 20
185.3572743133
 30
0.0
 10
67.7686375768
 20
185.6510728741
 30
0.0
 10
68.0453831088
 20
186.2382186174
 30
0.0
 10
68.6615192485
 20
187.0407455913
 30
0.0
 10
69.4738901108
 20
187.7770428185
 30
0.0
 10
70.1081208086
 20
188.1975922797
 30
0.0
 10
70.4500473379
 20
188.3950024751
 30
0.0
  0
SPLINE
  5
2D7
100
AcDbEntity
  8
0
100
AcDbSpline
 62
7
  6
BYLAYER
 70
0
 71
3
 72
11
 73
7
 74
0
 42
0.0000001
 43
0.0000001
 44
0.0000000001
 40
0.0
 40
0.0
 40
0.0
 40
0.0
 40
0.2372465045
 40
0.4999989083
 40
0.7627519059
 40
1.0
 40
1.0
 40
1.0
 40
1.0
 10
116.217804374
 20
150.8674248846
 30
0.0
 10
116.4185891041
 20
150.7515043891
 30
0.0
 10
116.7985709841
 20
150.4317600377
 30
0.0
 10
117.241896217
 20
149.8256956592
 30
0.0
 10
117.5451044885
 20
149.1387325005
 30
0.0
 10
117.6320238243
 20
148.6497850196
 30
0.0
 10
117.6320238243
 20
148.4179385413
 30
0.0
  0
SPLINE
  5
2D8
100
AcDbEntity
  8
0
100
AcDbSpline
 62
7
  6
BYLAYER
 70
0
 71
3
 72
13
 73
9
 74
0
 42
0.0000001
 43
0.0000001
 44
0.0000000001
 40
0.0
 40
0.0
 40
0.0
 40
0.0
 40
0.1142243494
 40
0.2375569733
 40
0.5000010845
 40
0.762444602
 40
0.8857765324
 40
1.0
 40
1.0
 40
1.0
 40
1.0
 10
116.8895750991
 20
146.5604335901
 30
0.0
 10
116.8895750991
 20
146.769982688
 30
0.0
 10
116.8511354054
 20
147.2062245268
 30
0.0
 10
116.6427450515
 20
148.1017676919
 30
0.0
 10
116.1584225404
 20
149.2001725469
 30
0.0
 10
115.449333569
 20
150.1688064504
 30
0.0
 10
114.7779645057
 20
150.7970424263
 30
0.0
 10
114.4193880972
 20
151.0484485214
 30
0.0
 10
114.2379136298
 20
151.1532204838
 30
0.0
  0
SPLINE
  5
2D9
100
AcDbEntity
  8
0
100
AcDbSpline
 62
7
  6
BYLAYER
 70
0
 71
3
 72
19
 73
15
 74
0
 42
0.0000001
 43
0.0000001
 44
0.0000000001
 40
0.0
 40
0.0
 40
0.0
 40
0.0
 40
0.0428397582
 40
0.0874487148
 40
0.1352614823
 40
0.1872036682
 40
0.2436845479
 40
0.3046791992
 40
0.3698182037
 40
0.4384685961
 40
0.5827509319
 40
0.7298405774
 40
0.8713667133
 40
1.0
 40
1.0
 40
1.0
 40
1.0
 10
87.6491431249
 20
185.5067305016
 30
0.0
 10
87.6491721946
 20
185.7935342577
 30
0.0
 10
87.572386202
 20
186.3814686637
 30
0.0
 10
87.2352886746
 20
187.2304378623
 30
0.0
 10
86.6881113962
 20
188.0352381551
 30
0.0
 10
85.9464763877
 20
188.7799137492
 30
0.0
 10
85.0275579572
 20
189.4514137843
 30
0.0
 10
83.9508785981
 20
190.0370440211
 30
0.0
 10
82.7388837421
 20
190.5252988905
 30
0.0
 10
80.9474794868
 20
191.0413715871
 30
0.0
 10
78.5469799984
 20
191.3781522725
 30
0.0
 10
75.6366039502
 20
191.2977032464
 30
0.0
 10
72.8844292878
 20
190.7470305363
 30
0.0
 10
71.1958474984
 20
190.050341454
 30
0.0
 10
70.4500473379
 20
189.6197561008
 30
0.0
  0
SPLINE
  5
2DA
100
AcDbEntity
  8
0
100
AcDbSpline
 62
7
  6
BYLAYER
 70
0
 71
3
 72
12
 73
8
 74
0
 42
0.0000001
 43
0.0000001
 44
0.0000000001
 40
0.0
 40
0.0
 40
0.0
 40
0.0
 40
0.1081590094
 40
0.2183607152
 40
0.4513549154
 40
0.7104291001
 40
1.0
 40
1.0
 40
1.0
 40
1.0
 10
88.999132202
 20
185.5067305005
 30
0.0
 10
88.9991106538
 20
185.2904487857
 30
0.0
 10
88.961538628
 20
184.8528938662
 30
0.0
 10
88.7342232842
 20
183.9757075536
 30
0.0
 10
88.1508017083
 20
182.9000430341
 30
0.0
 10
87.0640045435
 20
181.7586244293
 30
0.0
 10
86.1543745168
 20
181.1321008861
 30
0.0
 10
85.6529064286
 20
180.8425798786
 30
0.0
  0
SPLINE
  5
2DB
100
AcDbEntity
  8
0
100
AcDbSpline
 62
7
  6
BYLAYER
 70
0
 71
3
 72
11
 73
7
 74
0
 42
0.0000001
 43
0.0000001
 44
0.0000000001
 40
0.0
 40
0.0
 40
0.0
 40
0.0
 40
0.220639949
 40
0.4586496426
 40
0.7180928778
 40
1.0
 40
1.0
 40
1.0
 40
1.0
 10
104.3011471196
 20
164.2104032292
 30
0.0
 10
104.3969213394
 20
164.5042017899
 30
0.0
 10
104.6736668714
 20
165.0913475333
 30
0.0
 10
105.2898030111
 20
165.8938745072
 30
0.0
 10
106.1021738735
 20
166.6301717344
 30
0.0
 10
106.7364045712
 20
167.0507211956
 30
0.0
 10
107.0783311005
 20
167.2481313909
 30
0.0
  0
SPLINE
  5
2DC
100
AcDbEntity
  8
0
100
AcDbSpline
 62
7
  6
BYLAYER
 70
0
 71
3
 72
19
 73
15
 74
0
 42
0.0000001
 43
0.0000001
 44
0.0000000001
 40
0.0
 40
0.0
 40
0.0
 40
0.0
 40
0.0428397582
 40
0.0874487148
 40
0.1352614823
 40
0.1872036682
 40
0.2436845479
 40
0.3046791992
 40
0.3698182037
 40
0.4384685961
 40
0.5827509319
 40
0.7298405774
 40
0.8713667133
 40
1.0
 40
1.0
 40
1.0
 40
1.0
 10
124.2774268875
 20
164.3598594174
 30
0.0
 10
124.2774559572
 20
164.6466631735
 30
0.0
 10
124.2006699647
 20
165.2345975796
 30
0.0
 10
123.8635724373
 20
166.0835667781
 30
0.0
 10
123.3163951588
 20
166.888367071
 30
0.0
 10
122.5747601503
 20
167.633042665
 30
0.0
 10
121.6558417199
 20
168.3045427001
 30
0.0
 10
120.5791623607
 20
168.890172937
 30
0.0
 10
119.3671675047
 20
169.3784278064
 30
0.0
 10
117.5757632494
 20
169.894500503
 30
0.0
 10
115.175263761
 20
170.2312811884
 30
0.0
 10
112.2648877128
 20
170.1508321623
 30
0.0
 10
109.5127130504
 20
169.6001594521
 30
0.0
 10
107.8241312611
 20
168.9034703698
 30
0.0
 10
107.0783311005
 20
168.4728850166
 30
0.0
  0
SPLINE
  5
2DD
100
AcDbEntity
  8
0
100
AcDbSpline
 62
7
  6
BYLAYER
 70
0
 71
3
 72
12
 73
8
 74
0
 42
0.0000001
 43
0.0000001
 44
0.0000000001
 40
0.0
 40
0.0
 40
0.0
 40
0.0
 40
0.1081590094
 40
0.2183607152
 40
0.4513549154
 40
0.7104291001
 40
1.0
 40
1.0
 40
1.0
 40
1.0
 10
125.6274159646
 20
164.3598594164
 30
0.0
 10
125.6273944164
 20
164.1435777016
 30
0.0
 10
125.5898223906
 20
163.706022782
 30
0.0
 10
125.3625070468
 20
162.8288364694
 30
0.0
 10
124.7790854709
 20
161.7531719499
 30
0.0
 10
123.6922883061
 20
160.6117533452
 30
0.0
 10
122.7826582794
 20
159.985229802
 30
0.0
 10
122.2811901912
 20
159.6957087944
 30
0.0
  0
SPLINE
  5
2DE
100
AcDbEntity
  8
0
100
AcDbSpline
 62
7
  6
BYLAYER
 70
0
 71
3
 72
11
 73
7
 74
0
 42
0.0000001
 43
0.0000001
 44
0.0000000001
 40
0.0
 40
0.0
 40
0.0
 40
0.0
 40
0.2298844116
 40
0.468700012
 40
0.7237826628
 40
1.0
 40
1.0
 40
1.0
 40
1.0
 10
66.1492182009
 20
184.2819768731
 30
0.0
 10
66.1491862457
 20
183.9670779369
 30
0.0
 10
66.2306048501
 20
183.3224830685
 30
0.0
 10
66.5887171188
 20
182.3891353975
 30
0.0
 10
67.171044553
 20
181.5013166757
 30
0.0
 10
67.6772492369
 20
180.972901457
 30
0.0
 10
67.9585214779
 20
180.7198261948
 30
0.0
  0
SPLINE
  5
2DF
100
AcDbEntity
  8
0
100
AcDbSpline
 62
7
  6
BYLAYER
 70
0
 71
3
 72
11
 73
7
 74
0
 42
0.0000001
 43
0.0000001
 44
0.0000000001
 40
0.0
 40
0.0
 40
0.0
 40
0.0
 40
0.2269687962
 40
0.46705347
 40
0.7239752419
 40
1.0
 40
1.0
 40
1.0
 40
1.0
 10
65.0728827075
 20
185.398426505
 30
0.0
 10
65.1542529013
 20
185.7022330491
 30
0.0
 10
65.3882437395
 20
186.3110074909
 30
0.0
 10
65.9186356738
 20
187.1682707393
 30
0.0
 10
66.6261723959
 20
187.9780304754
 30
0.0
 10
67.1879269614
 20
188.461265103
 30
0.0
 10
67.4922038277
 20
188.6930324025
 30
0.0
  0
SPLINE
  5
2E0
100
AcDbEntity
  8
0
100
AcDbSpline
 62
7
  6
BYLAYER
 70
0
 71
3
 72
20
 73
16
 74
0
 42
0.0000001
 43
0.0000001
 44
0.0000000001
 40
0.0
 40
0.0
 40
0.0
 40
0.0
 40
0.0428321445
 40
0.087432962
 40
0.1352356195
 40
0.1871664276
 40
0.2436372485
 40
0.3046203093
 40
0.3697449931
 40
0.4383817253
 40
0.5826355756
 40
0.7296955089
 40
0.8711944136
 40
0.937589693
 40
1.0
 40
1.0
 40
1.0
 40
1.0
 10
90.2241645087
 20
185.506730492
 30
0.0
 10
90.2241566993
 20
185.866844793
 30
0.0
 10
90.1278477986
 20
186.6050715703
 30
0.0
 10
89.7044398025
 20
187.6709891274
 30
0.0
 10
89.0174584383
 20
188.6814841846
 30
0.0
 10
88.0863367138
 20
189.616557858
 30
0.0
 10
86.9325012668
 20
190.4596283748
 30
0.0
 10
85.5806122831
 20
191.1948808782
 30
0.0
 10
84.0588773677
 20
191.8079923558
 30
0.0
 10
81.8096725405
 20
192.4559951764
 30
0.0
 10
78.7952548965
 20
192.8786755921
 30
0.0
 10
75.1425959937
 20
192.7780772154
 30
0.0
 10
72.19768496
 20
192.1887765827
 30
0.0
 10
70.0577694095
 20
191.4135757159
 30
0.0
 10
69.0836605399
 20
190.9333344166
 30
0.0
 10
68.6292397957
 20
190.6709760437
 30
0.0
  0
SPLINE
  5
2E1
100
AcDbEntity
  8
0
100
AcDbSpline
 62
7
  6
BYLAYER
 70
0
 71
3
 72
12
 73
8
 74
0
 42
0.0000001
 43
0.0000001
 44
0.0000000001
 40
0.0
 40
0.0
 40
0.0
 40
0.0
 40
0.1081590136
 40
0.2183577102
 40
0.4513594284
 40
0.7104167501
 40
1.0
 40
1.0
 40
1.0
 40
1.0
 10
92.5241603799
 20
185.5067304973
 30
0.0
 10
92.5241631929
 20
185.2237179012
 30
0.0
 10
92.4748605308
 20
184.6511812204
 30
0.0
 10
92.1776044944
 20
183.5032978189
 30
0.0
 10
91.4140056273
 20
182.0958468854
 30
0.0
 10
89.9920005392
 20
180.6021863381
 30
0.0
 10
88.8016856446
 20
179.78239627
 30
0.0
 10
88.1454682097
 20
179.4035312189
 30
0.0
  0
SPLINE
  5
2E2
100
AcDbEntity
  8
0
100
AcDbSpline
 62
7
  6
BYLAYER
 70
0
 71
3
 72
11
 73
7
 74
0
 42
0.0000001
 43
0.0000001
 44
0.0000000001
 40
0.0
 40
0.0
 40
0.0
 40
0.0
 40
0.2298844116
 40
0.468700012
 40
0.7237826628
 40
1.0
 40
1.0
 40
1.0
 40
1.0
 10
102.7775019635
 20
163.1351057889
 30
0.0
 10
102.7774700083
 20
162.8202068527
 30
0.0
 10
102.8588886127
 20
162.1756119844
 30
0.0
 10
103.2170008814
 20
161.2422643134
 30
0.0
 10
103.7993283156
 20
160.3544455915
 30
0.0
 10
104.3055329995
 20
159.8260303728
 30
0.0
 10
104.5868052406
 20
159.5729551107
 30
0.0
  0
SPLINE
  5
2E3
100
AcDbEntity
  8
0
100
AcDbSpline
 62
7
  6
BYLAYER
 70
0
 71
3
 72
9
 73
5
 74
0
 42
0.0000001
 43
0.0000001
 44
0.0000000001
 40
0.0
 40
0.0
 40
0.0
 40
0.0
 40
0.2244737676
 40
1.0
 40
1.0
 40
1.0
 40
1.0
 10
51.6750292315
 20
185.310648729
 30
0.0
 10
51.778370399
 20
185.3199905304
 30
0.0
 10
52.2434128188
 20
185.313591624
 30
0.0
 10
52.6917633662
 20
185.1347881776
 30
0.0
 10
53.0022226191
 20
184.9555484993
 30
0.0
  0
SPLINE
  5
2E4
100
AcDbEntity
  8
0
100
AcDbSpline
 62
7
  6
BYLAYER
 70
0
 71
3
 72
13
 73
9
 74
0
 42
0.0000001
 43
0.0000001
 44
0.0000000001
 40
0.0
 40
0.0
 40
0.0
 40
0.0
 40
0.258089534
 40
0.5196941465
 40
0.6475395551
 40
0.7711058275
 40
0.8890074542
 40
1.0
 40
1.0
 40
1.0
 40
1.0
 10
72.3474870975
 20
176.1953913784
 30
0.0
 10
73.7132595071
 20
175.9011482815
 30
0.0
 10
76.5211020622
 20
175.5578416976
 30
0.0
 10
80.0398528543
 20
175.6990207324
 30
0.0
 10
82.7814794152
 20
176.1601847213
 30
0.0
 10
84.7184964803
 20
176.6669032924
 30
0.0
 10
86.5119148416
 20
177.326797661
 30
0.0
 10
87.6251309113
 20
177.8783625071
 30
0.0
 10
88.1454682097
 20
178.1787775932
 30
0.0
  0
SPLINE
  5
2E5
100
AcDbEntity
  8
0
100
AcDbSpline
 62
7
  6
BYLAYER
 70
0
 71
3
 72
12
 73
8
 74
0
 42
0.0000001
 43
0.0000001
 44
0.0000000001
 40
0.0
 40
0.0
 40
0.0
 40
0.0
 40
0.2895819689
 40
0.5486374277
 40
0.7816401235
 40
0.8918396279
 40
1.0
 40
1.0
 40
1.0
 40
1.0
 10
88.1454682097
 20
178.1787775932
 30
0.0
 10
88.8016828778
 20
178.557641047
 30
0.0
 10
89.9919935713
 20
179.3774239276
 30
0.0
 10
91.4139930879
 20
180.87108063
 30
0.0
 10
92.1776033532
 20
182.2785265502
 30
0.0
 10
92.4748593564
 20
183.4264182427
 30
0.0
 10
92.5241688098
 20
183.9989606525
 30
0.0
 10
92.524162166
 20
184.281976862
 30
0.0
  0
SPLINE
  5
2E6
100
AcDbEntity
  8
0
100
AcDbSpline
 62
7
  6
BYLAYER
 70
0
 71
3
 72
21
 73
17
 74
0
 42
0.0000001
 43
0.0000001
 44
0.0000000001
 40
0.0
 40
0.0
 40
0.0
 40
0.0
 40
0.0624003568
 40
0.1287842294
 40
0.1984007746
 40
0.2704101996
 40
0.4174487529
 40
0.5616835311
 40
0.6303110758
 40
0.695426729
 40
0.7564009521
 40
0.812863191
 40
0.864785745
 40
0.912580601
 40
0.9571742933
 40
1.0
 40
1.0
 40
1.0
 40
1.0
 10
88.1454682097
 20
179.4035312189
 30
0.0
 10
87.6084305751
 20
179.0934742468
 30
0.0
 10
86.4572729882
 20
178.5259986493
 30
0.0
 10
84.6005403644
 20
177.8530800835
 30
0.0
 10
82.5937636064
 20
177.3437109374
 30
0.0
 10
79.7572651883
 20
176.8940691276
 30
0.0
 10
76.1303858517
 20
176.7944847614
 30
0.0
 10
72.5687127029
 20
177.2939469231
 30
0.0
 10
69.9104131124
 20
178.059789075
 30
0.0
 10
68.1119999168
 20
178.7843853475
 30
0.0
 10
66.5143023245
 20
179.6533292971
 30
0.0
 10
65.1506857371
 20
180.6496893922
 30
0.0
 10
64.0502823747
 20
181.7547720895
 30
0.0
 10
63.2384045191
 20
182.948982534
 30
0.0
 10
62.7380306018
 20
184.2086966214
 30
0.0
 10
62.6241994878
 20
185.0811409987
 30
0.0
 10
62.6241952576
 20
185.5067305006
 30
0.0
  0
SPLINE
  5
2E7
100
AcDbEntity
  8
0
100
AcDbSpline
 62
7
  6
BYLAYER
 70
0
 71
3
 72
12
 73
8
 74
0
 42
0.0000001
 43
0.0000001
 44
0.0000000001
 40
0.0
 40
0.0
 40
0.0
 40
0.0
 40
0.2895820975
 40
0.5486374157
 40
0.7816405376
 40
0.89184001
 40
1.0
 40
1.0
 40
1.0
 40
1.0
 10
68.6292397957
 20
190.6709760437
 30
0.0
 10
68.0739809939
 20
190.3503991386
 30
0.0
 10
67.0667952015
 20
189.6567365571
 30
0.0
 10
65.8635640367
 20
188.3928726879
 30
0.0
 10
65.2174326668
 20
187.2019560348
 30
0.0
 10
64.9659086236
 20
186.2306629269
 30
0.0
 10
64.9241859357
 20
185.7462049098
 30
0.0
 10
64.9241911289
 20
185.506730506
 30
0.0
  0
SPLINE
  5
2E8
100
AcDbEntity
  8
0
100
AcDbSpline
 62
7
  6
BYLAYER
 70
0
 71
3
 72
11
 73
7
 74
0
 42
0.0000001
 43
0.0000001
 44
0.0000000001
 40
0.0
 40
0.0
 40
0.0
 40
0.0
 40
0.2797083146
 40
0.5378769761
 40
0.7765469033
 40
1.0
 40
1.0
 40
1.0
 40
1.0
 10
87.1357566878
 20
189.0637154338
 30
0.0
 10
87.5078820685
 20
188.8156688822
 30
0.0
 10
88.1950246934
 20
188.2931552685
 30
0.0
 10
89.0620163705
 20
187.396647901
 30
0.0
 10
89.7064841442
 20
186.434053338
 30
0.0
 10
89.9837882834
 20
185.7413855846
 30
0.0
 10
90.0760408414
 20
185.396227944
 30
0.0
  0
SPLINE
  5
2E9
100
AcDbEntity
  8
0
100
AcDbSpline
 62
7
  6
BYLAYER
 70
0
 71
3
 72
11
 73
7
 74
0
 42
0.0000001
 43
0.0000001
 44
0.0000000001
 40
0.0
 40
0.0
 40
0.0
 40
0.0
 40
0.2269687962
 40
0.46705347
 40
0.7239752419
 40
1.0
 40
1.0
 40
1.0
 40
1.0
 10
101.7011664701
 20
164.2515554209
 30
0.0
 10
101.7825366639
 20
164.555361965
 30
0.0
 10
102.0165275021
 20
165.1641364067
 30
0.0
 10
102.5469194364
 20
166.0213996551
 30
0.0
 10
103.2544561586
 20
166.8311593913
 30
0.0
 10
103.816210724
 20
167.3143940188
 30
0.0
 10
104.1204875904
 20
167.5461613183
 30
0.0
  0
SPLINE
  5
2EA
100
AcDbEntity
  8
0
100
AcDbSpline
 62
7
  6
BYLAYER
 70
0
 71
3
 72
20
 73
16
 74
0
 42
0.0000001
 43
0.0000001
 44
0.0000000001
 40
0.0
 40
0.0
 40
0.0
 40
0.0
 40
0.0428321445
 40
0.087432962
 40
0.1352356195
 40
0.1871664276
 40
0.2436372485
 40
0.3046203093
 40
0.3697449931
 40
0.4383817253
 40
0.5826355756
 40
0.7296955089
 40
0.8711944136
 40
0.937589693
 40
1.0
 40
1.0
 40
1.0
 40
1.0
 10
126.8524482713
 20
164.3598594079
 30
0.0
 10
126.8524404619
 20
164.7199737089
 30
0.0
 10
126.7561315612
 20
165.4582004862
 30
0.0
 10
126.3327235651
 20
166.5241180433
 30
0.0
 10
125.6457422009
 20
167.5346131005
 30
0.0
 10
124.7146204764
 20
168.4696867738
 30
0.0
 10
123.5607850294
 20
169.3127572906
 30
0.0
 10
122.2088960457
 20
170.0480097941
 30
0.0
 10
120.6871611303
 20
170.6611212716
 30
0.0
 10
118.4379563031
 20
171.3091240922
 30
0.0
 10
115.4235386591
 20
171.7318045079
 30
0.0
 10
111.7708797563
 20
171.6312061312
 30
0.0
 10
108.8259687226
 20
171.0419054985
 30
0.0
 10
106.6860531721
 20
170.2667046317
 30
0.0
 10
105.7119443025
 20
169.7864633324
 30
0.0
 10
105.2575235583
 20
169.5241049595
 30
0.0
  0
SPLINE
  5
2EB
100
AcDbEntity
  8
0
100
AcDbSpline
 62
7
  6
BYLAYER
 70
0
 71
3
 72
11
 73
7
 74
0
 42
0.0000001
 43
0.0000001
 44
0.0000000001
 40
0.0
 40
0.0
 40
0.0
 40
0.0
 40
0.2713773385
 40
0.5252839774
 40
0.766159449
 40
1.0
 40
1.0
 40
1.0
 40
1.0
 10
87.6066597145
 20
181.1260758209
 30
0.0
 10
87.8257866798
 20
181.3582842459
 30
0.0
 10
88.2189061081
 20
181.8390242918
 30
0.0
 10
88.6649521705
 20
182.6279350147
 30
0.0
 10
88.9377287466
 20
183.4465865808
 30
0.0
 10
88.9991095188
 20
184.0068626925
 30
0.0
 10
88.9991374367
 20
184.2819768735
 30
0.0
  0
SPLINE
  5
2EC
100
AcDbEntity
  8
0
100
AcDbSpline
 62
7
  6
BYLAYER
 70
0
 71
3
 72
20
 73
16
 74
0
 42
0.0000001
 43
0.0000001
 44
0.0000000001
 40
0.0
 40
0.0
 40
0.0
 40
0.0
 40
0.0624053709
 40
0.1288058178
 40
0.2703020727
 40
0.4173625116
 40
0.5616185332
 40
0.6302561164
 40
0.695382627
 40
0.7563651903
 40
0.8128344476
 40
0.8647656617
 40
0.9125684545
 40
0.9571684557
 40
1.0
 40
1.0
 40
1.0
 40
1.0
 10
85.6529064286
 20
180.8425798786
 30
0.0
 10
85.242523764
 20
180.605646751
 30
0.0
 10
84.3627303939
 20
180.1719436764
 30
0.0
 10
82.4300872136
 20
179.4717414908
 30
0.0
 10
79.7703172518
 20
178.9395837625
 30
0.0
 10
76.4713830699
 20
178.8486246743
 30
0.0
 10
73.7488577043
 20
179.2304587486
 30
0.0
 10
71.7174280805
 20
179.8157024645
 30
0.0
 10
70.3430138113
 20
180.3693844785
 30
0.0
 10
69.1220649452
 20
181.0334880494
 30
0.0
 10
68.0800226848
 20
181.7949654134
 30
0.0
 10
67.2390251931
 20
182.6394210866
 30
0.0
 10
66.6185262167
 20
183.5520487249
 30
0.0
 10
66.2362614219
 20
184.5147766263
 30
0.0
 10
66.149191032
 20
185.1814938398
 30
0.0
 10
66.1492234355
 20
185.5067304975
 30
0.0
  0
SPLINE
  5
2ED
100
AcDbEntity
  8
0
100
AcDbSpline
 62
7
  6
BYLAYER
 70
0
 71
3
 72
9
 73
5
 74
0
 42
0.0000001
 43
0.0000001
 44
0.0000000001
 40
0.0
 40
0.0
 40
0.0
 40
0.0
 40
0.4773767186
 40
1.0
 40
1.0
 40
1.0
 40
1.0
 10
112.8944163391
 20
150.3775565914
 30
0.0
 10
113.1399257907
 20
150.23581485
 30
0.0
 10
113.6195869257
 20
149.877816176
 30
0.0
 10
114.0272508392
 20
149.4421698226
 30
0.0
 10
114.2215973998
 20
149.2001959188
 30
0.0
  0
SPLINE
  5
2EE
100
AcDbEntity
  8
0
100
AcDbSpline
 62
7
  6
BYLAYER
 70
0
 71
3
 72
9
 73
5
 74
0
 42
0.0000001
 43
0.0000001
 44
0.0000000001
 40
0.0
 40
0.0
 40
0.0
 40
0.0
 40
0.2518831226
 40
1.0
 40
1.0
 40
1.0
 40
1.0
 10
114.7694147972
 20
148.3982343247
 30
0.0
 10
114.8102089827
 20
148.327577102
 30
0.0
 10
114.9668218206
 20
148.0440180224
 30
0.0
 10
115.1022820126
 20
147.7487095067
 30
0.0
 10
115.1900301374
 20
147.5228305251
 30
0.0
  0
SPLINE
  5
2EF
100
AcDbEntity
  8
0
100
AcDbSpline
 62
7
  6
BYLAYER
 70
0
 71
3
 72
9
 73
5
 74
0
 42
0.0000001
 43
0.0000001
 44
0.0000000001
 40
0.0
 40
0.0
 40
0.0
 40
0.0
 40
0.5226225496
 40
1.0
 40
1.0
 40
1.0
 40
1.0
 10
115.1900301374
 20
147.5228305251
 30
0.0
 10
115.3024144099
 20
147.2335338014
 30
0.0
 10
115.4758674607
 20
146.6626609726
 30
0.0
 10
115.5460778084
 20
146.0682600924
 30
0.0
 10
115.5460778084
 20
145.7847696977
 30
0.0
  0
SPLINE
  5
2F0
100
AcDbEntity
  8
0
100
AcDbSpline
 62
7
  6
BYLAYER
 70
0
 71
3
 72
12
 73
8
 74
0
 42
0.0000001
 43
0.0000001
 44
0.0000000001
 40
0.0
 40
0.0
 40
0.0
 40
0.0
 40
0.2895719162
 40
0.5486431553
 40
0.7816383062
 40
0.8918401776
 40
1.0
 40
1.0
 40
1.0
 40
1.0
 10
70.4500473379
 20
189.6197561008
 30
0.0
 10
70.0078319024
 20
189.3644444241
 30
0.0
 10
69.2056852892
 20
188.8119558778
 30
0.0
 10
68.2473128689
 20
187.805407836
 30
0.0
 10
67.7328153955
 20
186.8568541362
 30
0.0
 10
67.5323728971
 20
186.0833109231
 30
0.0
 10
67.4992318444
 20
185.6974574803
 30
0.0
 10
67.4992125127
 20
185.5067304964
 30
0.0
  0
SPLINE
  5
2F1
100
AcDbEntity
  8
0
100
AcDbSpline
 62
7
  6
BYLAYER
 70
0
 71
3
 72
17
 73
13
 74
0
 42
0.0000001
 43
0.0000001
 44
0.0000000001
 40
0.0
 40
0.0
 40
0.0
 40
0.0
 40
0.124398733
 40
0.2607417945
 40
0.4032670334
 40
0.5452264107
 40
0.6799612713
 40
0.8019532922
 40
0.8571773329
 40
0.9083515073
 40
0.9557433049
 40
1.0
 40
1.0
 40
1.0
 40
1.0
 10
70.4500473379
 20
188.3950024751
 30
0.0
 10
71.1284845047
 20
188.7866960179
 30
0.0
 10
72.6519324432
 20
189.4357593149
 30
0.0
 10
75.1395830222
 20
189.9966205463
 30
0.0
 10
77.7950747363
 20
190.1658227178
 30
0.0
 10
80.4354215588
 20
189.9304605736
 30
0.0
 10
82.8791147183
 20
189.3073681915
 30
0.0
 10
84.6753151598
 20
188.4707890809
 30
0.0
 10
85.848054953
 20
187.6316002712
 30
0.0
 10
86.5516865273
 20
186.9605504366
 30
0.0
 10
87.0949161997
 20
186.2382261736
 30
0.0
 10
87.3496615123
 20
185.7149725685
 30
0.0
 10
87.4430574142
 20
185.4523845422
 30
0.0
  0
SPLINE
  5
2F2
100
AcDbEntity
  8
0
100
AcDbSpline
 62
7
  6
BYLAYER
 70
0
 71
3
 72
9
 73
5
 74
0
 42
0.0000001
 43
0.0000001
 44
0.0000000001
 40
0.0
 40
0.0
 40
0.0
 40
0.0
 40
0.2534640341
 40
1.0
 40
1.0
 40
1.0
 40
1.0
 10
87.4430574142
 20
185.4523845422
 30
0.0
 10
87.4638329827
 20
185.3939728196
 30
0.0
 10
87.5401292159
 20
185.161552589
 30
0.0
 10
87.59300848
 20
184.921358113
 30
0.0
 10
87.6178053261
 20
184.7404495996
 30
0.0
  0
SPLINE
  5
2F3
100
AcDbEntity
  8
0
100
AcDbSpline
 62
7
  6
BYLAYER
 70
0
 71
3
 72
12
 73
8
 74
0
 42
0.0000001
 43
0.0000001
 44
0.0000000001
 40
0.0
 40
0.0
 40
0.0
 40
0.0
 40
0.1081590136
 40
0.2183577102
 40
0.4513594284
 40
0.7104167501
 40
1.0
 40
1.0
 40
1.0
 40
1.0
 10
129.1524441426
 20
164.3598594132
 30
0.0
 10
129.1524469555
 20
164.0768468171
 30
0.0
 10
129.1031442935
 20
163.5043101363
 30
0.0
 10
128.805888257
 20
162.3564267348
 30
0.0
 10
128.0422893899
 20
160.9489758013
 30
0.0
 10
126.6202843018
 20
159.455315254
 30
0.0
 10
125.4299694072
 20
158.6355251859
 30
0.0
 10
124.7737519723
 20
158.2566601348
 30
0.0
  0
SPLINE
  5
2F4
100
AcDbEntity
  8
0
100
AcDbSpline
 62
7
  6
BYLAYER
 70
0
 71
3
 72
13
 73
9
 74
0
 42
0.0000001
 43
0.0000001
 44
0.0000000001
 40
0.0
 40
0.0
 40
0.0
 40
0.0
 40
0.258089534
 40
0.5196941465
 40
0.6475395551
 40
0.7711058275
 40
0.8890074542
 40
1.0
 40
1.0
 40
1.0
 40
1.0
 10
108.9757708602
 20
155.0485202943
 30
0.0
 10
110.3415432697
 20
154.7542771973
 30
0.0
 10
113.1493858248
 20
154.4109706134
 30
0.0
 10
116.6681366169
 20
154.5521496482
 30
0.0
 10
119.4097631778
 20
155.0133136371
 30
0.0
 10
121.3467802429
 20
155.5200322083
 30
0.0
 10
123.1401986042
 20
156.1799265769
 30
0.0
 10
124.2534146739
 20
156.731491423
 30
0.0
 10
124.7737519723
 20
157.0319065091
 30
0.0
  0
SPLINE
  5
2F5
100
AcDbEntity
  8
0
100
AcDbSpline
 62
7
  6
BYLAYER
 70
0
 71
3
 72
12
 73
8
 74
0
 42
0.0000001
 43
0.0000001
 44
0.0000000001
 40
0.0
 40
0.0
 40
0.0
 40
0.0
 40
0.2895819689
 40
0.5486374277
 40
0.7816401235
 40
0.8918396279
 40
1.0
 40
1.0
 40
1.0
 40
1.0
 10
124.7737519723
 20
157.0319065091
 30
0.0
 10
125.4299666404
 20
157.4107699628
 30
0.0
 10
126.6202773339
 20
158.2305528434
 30
0.0
 10
128.0422768505
 20
159.7242095459
 30
0.0
 10
128.8058871158
 20
161.1316554661
 30
0.0
 10
129.103143119
 20
162.2795471585
 30
0.0
 10
129.1524525724
 20
162.8520895684
 30
0.0
 10
129.1524459287
 20
163.1351057778
 30
0.0
  0
SPLINE
  5
2F6
100
AcDbEntity
  8
0
100
AcDbSpline
 62
7
  6
BYLAYER
 70
0
 71
3
 72
21
 73
17
 74
0
 42
0.0000001
 43
0.0000001
 44
0.0000000001
 40
0.0
 40
0.0
 40
0.0
 40
0.0
 40
0.0624003568
 40
0.1287842294
 40
0.1984007746
 40
0.2704101996
 40
0.4174487529
 40
0.5616835311
 40
0.6303110758
 40
0.695426729
 40
0.7564009521
 40
0.812863191
 40
0.864785745
 40
0.912580601
 40
0.9571742933
 40
1.0
 40
1.0
 40
1.0
 40
1.0
 10
124.7737519723
 20
158.2566601348
 30
0.0
 10
124.2367143377
 20
157.9466031627
 30
0.0
 10
123.0855567508
 20
157.3791275651
 30
0.0
 10
121.228824127
 20
156.7062089993
 30
0.0
 10
119.222047369
 20
156.1968398532
 30
0.0
 10
116.3855489509
 20
155.7471980434
 30
0.0
 10
112.7586696143
 20
155.6476136772
 30
0.0
 10
109.1969964656
 20
156.147075839
 30
0.0
 10
106.538696875
 20
156.9129179908
 30
0.0
 10
104.7402836795
 20
157.6375142634
 30
0.0
 10
103.1425860871
 20
158.506458213
 30
0.0
 10
101.7789694997
 20
159.5028183081
 30
0.0
 10
100.6785661373
 20
160.6079010053
 30
0.0
 10
99.8666882818
 20
161.8021114499
 30
0.0
 10
99.3663143644
 20
163.0618255373
 30
0.0
 10
99.2524832504
 20
163.9342699145
 30
0.0
 10
99.2524790202
 20
164.3598594165
 30
0.0
  0
SPLINE
  5
2F7
100
AcDbEntity
  8
0
100
AcDbSpline
 62
7
  6
BYLAYER
 70
0
 71
3
 72
12
 73
8
 74
0
 42
0.0000001
 43
0.0000001
 44
0.0000000001
 40
0.0
 40
0.0
 40
0.0
 40
0.0
 40
0.2895820975
 40
0.5486374157
 40
0.7816405376
 40
0.89184001
 40
1.0
 40
1.0
 40
1.0
 40
1.0
 10
105.2575235583
 20
169.5241049595
 30
0.0
 10
104.7022647565
 20
169.2035280544
 30
0.0
 10
103.6950789641
 20
168.5098654729
 30
0.0
 10
102.4918477993
 20
167.2460016038
 30
0.0
 10
101.8457164294
 20
166.0550849506
 30
0.0
 10
101.5941923862
 20
165.0837918427
 30
0.0
 10
101.5524696983
 20
164.5993338256
 30
0.0
 10
101.5524748915
 20
164.3598594218
 30
0.0
  0
SPLINE
  5
2F8
100
AcDbEntity
  8
0
100
AcDbSpline
 62
7
  6
BYLAYER
 70
0
 71
3
 72
11
 73
7
 74
0
 42
0.0000001
 43
0.0000001
 44
0.0000000001
 40
0.0
 40
0.0
 40
0.0
 40
0.0
 40
0.2797083146
 40
0.5378769761
 40
0.7765469033
 40
1.0
 40
1.0
 40
1.0
 40
1.0
 10
123.7640404504
 20
167.9168443496
 30
0.0
 10
124.1361658311
 20
167.668797798
 30
0.0
 10
124.823308456
 20
167.1462841844
 30
0.0
 10
125.6903001331
 20
166.2497768169
 30
0.0
 10
126.3347679068
 20
165.2871822539
 30
0.0
 10
126.612072046
 20
164.5945145005
 30
0.0
 10
126.704324604
 20
164.2493568598
 30
0.0
  0
SPLINE
  5
2F9
100
AcDbEntity
  8
0
100
AcDbSpline
 62
7
  6
BYLAYER
 70
0
 71
3
 72
17
 73
13
 74
0
 42
0.0000001
 43
0.0000001
 44
0.0000000001
 40
0.0
 40
0.0
 40
0.0
 40
0.0
 40
0.1286958631
 40
0.2702808858
 40
0.4174358551
 40
0.561778136
 40
0.6954484112
 40
0.8127115101
 40
0.8646776714
 40
0.9125101075
 40
0.9571398584
 40
1.0
 40
1.0
 40
1.0
 40
1.0
 10
53.2853423588
 20
122.3848646848
 30
0.0
 10
53.2853423588
 20
122.8037163186
 30
0.0
 10
53.1681775965
 20
123.6843758642
 30
0.0
 10
52.7307987312
 20
124.9774068101
 30
0.0
 10
52.0569328142
 20
126.2230112511
 30
0.0
 10
51.2006583335
 20
127.3190472566
 30
0.0
 10
50.2319545564
 20
128.1770018115
 30
0.0
 10
49.3551202304
 20
128.6563403013
 30
0.0
 10
48.6692586976
 20
128.8389162957
 30
0.0
 10
48.1971975215
 20
128.873527351
 30
0.0
 10
47.7576191295
 20
128.8092065277
 30
0.0
 10
47.4913458565
 20
128.6984751476
 30
0.0
 10
47.3705300165
 20
128.6287503716
 30
0.0
  0
SPLINE
  5
2FA
100
AcDbEntity
  8
0
100
AcDbSpline
 62
7
  6
BYLAYER
 70
0
 71
3
 72
11
 73
7
 74
0
 42
0.0000001
 43
0.0000001
 44
0.0000000001
 40
0.0
 40
0.0
 40
0.0
 40
0.0
 40
0.2177793583
 40
0.450922273
 40
0.7102594722
 40
1.0
 40
1.0
 40
1.0
 40
1.0
 10
52.2704793947
 20
120.1417383923
 30
0.0
 10
52.4321273875
 20
120.2350280644
 30
0.0
 10
52.734523665
 20
120.4893134168
 30
0.0
 10
53.0564716935
 20
121.0156723123
 30
0.0
 10
53.2477524173
 20
121.6643959889
 30
0.0
 10
53.2853423588
 20
122.1365581208
 30
0.0
 10
53.2853423588
 20
122.3848646848
 30
0.0
  0
SPLINE
  5
2FB
100
AcDbEntity
  8
0
100
AcDbSpline
 62
7
  6
BYLAYER
 70
0
 71
3
 72
11
 73
7
 74
0
 42
0.0000001
 43
0.0000001
 44
0.0000000001
 40
0.0
 40
0.0
 40
0.0
 40
0.0
 40
0.2176907916
 40
0.4508868986
 40
0.7106214304
 40
1.0
 40
1.0
 40
1.0
 40
1.0
 10
33.175519913
 20
94.780643409
 30
0.0
 10
33.2249989047
 20
94.8091600234
 30
0.0
 10
33.3175816248
 20
94.8869655846
 30
0.0
 10
33.4162434264
 20
95.048158648
 30
0.0
 10
33.4745503446
 20
95.2468360205
 30
0.0
 10
33.4862200073
 20
95.3913517537
 30
0.0
 10
33.4862200073
 20
95.4672665104
 30
0.0
  0
SPLINE
  5
2FC
100
AcDbEntity
  8
0
100
AcDbSpline
 62
7
  6
BYLAYER
 70
0
 71
3
 72
9
 73
5
 74
0
 42
0.0000001
 43
0.0000001
 44
0.0000000001
 40
0.0
 40
0.0
 40
0.0
 40
0.0
 40
0.2394135939
 40
1.0
 40
1.0
 40
1.0
 40
1.0
 10
33.4541921191
 20
95.3663007846
 30
0.0
 10
33.4326880431
 20
95.3769857736
 30
0.0
 10
33.34413697
 20
95.4241545015
 30
0.0
 10
33.2607196095
 20
95.4807170807
 30
0.0
 10
33.2004470195
 20
95.5274771343
 30
0.0
  0
SPLINE
  5
2FD
100
AcDbEntity
  8
0
100
AcDbSpline
 62
7
  6
BYLAYER
 70
0
 71
3
 72
11
 73
7
 74
0
 42
0.0000001
 43
0.0000001
 44
0.0000000001
 40
0.0
 40
0.0
 40
0.0
 40
0.0
 40
0.2469504484
 40
0.5096334738
 40
0.7671920752
 40
1.0
 40
1.0
 40
1.0
 40
1.0
 10
33.2004470195
 20
95.5274771343
 30
0.0
 10
33.0714320585
 20
95.627568179
 30
0.0
 10
32.8324935423
 20
95.8701701973
 30
0.0
 10
32.5556546183
 20
96.2989210969
 30
0.0
 10
32.3709265056
 20
96.7646369528
 30
0.0
 10
32.3194810121
 20
97.0891813608
 30
0.0
 10
32.3194810121
 20
97.2431183816
 30
0.0
  0
SPLINE
  5
2FE
100
AcDbEntity
  8
0
100
AcDbSpline
 62
7
  6
BYLAYER
 70
0
 71
3
 72
13
 73
9
 74
0
 42
0.0000001
 43
0.0000001
 44
0.0000000001
 40
0.0
 40
0.0
 40
0.0
 40
0.0
 40
0.1142259181
 40
0.2375599982
 40
0.5000010158
 40
0.7624414734
 40
0.8857749255
 40
1.0
 40
1.0
 40
1.0
 40
1.0
 10
115.5460778084
 20
145.7847696977
 30
0.0
 10
115.5460778084
 20
145.9943214603
 30
0.0
 10
115.5076326121
 20
146.4305681071
 30
0.0
 10
115.2992385892
 20
147.326109213
 30
0.0
 10
114.8149123903
 20
148.4245008535
 30
0.0
 10
114.1058367485
 20
149.3931315442
 30
0.0
 10
113.4344711157
 20
150.0213698336
 30
0.0
 10
113.0758931749
 20
150.2727832617
 30
0.0
 10
112.8944163391
 20
150.3775565914
 30
0.0
  0
SPLINE
  5
2FF
100
AcDbEntity
  8
0
100
AcDbSpline
 62
7
  6
BYLAYER
 70
0
 71
3
 72
11
 73
7
 74
0
 42
0.0000001
 43
0.0000001
 44
0.0000000001
 40
0.0
 40
0.0
 40
0.0
 40
0.0
 40
0.289702329
 40
0.5490881649
 40
0.7822156415
 40
1.0
 40
1.0
 40
1.0
 40
1.0
 10
53.0022226191
 20
184.9555484993
 30
0.0
 10
52.8376770288
 20
185.050546791
 30
0.0
 10
52.5103427911
 20
185.2062661051
 30
0.0
 10
52.0072235545
 20
185.3277603865
 30
0.0
 10
51.5351505225
 20
185.315807583
 30
0.0
 10
51.2509373515
 20
185.2126644224
 30
0.0
 10
51.1272403692
 20
185.1412483405
 30
0.0
  0
SPLINE
  5
300
100
AcDbEntity
  8
0
100
AcDbSpline
 62
7
  6
BYLAYER
 70
0
 71
3
 72
11
 73
7
 74
0
 42
0.0000001
 43
0.0000001
 44
0.0000000001
 40
0.0
 40
0.0
 40
0.0
 40
0.0
 40
0.2177833598
 40
0.4509104088
 40
0.7102966711
 40
1.0
 40
1.0
 40
1.0
 40
1.0
 10
114.7693985889
 20
30.7375531241
 30
0.0
 10
114.8930983102
 20
30.8089707874
 30
0.0
 10
115.1245354045
 20
31.0035394908
 30
0.0
 10
115.3709276212
 20
31.4064019841
 30
0.0
 10
115.5172701081
 20
31.9028783481
 30
0.0
 10
115.5460778084
 20
32.2642286587
 30
0.0
 10
115.5460778084
 20
32.4542342001
 30
0.0
  0
SPLINE
  5
301
100
AcDbEntity
  8
0
100
AcDbSpline
 62
7
  6
BYLAYER
 70
0
 71
3
 72
11
 73
7
 74
0
 42
0.0000001
 43
0.0000001
 44
0.0000000001
 40
0.0
 40
0.0
 40
0.0
 40
0.0
 40
0.2416011494
 40
0.4950372357
 40
0.7510422929
 40
1.0
 40
1.0
 40
1.0
 40
1.0
 10
69.6005412487
 20
151.2292258313
 30
0.0
 10
69.5405540072
 20
151.5414860226
 30
0.0
 10
69.3624118309
 20
152.1714126469
 30
0.0
 10
68.9586165549
 20
153.0768697537
 30
0.0
 10
68.430862835
 20
153.9275302117
 30
0.0
 10
68.0040972215
 20
154.4406075874
 30
0.0
 10
67.7755346189
 20
154.6753732058
 30
0.0
  0
SPLINE
  5
302
100
AcDbEntity
  8
0
100
AcDbSpline
 62
7
  6
BYLAYER
 70
0
 71
3
 72
13
 73
9
 74
0
 42
0.0000001
 43
0.0000001
 44
0.0000000001
 40
0.0
 40
0.0
 40
0.0
 40
0.0
 40
0.3045433021
 40
0.5716435588
 40
0.6901836365
 40
0.7995120058
 40
0.9017116354
 40
1.0
 40
1.0
 40
1.0
 40
1.0
 10
67.7755346189
 20
154.6753732058
 30
0.0
 10
67.5187891861
 20
154.9390865151
 30
0.0
 10
66.9922153172
 20
155.3935114334
 30
0.0
 10
66.2455751556
 20
155.7897357946
 30
0.0
 10
65.6631303143
 20
155.937705129
 30
0.0
 10
65.2623269176
 20
155.9634579742
 30
0.0
 10
64.8891212081
 20
155.9061140015
 30
0.0
 10
64.6628138172
 20
155.8115217068
 30
0.0
 10
64.5599505467
 20
155.7521151998
 30
0.0
  0
SPLINE
  5
303
100
AcDbEntity
  8
0
100
AcDbSpline
 62
7
  6
BYLAYER
 70
0
 71
3
 72
15
 73
11
 74
0
 42
0.0000001
 43
0.0000001
 44
0.0000000001
 40
0.0
 40
0.0
 40
0.0
 40
0.0
 40
0.1287972074
 40
0.2706054898
 40
0.4178799053
 40
0.562375555
 40
0.6961915357
 40
0.8135903033
 40
0.913065596
 40
1.0
 40
1.0
 40
1.0
 40
1.0
 10
33.4862200073
 20
95.4672665104
 30
0.0
 10
33.4862200073
 20
95.5954460203
 30
0.0
 10
33.450280614
 20
95.8650484597
 30
0.0
 10
33.3165189122
 20
96.2608958935
 30
0.0
 10
33.1100928623
 20
96.6421829681
 30
0.0
 10
32.8481277943
 20
96.9776285281
 30
0.0
 10
32.5512990337
 20
97.2404714507
 30
0.0
 10
32.2417711481
 20
97.4095734055
 30
0.0
 10
31.9387312522
 20
97.4703302033
 30
0.0
 10
31.7505500988
 20
97.4218136818
 30
0.0
 10
31.6755909262
 20
97.3786118753
 30
0.0
  0
SPLINE
  5
304
100
AcDbEntity
  8
0
100
AcDbSpline
 62
7
  6
BYLAYER
 70
0
 71
3
 72
12
 73
8
 74
0
 42
0.0000001
 43
0.0000001
 44
0.0000000001
 40
0.0
 40
0.0
 40
0.0
 40
0.0
 40
0.1108602496
 40
0.2324027305
 40
0.4940442935
 40
0.7574862632
 40
1.0
 40
1.0
 40
1.0
 40
1.0
 10
79.7666015656
 20
117.7812126783
 30
0.0
 10
79.8553032224
 20
117.7299957714
 30
0.0
 10
80.0298077946
 20
117.6024056928
 30
0.0
 10
80.3520237335
 20
117.2773038775
 30
0.0
 10
80.6817772841
 20
116.7709043665
 30
0.0
 10
80.9336643342
 20
116.1035678001
 30
0.0
 10
81.0040290995
 20
115.6356072012
 30
0.0
 10
81.0040435846
 20
115.4115431665
 30
0.0
  0
SPLINE
  5
305
100
AcDbEntity
  8
0
100
AcDbSpline
 62
7
  6
BYLAYER
 70
0
 71
3
 72
11
 73
7
 74
0
 42
0.0000001
 43
0.0000001
 44
0.0000000001
 40
0.0
 40
0.0
 40
0.0
 40
0.0
 40
0.2391692599
 40
0.4941729844
 40
0.7521888275
 40
1.0
 40
1.0
 40
1.0
 40
1.0
 10
66.0313282693
 20
147.8150696765
 30
0.0
 10
65.63800344
 20
148.1161719221
 30
0.0
 10
64.8914725479
 20
148.8269128688
 30
0.0
 10
63.95863173
 20
150.0825850134
 30
0.0
 10
63.2273428427
 20
151.4855098974
 30
0.0
 10
62.8986731288
 20
152.4870005757
 30
0.0
 10
62.7866938003
 20
152.9878794774
 30
0.0
  0
SPLINE
  5
306
100
AcDbEntity
  8
0
100
AcDbSpline
 62
7
  6
BYLAYER
 70
0
 71
3
 72
8
 73
4
 74
0
 42
0.0000001
 43
0.0000001
 44
0.0000000001
 40
0.0
 40
0.0
 40
0.0
 40
0.0
 40
1.0
 40
1.0
 40
1.0
 40
1.0
 10
18.0511735011
 20
63.0312693112
 30
0.0
 10
18.0511734805
 20
62.9718458541
 30
0.0
 10
18.0596754132
 20
62.9119836002
 30
0.0
 10
18.0752114808
 20
62.8546270151
 30
0.0
  0
SPLINE
  5
307
100
AcDbEntity
  8
0
100
AcDbSpline
 62
7
  6
BYLAYER
 70
0
 71
3
 72
11
 73
7
 74
0
 42
0.0000001
 43
0.0000001
 44
0.0000000001
 40
0.0
 40
0.0
 40
0.0
 40
0.0
 40
0.2316247805
 40
0.4757847092
 40
0.7331764449
 40
1.0
 40
1.0
 40
1.0
 40
1.0
 10
18.0752114808
 20
62.8546270151
 30
0.0
 10
18.0928123851
 20
62.7896473952
 30
0.0
 10
18.1476834053
 20
62.6607558536
 30
0.0
 10
18.276024928
 20
62.488675516
 30
0.0
 10
18.4424388213
 20
62.3381322899
 30
0.0
 10
18.5698037628
 20
62.2535561889
 30
0.0
 10
18.6369658266
 20
62.2147810324
 30
0.0
  0
SPLINE
  5
308
100
AcDbEntity
  8
0
100
AcDbSpline
 62
7
  6
BYLAYER
 70
0
 71
3
 72
11
 73
7
 74
0
 42
0.0000001
 43
0.0000001
 44
0.0000000001
 40
0.0
 40
0.0
 40
0.0
 40
0.0
 40
0.2176907916
 40
0.4508868986
 40
0.7106214304
 40
1.0
 40
1.0
 40
1.0
 40
1.0
 10
31.6755909262
 20
97.3786118753
 30
0.0
 10
31.6261119345
 20
97.3500952608
 30
0.0
 10
31.5335292143
 20
97.2722896997
 30
0.0
 10
31.4348674127
 20
97.1110966362
 30
0.0
 10
31.3765604945
 20
96.9124192637
 30
0.0
 10
31.3648908318
 20
96.7679035306
 30
0.0
 10
31.3648908318
 20
96.6919887739
 30
0.0
  0
SPLINE
  5
309
100
AcDbEntity
  8
0
100
AcDbSpline
 62
7
  6
BYLAYER
 70
0
 71
3
 72
17
 73
13
 74
0
 42
0.0000001
 43
0.0000001
 44
0.0000000001
 40
0.0
 40
0.0
 40
0.0
 40
0.0
 40
0.1286958631
 40
0.2702808858
 40
0.4174358551
 40
0.561778136
 40
0.6954484112
 40
0.8127115101
 40
0.8646776714
 40
0.9125101075
 40
0.9571398584
 40
1.0
 40
1.0
 40
1.0
 40
1.0
 10
46.3556670524
 20
126.3856240791
 30
0.0
 10
46.3556670524
 20
125.9667724453
 30
0.0
 10
46.4728318147
 20
125.0861128997
 30
0.0
 10
46.91021068
 20
123.7930819538
 30
0.0
 10
47.584076597
 20
122.5474775127
 30
0.0
 10
48.4403510777
 20
121.4514415073
 30
0.0
 10
49.4090548549
 20
120.5934869523
 30
0.0
 10
50.2858891808
 20
120.1141484626
 30
0.0
 10
50.9717507137
 20
119.9315724682
 30
0.0
 10
51.4438118898
 20
119.8969614129
 30
0.0
 10
51.8833902817
 20
119.9612822362
 30
0.0
 10
52.1496635547
 20
120.0720136162
 30
0.0
 10
52.2704793947
 20
120.1417383923
 30
0.0
  0
SPLINE
  5
30A
100
AcDbEntity
  8
0
100
AcDbSpline
 62
7
  6
BYLAYER
 70
0
 71
3
 72
13
 73
9
 74
0
 42
0.0000001
 43
0.0000001
 44
0.0000000001
 40
0.0
 40
0.0
 40
0.0
 40
0.0
 40
0.0905285425
 40
0.1833875513
 40
0.2841260654
 40
0.3969120221
 40
0.6670865519
 40
1.0
 40
1.0
 40
1.0
 40
1.0
 10
18.7267902683
 20
154.3219223283
 30
0.0
 10
18.7644931036
 20
154.369089599
 30
0.0
 10
18.8546174176
 20
154.4546693849
 30
0.0
 10
19.0257145398
 20
154.541468387
 30
0.0
 10
19.2273671108
 20
154.5848013802
 30
0.0
 10
19.5518476343
 20
154.5850835369
 30
0.0
 10
20.0201324133
 20
154.4626471583
 30
0.0
 10
20.3824317281
 20
154.2842523717
 30
0.0
 10
20.5747364301
 20
154.1732149023
 30
0.0
  0
SPLINE
  5
30B
100
AcDbEntity
  8
0
100
AcDbSpline
 62
7
  6
BYLAYER
 70
0
 71
3
 72
13
 73
9
 74
0
 42
0.0000001
 43
0.0000001
 44
0.0000000001
 40
0.0
 40
0.0
 40
0.0
 40
0.0
 40
0.226899895
 40
0.36022061
 40
0.5000005246
 40
0.639780358
 40
0.7731008468
 40
1.0
 40
1.0
 40
1.0
 40
1.0
 10
81.0040435846
 20
26.2079465317
 30
0.0
 10
81.1962643736
 20
26.0969703181
 30
0.0
 10
81.5321853353
 20
25.9722708661
 30
0.0
 10
82.0140330318
 20
25.8861358796
 30
0.0
 10
82.4182595254
 20
25.8613640156
 30
0.0
 10
82.8224856853
 20
25.8861377968
 30
0.0
 10
83.3043319302
 20
25.9722750289
 30
0.0
 10
83.640251349
 20
26.0969760935
 30
0.0
 10
83.8324707093
 20
26.2079533304
 30
0.0
  0
SPLINE
  5
30C
100
AcDbEntity
  8
0
100
AcDbSpline
 62
7
  6
BYLAYER
 70
0
 71
3
 72
13
 73
9
 74
0
 42
0.0000001
 43
0.0000001
 44
0.0000000001
 40
0.0
 40
0.0
 40
0.0
 40
0.0
 40
0.2813812704
 40
0.5354039014
 40
0.6542714704
 40
0.7696178591
 40
0.8839277317
 40
1.0
 40
1.0
 40
1.0
 40
1.0
 10
83.8324707093
 20
26.2079533304
 30
0.0
 10
83.7638562793
 20
25.8737100642
 30
0.0
 10
83.5586822907
 20
25.2488186316
 30
0.0
 10
83.0891932052
 20
24.5885087354
 30
0.0
 10
82.6197226656
 20
24.221604406
 30
0.0
 10
82.2368355487
 20
24.0348470509
 30
0.0
 10
81.8255617529
 20
23.9375499311
 30
0.0
 10
81.5435472708
 20
23.9354598255
 30
0.0
 10
81.4034615869
 20
23.9491546943
 30
0.0
  0
SPLINE
  5
30D
100
AcDbEntity
  8
0
100
AcDbSpline
 62
7
  6
BYLAYER
 70
0
 71
3
 72
16
 73
12
 74
0
 42
0.0000001
 43
0.0000001
 44
0.0000000001
 40
0.0
 40
0.0
 40
0.0
 40
0.0
 40
0.0905920655
 40
0.1413937145
 40
0.1962848865
 40
0.3178582462
 40
0.4525934237
 40
0.5949209595
 40
0.7380560016
 40
0.875058877
 40
1.0
 40
1.0
 40
1.0
 40
1.0
 10
52.2168501052
 20
120.2020615096
 30
0.0
 10
51.9441557302
 20
120.1415337402
 30
0.0
 10
51.4936553855
 20
120.149007589
 30
0.0
 10
50.9088763297
 20
120.307734697
 30
0.0
 10
50.2635030826
 20
120.5870566408
 30
0.0
 10
49.464411502
 20
121.1334458818
 30
0.0
 10
48.5948194421
 20
122.0102078813
 30
0.0
 10
47.8407971712
 20
123.0704977919
 30
0.0
 10
47.2553619909
 20
124.2401823058
 30
0.0
 10
46.8791661445
 20
125.4367250552
 30
0.0
 10
46.7799293547
 20
126.2453278427
 30
0.0
 10
46.7799293547
 20
126.6305705714
 30
0.0
  0
SPLINE
  5
30E
100
AcDbEntity
  8
0
100
AcDbSpline
 62
7
  6
BYLAYER
 70
0
 71
3
 72
11
 73
7
 74
0
 42
0.0000001
 43
0.0000001
 44
0.0000000001
 40
0.0
 40
0.0
 40
0.0
 40
0.0
 40
0.2177793583
 40
0.450922273
 40
0.7102594722
 40
1.0
 40
1.0
 40
1.0
 40
1.0
 10
47.3705300165
 20
128.6287503716
 30
0.0
 10
47.2088820237
 20
128.5354606995
 30
0.0
 10
46.9064857462
 20
128.2811753471
 30
0.0
 10
46.5845377177
 20
127.7548164515
 30
0.0
 10
46.3932569939
 20
127.106092775
 30
0.0
 10
46.3556670524
 20
126.6339306431
 30
0.0
 10
46.3556670524
 20
126.3856240791
 30
0.0
  0
SPLINE
  5
30F
100
AcDbEntity
  8
0
100
AcDbSpline
 62
7
  6
BYLAYER
 70
0
 71
3
 72
11
 73
7
 74
0
 42
0.0000001
 43
0.0000001
 44
0.0000000001
 40
0.0
 40
0.0
 40
0.0
 40
0.0
 40
0.2897003537
 40
0.5490843943
 40
0.7822141087
 40
1.0
 40
1.0
 40
1.0
 40
1.0
 10
101.6981229163
 20
24.4591614397
 30
0.0
 10
101.6981229163
 20
24.2691567643
 30
0.0
 10
101.6693202622
 20
23.9078075131
 30
0.0
 10
101.5229812321
 20
23.411329001
 30
0.0
 10
101.2765946063
 20
23.0084578071
 30
0.0
 10
101.0451549353
 20
22.813883031
 30
0.0
 10
100.9214530529
 20
22.7424641586
 30
0.0
  0
SPLINE
  5
310
100
AcDbEntity
  8
0
100
AcDbSpline
 62
7
  6
BYLAYER
 70
0
 71
3
 72
11
 73
7
 74
0
 42
0.0000001
 43
0.0000001
 44
0.0000000001
 40
0.0
 40
0.0
 40
0.0
 40
0.0
 40
0.2177868453
 40
0.4509169606
 40
0.7103006453
 40
1.0
 40
1.0
 40
1.0
 40
1.0
 10
37.2792761212
 20
177.1461917851
 30
0.0
 10
37.4029752387
 20
177.2176090612
 30
0.0
 10
37.6871948506
 20
177.3207515052
 30
0.0
 10
38.1592726469
 20
177.3326951117
 30
0.0
 10
38.6623920221
 20
177.2111967163
 30
0.0
 10
38.9897228868
 20
177.0554735975
 30
0.0
 10
39.1542677271
 20
176.9604757388
 30
0.0
  0
SPLINE
  5
311
100
AcDbEntity
  8
0
100
AcDbSpline
 62
7
  6
BYLAYER
 70
0
 71
3
 72
9
 73
5
 74
0
 42
0.0000001
 43
0.0000001
 44
0.0000000001
 40
0.0
 40
0.0
 40
0.0
 40
0.0
 40
0.522738111
 40
1.0
 40
1.0
 40
1.0
 40
1.0
 10
97.7079381478
 20
141.1909535369
 30
0.0
 10
97.9035818581
 20
141.4360128078
 30
0.0
 10
98.3143178215
 20
141.8771283173
 30
0.0
 10
98.798520639
 20
142.2393359932
 30
0.0
 10
99.046461447
 20
142.3824838309
 30
0.0
  0
SPLINE
  5
312
100
AcDbEntity
  8
0
100
AcDbSpline
 62
7
  6
BYLAYER
 70
0
 71
3
 72
13
 73
9
 74
0
 42
0.0000001
 43
0.0000001
 44
0.0000000001
 40
0.0
 40
0.0
 40
0.0
 40
0.0
 40
0.1142234676
 40
0.237555398
 40
0.4999989155
 40
0.7624430267
 40
0.8857756506
 40
1.0
 40
1.0
 40
1.0
 40
1.0
 10
99.046461447
 20
142.3824838309
 30
0.0
 10
99.2279359145
 20
142.2777118685
 30
0.0
 10
99.5865123229
 20
142.0263057734
 30
0.0
 10
100.2578813863
 20
141.3980697976
 30
0.0
 10
100.9669703577
 20
140.4294358941
 30
0.0
 10
101.4512928688
 20
139.3310310391
 30
0.0
 10
101.6596832227
 20
138.435487874
 30
0.0
 10
101.6981229163
 20
137.9992460352
 30
0.0
 10
101.6981229163
 20
137.7896969372
 30
0.0
  0
SPLINE
  5
313
100
AcDbEntity
  8
0
100
AcDbSpline
 62
7
  6
BYLAYER
 70
0
 71
3
 72
12
 73
8
 74
0
 42
0.0000001
 43
0.0000001
 44
0.0000000001
 40
0.0
 40
0.0
 40
0.0
 40
0.0
 40
0.0953866593
 40
0.2082247022
 40
0.469685045
 40
0.7470430263
 40
1.0
 40
1.0
 40
1.0
 40
1.0
 10
101.6981229164
 20
137.7896969372
 30
0.0
 10
101.6005959807
 20
137.9259738865
 30
0.0
 10
101.3707922011
 20
138.2113350179
 30
0.0
 10
100.8100042604
 20
138.8171216184
 30
0.0
 10
99.9653696102
 20
139.5928406478
 30
0.0
 10
98.8705694998
 20
140.4524246107
 30
0.0
 10
98.0928073475
 20
140.9687542277
 30
0.0
 10
97.7079381443
 20
141.1909535388
 30
0.0
  0
SPLINE
  5
314
100
AcDbEntity
  8
0
100
AcDbSpline
 62
7
  6
BYLAYER
 70
0
 71
3
 72
11
 73
7
 74
0
 42
0.0000001
 43
0.0000001
 44
0.0000000001
 40
0.0
 40
0.0
 40
0.0
 40
0.0
 40
0.2400965685
 40
0.4846012889
 40
0.7371202592
 40
1.0
 40
1.0
 40
1.0
 40
1.0
 10
98.6814156697
 20
22.2578735136
 30
0.0
 10
98.8552957003
 20
22.2408697166
 30
0.0
 10
99.2113558914
 20
22.2463135812
 30
0.0
 10
99.7366776661
 20
22.3730295456
 30
0.0
 10
100.2388440307
 20
22.6131863867
 30
0.0
 10
100.5416080682
 20
22.8387603627
 30
0.0
 10
100.6844902097
 20
22.9659443533
 30
0.0
  0
SPLINE
  5
315
100
AcDbEntity
  8
0
100
AcDbSpline
 62
7
  6
BYLAYER
 70
0
 71
3
 72
9
 73
5
 74
0
 42
0.0000001
 43
0.0000001
 44
0.0000000001
 40
0.0
 40
0.0
 40
0.0
 40
0.0
 40
0.4870595868
 40
1.0
 40
1.0
 40
1.0
 40
1.0
 10
100.6844902097
 20
22.9659443533
 30
0.0
 10
100.9048542942
 20
23.1620975139
 30
0.0
 10
101.3040382494
 20
23.6270672836
 30
0.0
 10
101.5847696122
 20
24.1698815498
 30
0.0
 10
101.6981229163
 20
24.4591614397
 30
0.0
  0
SPLINE
  5
316
100
AcDbEntity
  8
0
100
AcDbSpline
 62
7
  6
BYLAYER
 70
0
 71
3
 72
14
 73
10
 74
0
 42
0.0000001
 43
0.0000001
 44
0.0000000001
 40
0.0
 40
0.0
 40
0.0
 40
0.0
 40
0.2870811293
 40
0.4106262032
 40
0.5230159681
 40
0.6302745489
 40
0.7406887129
 40
0.8624321951
 40
1.0
 40
1.0
 40
1.0
 40
1.0
 10
81.00404416
 20
26.2079461995
 30
0.0
 10
81.0040243552
 20
26.0180048262
 30
0.0
 10
80.9690043747
 20
25.7409647452
 30
0.0
 10
80.8190328022
 20
25.4260169466
 30
0.0
 10
80.6680481446
 20
25.251540374
 30
0.0
 10
80.4738535055
 20
25.1417802974
 30
0.0
 10
80.2473389729
 20
25.1068439584
 30
0.0
 10
80.0031161344
 20
25.1499244402
 30
0.0
 10
79.8454317782
 20
25.2216190659
 30
0.0
 10
79.7666015657
 20
25.2671189963
 30
0.0
  0
SPLINE
  5
317
100
AcDbEntity
  8
0
100
AcDbSpline
 62
7
  6
BYLAYER
 70
0
 71
3
 72
12
 73
8
 74
0
 42
0.0000001
 43
0.0000001
 44
0.0000000001
 40
0.0
 40
0.0
 40
0.0
 40
0.0
 40
0.1108602496
 40
0.2324027305
 40
0.4940442935
 40
0.7574862632
 40
1.0
 40
1.0
 40
1.0
 40
1.0
 10
19.8744078456
 20
59.8451115686
 30
0.0
 10
19.7857061888
 20
59.8963284755
 30
0.0
 10
19.6112016166
 20
60.0239185541
 30
0.0
 10
19.2889856777
 20
60.3490203694
 30
0.0
 10
18.9592321271
 20
60.8554198804
 30
0.0
 10
18.707345077
 20
61.5227564468
 30
0.0
 10
18.6369803117
 20
61.9907170457
 30
0.0
 10
18.6369658266
 20
62.2147810804
 30
0.0
  0
SPLINE
  5
318
100
AcDbEntity
  8
0
100
AcDbSpline
 62
7
  6
BYLAYER
 70
0
 71
3
 72
9
 73
5
 74
0
 42
0.0000001
 43
0.0000001
 44
0.0000000001
 40
0.0
 40
0.0
 40
0.0
 40
0.0
 40
0.477261889
 40
1.0
 40
1.0
 40
1.0
 40
1.0
 10
39.1542677271
 20
176.9604757388
 30
0.0
 10
38.9063269191
 20
176.817327901
 30
0.0
 10
38.4221241016
 20
176.4551202252
 30
0.0
 10
38.0113881382
 20
176.0140047157
 30
0.0
 10
37.8157444278
 20
175.7689454447
 30
0.0
  0
SPLINE
  5
319
100
AcDbEntity
  8
0
100
AcDbSpline
 62
7
  6
BYLAYER
 70
0
 71
3
 72
15
 73
11
 74
0
 42
0.0000001
 43
0.0000001
 44
0.0000000001
 40
0.0
 40
0.0
 40
0.0
 40
0.0
 40
0.1990842392
 40
0.379469812
 40
0.5385702726
 40
0.674826172
 40
0.7874671733
 40
0.8768127987
 40
0.9452916842
 40
1.0
 40
1.0
 40
1.0
 40
1.0
 10
37.8157444312
 20
175.7689454428
 30
0.0
 10
37.7164381437
 20
175.8262786576
 30
0.0
 10
37.5252193268
 20
175.9322750594
 30
0.0
 10
37.2476568689
 20
176.0710334303
 30
0.0
 10
36.9961940521
 20
176.1803417736
 30
0.0
 10
36.7744333867
 20
176.2587890687
 30
0.0
 10
36.5848661607
 20
176.3058274561
 30
0.0
 10
36.4291121887
 20
176.3207726987
 30
0.0
 10
36.3057913078
 20
176.3040041612
 30
0.0
 10
36.2433677675
 20
176.2628374441
 30
0.0
 10
36.2237012415
 20
176.2382170979
 30
0.0
  0
SPLINE
  5
31A
100
AcDbEntity
  8
0
100
AcDbSpline
 62
7
  6
BYLAYER
 70
0
 71
3
 72
11
 73
7
 74
0
 42
0.0000001
 43
0.0000001
 44
0.0000000001
 40
0.0
 40
0.0
 40
0.0
 40
0.0
 40
0.2290743709
 40
0.4696222772
 40
0.7281656591
 40
1.0
 40
1.0
 40
1.0
 40
1.0
 10
80.181518475
 20
24.3531337072
 30
0.0
 10
80.1122771843
 20
24.3933270065
 30
0.0
 10
79.9836070041
 20
24.5014355072
 30
0.0
 10
79.8530180023
 20
24.7243791382
 30
0.0
 10
79.7813114508
 20
24.9863140334
 30
0.0
 10
79.7666022508
 20
25.1721130798
 30
0.0
 10
79.7666022018
 20
25.2671192934
 30
0.0
  0
SPLINE
  5
31B
100
AcDbEntity
  8
0
100
AcDbSpline
 62
7
  6
BYLAYER
 70
0
 71
3
 72
11
 73
7
 74
0
 42
0.0000001
 43
0.0000001
 44
0.0000000001
 40
0.0
 40
0.0
 40
0.0
 40
0.0
 40
0.2713963903
 40
0.5295277294
 40
0.7709715121
 40
1.0
 40
1.0
 40
1.0
 40
1.0
 10
18.6369658266
 20
151.4183777152
 30
0.0
 10
18.5547751377
 20
151.465829458
 30
0.0
 10
18.4010706279
 20
151.5708297825
 30
0.0
 10
18.2099887621
 20
151.7643609245
 30
0.0
 10
18.0831535652
 20
151.9893172233
 30
0.0
 10
18.0511734734
 20
152.1547766355
 30
0.0
 10
18.0511735011
 20
152.2348660229
 30
0.0
  0
SPLINE
  5
31C
100
AcDbEntity
  8
0
100
AcDbSpline
 62
7
  6
BYLAYER
 70
0
 71
3
 72
11
 73
7
 74
0
 42
0.0000001
 43
0.0000001
 44
0.0000000001
 40
0.0
 40
0.0
 40
0.0
 40
0.0
 40
0.2828877696
 40
0.5425444934
 40
0.7800203838
 40
1.0
 40
1.0
 40
1.0
 40
1.0
 10
46.7799293547
 20
126.6305705714
 30
0.0
 10
46.7799293547
 20
126.8290917226
 30
0.0
 10
46.8044330237
 20
127.2105621525
 30
0.0
 10
46.924924888
 20
127.7472537279
 30
0.0
 10
47.1265637369
 20
128.2120066684
 30
0.0
 10
47.3193344231
 20
128.4733633848
 30
0.0
 10
47.4264638415
 20
128.5845151636
 30
0.0
  0
SPLINE
  5
31D
100
AcDbEntity
  8
0
100
AcDbSpline
 62
7
  6
BYLAYER
 70
0
 71
3
 72
9
 73
5
 74
0
 42
0.0000001
 43
0.0000001
 44
0.0000000001
 40
0.0
 40
0.0
 40
0.0
 40
0.0
 40
0.2522882617
 40
1.0
 40
1.0
 40
1.0
 40
1.0
 10
47.4264638415
 20
128.5845151636
 30
0.0
 10
47.4427947771
 20
128.6014592726
 30
0.0
 10
47.5088535161
 20
128.6673261002
 30
0.0
 10
47.580262459
 20
128.7278483406
 30
0.0
 10
47.6362279927
 20
128.7694687263
 30
0.0
  0
SPLINE
  5
31E
100
AcDbEntity
  8
0
100
AcDbSpline
 62
7
  6
BYLAYER
 70
0
 71
3
 72
11
 73
7
 74
0
 42
0.0000001
 43
0.0000001
 44
0.0000000001
 40
0.0
 40
0.0
 40
0.0
 40
0.0
 40
0.2713469935
 40
0.5411421426
 40
0.7879693306
 40
1.0
 40
1.0
 40
1.0
 40
1.0
 10
20.5747350636
 20
154.1732156915
 30
0.0
 10
20.4632102331
 20
154.0335219205
 30
0.0
 10
20.2649386725
 20
153.735293161
 30
0.0
 10
20.0409739841
 20
153.2647910692
 30
0.0
 10
19.9083279572
 20
152.8013255057
 30
0.0
 10
19.8744071374
 20
152.4988815449
 30
0.0
 10
19.8744072094
 20
152.3592049534
 30
0.0
  0
SPLINE
  5
31F
100
AcDbEntity
  8
0
100
AcDbSpline
 62
7
  6
BYLAYER
 70
0
 71
3
 72
14
 73
10
 74
0
 42
0.0000001
 43
0.0000001
 44
0.0000000001
 40
0.0
 40
0.0
 40
0.0
 40
0.0
 40
0.2870811293
 40
0.4106262032
 40
0.5230159681
 40
0.6302745489
 40
0.7406887129
 40
0.8624321951
 40
1.0
 40
1.0
 40
1.0
 40
1.0
 10
18.6369652512
 20
151.4183780474
 30
0.0
 10
18.6369850561
 20
151.6083194207
 30
0.0
 10
18.6720050366
 20
151.8853595017
 30
0.0
 10
18.821976609
 20
152.2003073003
 30
0.0
 10
18.9729612666
 20
152.3747838729
 30
0.0
 10
19.1671559058
 20
152.4845439495
 30
0.0
 10
19.3936704384
 20
152.5194802885
 30
0.0
 10
19.6378932768
 20
152.4763998067
 30
0.0
 10
19.795577633
 20
152.404705181
 30
0.0
 10
19.8744078456
 20
152.3592052506
 30
0.0
  0
SPLINE
  5
320
100
AcDbEntity
  8
0
100
AcDbSpline
 62
7
  6
BYLAYER
 70
0
 71
3
 72
11
 73
7
 74
0
 42
0.0000001
 43
0.0000001
 44
0.0000000001
 40
0.0
 40
0.0
 40
0.0
 40
0.0
 40
0.2718386306
 40
0.5303815877
 40
0.7709255631
 40
1.0
 40
1.0
 40
1.0
 40
1.0
 10
19.8744078456
 20
59.8451115686
 30
0.0
 10
19.8744078456
 20
59.7500863266
 30
0.0
 10
19.8891227436
 20
59.5642515419
 30
0.0
 10
19.9608582818
 20
59.302271099
 30
0.0
 10
20.0915069064
 20
59.0793059836
 30
0.0
 10
20.2202278341
 20
58.9712090174
 30
0.0
 10
20.2894932583
 20
58.9310278298
 30
0.0
  0
SPLINE
  5
321
100
AcDbEntity
  8
0
100
AcDbSpline
 62
7
  6
BYLAYER
 70
0
 71
3
 72
15
 73
11
 74
0
 42
0.0000001
 43
0.0000001
 44
0.0000000001
 40
0.0
 40
0.0
 40
0.0
 40
0.0
 40
0.1287972074
 40
0.2706054898
 40
0.4178799053
 40
0.562375555
 40
0.6961915357
 40
0.8135903033
 40
0.913065596
 40
1.0
 40
1.0
 40
1.0
 40
1.0
 10
31.3648908318
 20
96.6919887739
 30
0.0
 10
31.3648908318
 20
96.563809264
 30
0.0
 10
31.4008302251
 20
96.2942068246
 30
0.0
 10
31.5345919269
 20
95.8983593908
 30
0.0
 10
31.7410179769
 20
95.5170723161
 30
0.0
 10
32.0029830449
 20
95.1816267562
 30
0.0
 10
32.2998118054
 20
94.9187838336
 30
0.0
 10
32.609339691
 20
94.7496818788
 30
0.0
 10
32.9123795869
 20
94.688925081
 30
0.0
 10
33.1005607403
 20
94.7374416025
 30
0.0
 10
33.175519913
 20
94.780643409
 30
0.0
  0
SPLINE
  5
322
100
AcDbEntity
  8
0
100
AcDbSpline
 62
7
  6
BYLAYER
 70
0
 71
3
 72
11
 73
7
 74
0
 42
0.0000001
 43
0.0000001
 44
0.0000000001
 40
0.0
 40
0.0
 40
0.0
 40
0.0
 40
0.2120306379
 40
0.4588578167
 40
0.728652979
 40
1.0
 40
1.0
 40
1.0
 40
1.0
 10
79.7666015656
 20
117.7812126782
 30
0.0
 10
79.7666015656
 20
117.9208892376
 30
0.0
 10
79.8005225363
 20
118.2233331291
 30
0.0
 10
79.9331687659
 20
118.6867985731
 30
0.0
 10
80.1571336294
 20
119.1573005555
 30
0.0
 10
80.3554052792
 20
119.4555292506
 30
0.0
 10
80.4669301468
 20
119.5952229965
 30
0.0
  0
SPLINE
  5
323
100
AcDbEntity
  8
0
100
AcDbSpline
 62
7
  6
BYLAYER
 70
0
 71
3
 72
14
 73
10
 74
0
 42
0.0000001
 43
0.0000001
 44
0.0000000001
 40
0.0
 40
0.0
 40
0.0
 40
0.0
 40
0.1182866937
 40
0.2471549323
 40
0.5185733097
 40
0.652476945
 40
0.7794652575
 40
0.8962264476
 40
1.0
 40
1.0
 40
1.0
 40
1.0
 10
80.4669301433
 20
119.5952229983
 30
0.0
 10
80.653925859
 20
119.4872733607
 30
0.0
 10
81.0300121605
 20
119.235931815
 30
0.0
 10
81.761284616
 20
118.6333846981
 30
0.0
 10
82.4310542807
 20
117.9172727791
 30
0.0
 10
83.0072097219
 20
117.1340019714
 30
0.0
 10
83.368232468
 20
116.545551841
 30
0.0
 10
83.6477308445
 20
115.9750274569
 30
0.0
 10
83.7832451713
 20
115.5944680275
 30
0.0
 10
83.8324707093
 20
115.4115499652
 30
0.0
  0
SPLINE
  5
324
100
AcDbEntity
  8
0
100
AcDbSpline
 62
7
  6
BYLAYER
 70
0
 71
3
 72
13
 73
9
 74
0
 42
0.0000001
 43
0.0000001
 44
0.0000000001
 40
0.0
 40
0.0
 40
0.0
 40
0.0
 40
0.2268991539
 40
0.3602196432
 40
0.499999477
 40
0.6397793917
 40
0.7731001065
 40
1.0
 40
1.0
 40
1.0
 40
1.0
 10
83.8324707093
 20
115.4115500541
 30
0.0
 10
83.6402513487
 20
115.3005728169
 30
0.0
 10
83.3043319302
 20
115.1758717508
 30
0.0
 10
82.8224856855
 20
115.0897345139
 30
0.0
 10
82.4182595257
 20
115.0649607275
 30
0.0
 10
82.0140330323
 20
115.089732585
 30
0.0
 10
81.5321853366
 20
115.1758675622
 30
0.0
 10
81.1962643745
 20
115.3005670059
 30
0.0
 10
81.0040435846
 20
115.4115432145
 30
0.0
  0
SPLINE
  5
325
100
AcDbEntity
  8
0
100
AcDbSpline
 62
7
  6
BYLAYER
 70
0
 71
3
 72
11
 73
7
 74
0
 42
0.0000001
 43
0.0000001
 44
0.0000000001
 40
0.0
 40
0.0
 40
0.0
 40
0.0
 40
0.2177839466
 40
0.4509170841
 40
0.710307871
 40
1.0
 40
1.0
 40
1.0
 40
1.0
 10
64.5599505467
 20
155.7521151998
 30
0.0
 10
64.4197679972
 20
155.6711557323
 30
0.0
 10
64.1574506923
 20
155.4506715263
 30
0.0
 10
63.8782073974
 20
154.9940730977
 30
0.0
 10
63.7123622905
 20
154.4313996418
 30
0.0
 10
63.6797148913
 20
154.0218734297
 30
0.0
 10
63.6797148913
 20
153.8065418428
 30
0.0
  0
SPLINE
  5
326
100
AcDbEntity
  8
0
100
AcDbSpline
 62
7
  6
BYLAYER
 70
0
 71
3
 72
13
 73
9
 74
0
 42
0.0000001
 43
0.0000001
 44
0.0000000001
 40
0.0
 40
0.0
 40
0.0
 40
0.0
 40
0.1146190125
 40
0.2384950568
 40
0.5019446685
 40
0.7643375335
 40
0.8869221772
 40
1.0
 40
1.0
 40
1.0
 40
1.0
 10
63.6797148913
 20
153.8065418428
 30
0.0
 10
63.6797148913
 20
153.5642747982
 30
0.0
 10
63.7250499027
 20
153.0596615015
 30
0.0
 10
63.9702053017
 20
152.0247397752
 30
0.0
 10
64.5379777801
 20
150.7596423003
 30
0.0
 10
65.3672903389
 20
149.6513512117
 30
0.0
 10
66.1495166926
 20
148.9427960462
 30
0.0
 10
66.56578541
 20
148.6644122879
 30
0.0
 10
66.7758952885
 20
148.5504852596
 30
0.0
  0
ELLIPSE
  5
327
100
AcDbEntity
  8
0
100
AcDbEllipse
 62
7
  6
BYLAYER
 10
77.5741778188
 20
177.3417063277
 30
0.0
 11
14.9116768692
 21
-5.6124012625
 31
0.0
 40
0.1906070118
 41
-2.7128107476
 42
-1.8563353834
  0
ELLIPSE
  5
328
100
AcDbEntity
  8
0
100
AcDbEllipse
 62
7
  6
BYLAYER
 10
114.2024615814
 20
156.1948352435
 30
0.0
 11
14.9116768692
 21
-5.6124012625
 31
0.0
 40
0.1906070118
 41
-2.7128107476
 42
-1.8563353834
  0
ELLIPSE
  5
329
100
AcDbEntity
  8
0
100
AcDbEllipse
 62
7
  6
BYLAYER
 10
96.9458227131
 20
169.6241984375
 30
0.0
 11
4.9572488251
 21
-4.4557724478
 31
0.0
 40
0.6995012228
 41
7.6919834106
 42
9.5647602992
  0
ELLIPSE
  5
32A
100
AcDbEntity
  8
0
100
AcDbEllipse
 62
7
  6
BYLAYER
 10
59.1919338185
 20
147.7454603906
 30
0.0
 11
7.2417135778
 21
8.505742314
 31
0.0
 40
0.4145509234
 41
-4.3482059886
 42
-1.7829346195
  0
ENDSEC
  0
SECTION
  2
OBJECTS
  0
DICTIONARY
  5
C
100
AcDbDictionary
280
0
281
1
  3
ACAD_GROUP
350
D
  3
ACAD_MLINESTYLE
350
17
  3
ACAD_LAYOUT
350
1A
  3
ACAD_PLOTSETTINGS
350
19
  3
ACAD_PLOTSTYLENAME
350
E
  0
DICTIONARY
  5
D
102
{ACAD_REACTORS
330
C
102
}
100
AcDbDictionary
280
0
281
1
  0
ACDBDICTIONARYWDFLT
  5
E
102
{ACAD_REACTORS
330
C
102
}
100
AcDbDictionary
281
1
  3
Normal
350
F
100
AcDbDictionaryWithDefault
340
F
  0
DICTIONARY
  5
17
102
{ACAD_REACTORS
330
C
102
}
100
AcDbDictionary
280
0
281
1
  3
Standard
350
18
  0
DICTIONARY
  5
19
102
{ACAD_REACTORS
330
C
102
}
100
AcDbDictionary
281
1
  0
DICTIONARY
  5
1A
102
{ACAD_REACTORS
330
C
102
}
100
AcDbDictionary
281
1
  3
Model
350
32B
  3
Layout1
350
32C
  0
ACDBPLACEHOLDER
  5
F
102
{ACAD_REACTORS
330
E
102
}
  0
MLINESTYLE
  5
18
102
{ACAD_REACTORS
330
17
102
}
100
AcDbMlineStyle
  2
STANDARD
 70
0
  3

 62
256
 51
90.0
 52
90.0
 71
2
 49
0.5
 62
256
  6
BYLAYER
 49
-0.5
 62
256
  6
BYLAYER
  0
LAYOUT
  5
32B
102
{ACAD_REACTORS
330
1A
102
}
100
AcDbPlotSettings
  1

  2
none_device
  4

  6

 40
0.0
 41
0.0
 42
0.0
 43
0.0
 44
210.0
 45
297.0
 46
0.0
 47
0.0
 48
0.0
 49
0.0
140
0.0
141
0.0
142
1.0
143
1.0
 70
1024
 72
1
 73
0
 74
0
  7

 75
0
147
1.0
148
0.0
149
0.0
100
AcDbLayout
  1
Model
 70
0
 71
0
 10
0.0
 20
0.0
 11
210.0
 21
297.0
 12
0.0
 22
0.0
 32
0.0
 14
0.0
 24
0.0
 34
0.0
 15
0.0
 25
0.0
 35
0.0
146
0.0
 13
0.0
 23
0.0
 33
0.0
 16
1.0
 26
0.0
 36
0.0
 17
0.0
 27
1.0
 37
0.0
 76
0
330
210
345
0
346
0
  0
LAYOUT
  5
32C
102
{ACAD_REACTORS
330
1A
102
}
100
AcDbPlotSettings
  1

  2
none_device
  4

  6

 40
0.0
 41
0.0
 42
0.0
 43
0.0
 44
210.0
 45
297.0
 46
0.0
 47
0.0
 48
0.0
 49
0.0
140
0.0
141
0.0
142
1.0
143
1.0
 70
0
 72
1
 73
0
 74
0
  7

 75
0
147
1.0
148
0.0
149
0.0
100
AcDbLayout
  1
Layout1
 70
0
 71
1
 10
0.0
 20
0.0
 11
210.0
 21
297.0
 12
0.0
 22
0.0
 32
0.0
 14
0.0
 24
0.0
 34
0.0
 15
0.0
 25
0.0
 35
0.0
146
0.0
 13
0.0
 23
0.0
 33
0.0
 16
1.0
 26
0.0
 36
0.0
 17
0.0
 27
1.0
 37
0.0
 76
0
330
211
345
0
346
0
  0
ENDSEC
  0
EOF
