999
DXF file: C:\Users\sesa63760\Dev\_Creo\CAD\MCADID0000491_3D-CAD\drw0001_5.dxf
999
Pro/ENGINEER 2019471 by Parametric Technology Corporation
  0
SECTION
  2
HEADER
  9
$ACADVER
  1
AC1024
  9
$DWGCODEPAGE
  3
ANSI_1252
  9
$EXTMAX
 10
222.3129251701
 20
314.4139941691
 30
0.0
  9
$EXTMIN
 10
0.0
 20
0.0
 30
0.0
  9
$LIMMIN
 10
0.0
 20
0.0
  9
$LIMMAX
 10
222.3129251701
 20
314.4139941691
  9
$VIEWCTR
 10
111.156462585
 20
157.2069970845
  9
$VIEWSIZE
 40
314.4139941691
  9
$CLAYER
  8
0
  9
$LTSCALE
 40
20.4951344347
  9
$CELTYPE
  6
BYLAYER
  9
$DIMSCALE
 40
1.0
  9
$DIMASZ
 40
2.6465824425
  9
$DIMEXO
 40
1.0
  9
$DIMDLI
 40
14.1602747004
  9
$DIMEXE
 40
1.0
  9
$DIMCEN
 40
3.3537492711
  9
$DIMLFAC
 40
1.0
  9
$DIMBLK
  1
_FILLED
  9
$DIMALT
 70
0
  9
$DIMALTF
 40
0.0393700787
  9
$DIMTXT
 40
3.7052154195
  9
$DIMTOL
 70
1
  9
$DIMLIM
 70
0
  9
$DIMTFAC
 40
1.0
  9
$DIMTP
 40
0.01
  9
$DIMTM
 40
0.01
  9
$DIMGAP
 40
0.625
  9
$DIMDSEP
 70
46
  9
$AUNITS
 70
0
  9
$PDMODE
 70
3
  9
$PDSIZE
 40
0.3125
  9
$HANDSEED
  5
32C
  9
$TILEMODE
 70
1
  9
$MEASUREMENT
 70
1
  9
$INSUNITS
 70
4
  0
ENDSEC
  0
SECTION
  2
CLASSES
  0
CLASS
  1
ACDBDICTIONARYWDFLT
  2
AcDbDictionaryWithDefault
  3
AutoCAD 2000
 90
0
 91
1
280
0
281
0
  0
CLASS
  1
ACDBPLACEHOLDER
  2
AcDbPlaceHolder
  3
AutoCAD 2000
 90
0
 91
1
280
0
281
0
  0
CLASS
  1
LAYOUT
  2
AcDbLayout
  3
AutoCAD 2000
 90
0
 91
0
280
0
281
0
  0
ENDSEC
  0
SECTION
  2
TABLES
  0
TABLE
  2
VPORT
  5
8
100
AcDbSymbolTable
 70
2
  0
VPORT
  5
1F4
100
AcDbSymbolTableRecord
100
AcDbViewportTableRecord
  2
*ACTIVE
 70
0
 10
0.0
 20
0.0
 11
1.0
 21
1.0
 12
111.156462585
 22
157.2069970845
 13
0.0
 23
0.0
 14
1.0
 24
1.0
 15
0.0
 25
0.0
 16
0.0
 26
0.0
 36
1.0
 17
0.0
 27
0.0
 37
0.0
 40
314.4139941691
 41
0.7070707071
 42
50.0
 43
0.0
 44
0.0
 50
0.0
 51
0.0
 71
0
 72
100
 73
1
 74
1
 75
0
 76
0
 77
0
 78
0
  0
ENDTAB
  0
TABLE
  2
LTYPE
  5
5
100
AcDbSymbolTable
 70
6
  0
LTYPE
  5
14
100
AcDbSymbolTableRecord
100
AcDbLinetypeTableRecord
  2
BYBLOCK
 70
0
  3

 72
65
 73
0
 40
0.0
  0
LTYPE
  5
15
100
AcDbSymbolTableRecord
100
AcDbLinetypeTableRecord
  2
BYLAYER
 70
0
  3

 72
65
 73
0
 40
0.0
  0
LTYPE
  5
16
100
AcDbSymbolTableRecord
100
AcDbLinetypeTableRecord
  2
CONTINUOUS
 70
64
  3
Solid line
 72
65
 73
0
 40
0.0
  0
LTYPE
  5
1F5
100
AcDbSymbolTableRecord
100
AcDbLinetypeTableRecord
  2
CENTER
 70
64
  3
____ _ ____ _ ____ _ ____ _ ____ _ ____ _ ____
 72
65
 73
4
 40
0.6
 49
0.375
 74
0
 49
-0.075
 74
0
 49
0.075
 74
0
 49
-0.075
 74
0
  0
LTYPE
  5
1F6
100
AcDbSymbolTableRecord
100
AcDbLinetypeTableRecord
  2
HIDDEN
 70
64
  3
- - - - - - - - - - - - - - - - - - - -
 72
65
 73
2
 40
0.2
 49
0.1
 74
0
 49
-0.1
 74
0
  0
LTYPE
  5
1F7
100
AcDbSymbolTableRecord
100
AcDbLinetypeTableRecord
  2
PHANTOM
 70
64
  3
_____ _ _ _____ _ _ _____ _ _ _____
 72
65
 73
6
 40
0.8
 49
0.45
 74
0
 49
-0.05
 74
0
 49
0.1
 74
0
 49
-0.05
 74
0
 49
0.1
 74
0
 49
-0.05
 74
0
  0
LTYPE
  5
1F8
100
AcDbSymbolTableRecord
100
AcDbLinetypeTableRecord
  2
DOT
 70
64
  3
. . . . . . . . . . . . . . . . . . . .
 72
65
 73
2
 40
0.2
 49
0.1
 74
0
 49
-0.1
 74
0
  0
LTYPE
  5
1F9
100
AcDbSymbolTableRecord
100
AcDbLinetypeTableRecord
  2
DASHED
 70
64
  3
- - - - - - - - - - - - - - - - - - - -
 72
65
 73
2
 40
0.2
 49
0.1
 74
0
 49
-0.1
 74
0
  0
ENDTAB
  0
TABLE
  2
LAYER
  5
2
100
AcDbSymbolTable
 70
36
  0
LAYER
  5
10
100
AcDbSymbolTableRecord
100
AcDbLayerTableRecord
  2
0
 70
0
 62
7
  6
CONTINUOUS
370
-3
390
F
  0
LAYER
  5
1FA
100
AcDbSymbolTableRecord
100
AcDbLayerTableRecord
  2
DEFAULT_1
 70
0
 62
7
  6
CENTER
370
-3
390
F
  0
LAYER
  5
1FB
100
AcDbSymbolTableRecord
100
AcDbLayerTableRecord
  2
DEFAULT_2
 70
0
 62
8
  6
HIDDEN
370
-3
390
F
  0
LAYER
  5
1FC
100
AcDbSymbolTableRecord
100
AcDbLayerTableRecord
  2
DEFAULT_3
 70
0
 62
7
  6
PHANTOM
370
-3
390
F
  0
LAYER
  5
1FD
100
AcDbSymbolTableRecord
100
AcDbLayerTableRecord
  2
00_COMPONENTS
 70
0
 62
7
  6
CONTINUOUS
370
-3
390
F
  0
LAYER
  5
1FE
100
AcDbSymbolTableRecord
100
AcDbLayerTableRecord
  2
01_1_DEFAULT_DATUMS
 70
0
 62
7
  6
CONTINUOUS
370
-3
390
F
  0
LAYER
  5
1FF
100
AcDbSymbolTableRecord
100
AcDbLayerTableRecord
  2
01_PLANES
 70
0
 62
7
  6
CONTINUOUS
370
-3
390
F
  0
LAYER
  5
200
100
AcDbSymbolTableRecord
100
AcDbLayerTableRecord
  2
02_COORD_SYS
 70
0
 62
7
  6
CONTINUOUS
370
-3
390
F
  0
LAYER
  5
201
100
AcDbSymbolTableRecord
100
AcDbLayerTableRecord
  2
03_AXES
 70
0
 62
7
  6
CONTINUOUS
370
-3
390
F
  0
LAYER
  5
202
100
AcDbSymbolTableRecord
100
AcDbLayerTableRecord
  2
04_POINTS
 70
0
 62
7
  6
CONTINUOUS
370
-3
390
F
  0
LAYER
  5
203
100
AcDbSymbolTableRecord
100
AcDbLayerTableRecord
  2
05_CURVES
 70
0
 62
7
  6
CONTINUOUS
370
-3
390
F
  0
LAYER
  5
204
100
AcDbSymbolTableRecord
100
AcDbLayerTableRecord
  2
06_SURFS
 70
0
 62
7
  6
CONTINUOUS
370
-3
390
F
  0
LAYER
  5
205
100
AcDbSymbolTableRecord
100
AcDbLayerTableRecord
  2
07_COSMETICS
 70
0
 62
7
  6
CONTINUOUS
370
-3
390
F
  0
LAYER
  5
206
100
AcDbSymbolTableRecord
100
AcDbLayerTableRecord
  2
10_NOTES
 70
0
 62
7
  6
CONTINUOUS
370
-3
390
F
  0
LAYER
  5
207
100
AcDbSymbolTableRecord
100
AcDbLayerTableRecord
  2
11_NOTES_PUB
 70
0
 62
7
  6
CONTINUOUS
370
-3
390
F
  0
LAYER
  5
208
100
AcDbSymbolTableRecord
100
AcDbLayerTableRecord
  2
13_REF_GTOL
 70
0
 62
7
  6
CONTINUOUS
370
-3
390
F
  0
LAYER
  5
209
100
AcDbSymbolTableRecord
100
AcDbLayerTableRecord
  2
16_MISC
 70
0
 62
7
  6
CONTINUOUS
370
-3
390
F
  0
LAYER
  5
20A
100
AcDbSymbolTableRecord
100
AcDbLayerTableRecord
  2
17_NO_PRINT
 70
0
 62
7
  6
CONTINUOUS
370
-3
390
F
  0
LAYER
  5
20B
100
AcDbSymbolTableRecord
100
AcDbLayerTableRecord
  2
18_DATUM_CAMS_JOINTS
 70
0
 62
7
  6
CONTINUOUS
370
-3
390
F
  0
LAYER
  5
20C
100
AcDbSymbolTableRecord
100
AcDbLayerTableRecord
  2
19_DATUM_FUNCTIONAL
 70
0
 62
7
  6
CONTINUOUS
370
-3
390
F
  0
LAYER
  5
20D
100
AcDbSymbolTableRecord
100
AcDbLayerTableRecord
  2
20_DATUM_KINEMATIC_SCHEME
 70
0
 62
7
  6
CONTINUOUS
370
-3
390
F
  0
ENDTAB
  0
TABLE
  2
STYLE
  5
3
100
AcDbSymbolTable
 70
1
  0
STYLE
  5
11
100
AcDbSymbolTableRecord
100
AcDbTextStyleTableRecord
  2
STANDARD
 70
0
 40
0.0
 41
0.8
 50
0.0
 71
0
 42
0.2
  3
txt
  4

  0
STYLE
  5
20E
100
AcDbSymbolTableRecord
100
AcDbTextStyleTableRecord
  2
TEXTSTYLE_1
 70
0
 40
0.0
 41
0.8
 50
0.0
 71
0
 42
0.2
  3
gdt
  4

  0
ENDTAB
  0
TABLE
  2
VIEW
  5
6
100
AcDbSymbolTable
 70
0
  0
ENDTAB
  0
TABLE
  2
UCS
  5
7
100
AcDbSymbolTable
 70
0
  0
ENDTAB
  0
TABLE
  2
APPID
  5
9
100
AcDbSymbolTable
 70
1
  0
APPID
  5
20F
100
AcDbSymbolTableRecord
100
AcDbRegAppTableRecord
  2
ACAD
 70
0
  0
ENDTAB
  0
TABLE
  2
BLOCK_RECORD
  5
1
100
AcDbSymbolTable
 70
0
  0
BLOCK_RECORD
  5
210
100
AcDbSymbolTableRecord
100
AcDbBlockTableRecord
  2
*Model_Space
  0
BLOCK_RECORD
  5
211
100
AcDbSymbolTableRecord
100
AcDbBlockTableRecord
  2
*Paper_Space
  0
BLOCK_RECORD
  5
212
100
AcDbSymbolTableRecord
100
AcDbBlockTableRecord
  2
_FILLED
  0
ENDTAB
  0
TABLE
  2
DIMSTYLE
  5
A
100
AcDbSymbolTable
 70
1
100
AcDbDimStyleTable
 71
0
  0
DIMSTYLE
105
213
100
AcDbSymbolTableRecord
100
AcDbDimStyleTableRecord
  2
STANDARD
 70
0
  3

  4

 40
1.0
 41
2.6465824425
 42
1.0
 43
0.38
 44
1.0
 45
0.0
 46
0.0
 47
0.01
 48
0.01
140
3.7052154195
141
0.09
142
0.0
143
25.4
144
1.0
145
0.0
146
1.0
147
0.625
 71
1
 72
0
 73
0
 74
0
 75
0
 76
0
 77
1
 78
8
 79
2
170
0
171
1
172
0
173
0
174
0
175
0
176
0
177
0
178
0
270
2
179
2
271
2
272
2
273
2
274
2
275
0
280
0
281
0
282
0
283
1
284
8
285
0
286
0
287
3
288
0
340
11
278
46
341
212
342
212
343
212
344
212
  0
ENDTAB
  0
ENDSEC
  0
SECTION
  2
BLOCKS
  0
BLOCK
  5
20
100
AcDbEntity
  8
0
100
AcDbBlockBegin
  2
*Model_Space
 70
0
 10
0.0
 20
0.0
 30
0.0
  3
*Model_Space
  1

  0
ENDBLK
  5
21
100
AcDbEntity
  8
0
100
AcDbBlockEnd
  0
BLOCK
  5
1C
100
AcDbEntity
  8
0
100
AcDbBlockBegin
  2
*Paper_Space
 70
0
 10
0.0
 20
0.0
 30
0.0
  3
*Paper_Space
  1

  0
ENDBLK
  5
1D
100
AcDbEntity
  8
0
100
AcDbBlockEnd
  0
BLOCK
  5
214
100
AcDbEntity
  8
0
100
AcDbBlockBegin
  2
_FILLED
 70
64
 10
0.0
 20
0.0
  3
_FILLED
  1

  0
SOLID
  5
215
100
AcDbEntity
  8
0
  6
BYBLOCK
 62
0
100
AcDbTrace
 10
0.0
 20
0.0
 11
-1.0
 21
0.25
 12
-1.0
 22
-0.25
 13
-1.0
 23
-0.25
  0
ENDBLK
  5
216
100
AcDbEntity
  8
0
  6
BYBLOCK
 62
0
100
AcDbBlockEnd
  0
ENDSEC
  0
SECTION
  2
ENTITIES
  0
LINE
  5
217
100
AcDbEntity
  8
0
100
AcDbLine
 62
7
  6
CONTINUOUS
 10
140.7413333408
 20
25.5918367347
 11
147.2587644894
 21
26.1620380755
  0
LINE
  5
218
100
AcDbEntity
  8
0
100
AcDbLine
 62
7
  6
CONTINUOUS
 10
131.8413333408
 20
32.8418367347
 11
121.8413333408
 21
32.8418367347
  0
LINE
  5
219
100
AcDbEntity
  8
0
100
AcDbLine
 62
7
  6
CONTINUOUS
 10
121.8413333408
 20
32.9418367347
 11
117.4413333408
 21
32.9418367347
  0
LINE
  5
21A
100
AcDbEntity
  8
0
100
AcDbLine
 62
7
  6
CONTINUOUS
 10
113.8924514997
 20
32.9418367347
 11
111.3413333408
 21
32.9418367347
  0
LINE
  5
21B
100
AcDbEntity
  8
0
100
AcDbLine
 62
7
  6
CONTINUOUS
 10
147.4413333408
 20
33.2418367347
 11
140.7413333408
 21
33.2418367347
  0
LINE
  5
21C
100
AcDbEntity
  8
0
100
AcDbLine
 62
7
  6
CONTINUOUS
 10
148.4451797862
 20
33.9215136678
 11
147.5451797862
 21
33.9215136678
  0
LINE
  5
21D
100
AcDbEntity
  8
0
100
AcDbLine
 62
7
  6
CONTINUOUS
 10
112.4064338441
 20
37.2655273327
 11
111.4413333408
 21
37.2655273327
  0
LINE
  5
21E
100
AcDbEntity
  8
0
100
AcDbLine
 62
7
  6
CONTINUOUS
 10
111.4413333408
 20
38.9418367347
 11
111.3413333408
 21
38.9418367347
  0
LINE
  5
21F
100
AcDbEntity
  8
0
100
AcDbLine
 62
7
  6
CONTINUOUS
 10
140.7413333408
 20
32.7918367347
 11
117.4413333408
 21
33.2918367347
  0
LINE
  5
220
100
AcDbEntity
  8
0
100
AcDbLine
 62
7
  6
CONTINUOUS
 10
117.4413333408
 20
36.7910311407
 11
140.7413333408
 21
36.2910311407
  0
LINE
  5
221
100
AcDbEntity
  8
0
100
AcDbLine
 62
7
  6
CONTINUOUS
 10
115.4413333409
 20
32.0616782737
 11
117.4413333408
 21
31.9918367347
  0
LINE
  5
222
100
AcDbEntity
  8
0
100
AcDbLine
 62
7
  6
CONTINUOUS
 10
117.4413333408
 20
33.5918367347
 11
112.4064338441
 21
33.7676592994
  0
LINE
  5
223
100
AcDbEntity
  8
0
100
AcDbLine
 62
7
  6
CONTINUOUS
 10
107.4089751134
 20
33.9423087269
 11
111.3413333408
 21
33.8049877516
  0
LINE
  5
224
100
AcDbEntity
  8
0
100
AcDbLine
 62
7
  6
CONTINUOUS
 10
107.9451797862
 20
34.9067332066
 11
111.3413333408
 21
34.7881369112
  0
LINE
  5
225
100
AcDbEntity
  8
0
100
AcDbLine
 62
7
  6
CONTINUOUS
 10
112.4064338441
 20
37.265527194
 11
117.4413333408
 21
37.0897046292
  0
LINE
  5
226
100
AcDbEntity
  8
0
100
AcDbLine
 62
7
  6
CONTINUOUS
 10
147.5451797862
 20
28.0691374729
 11
148.2294364721
 21
27.9215136678
  0
LINE
  5
227
100
AcDbEntity
  8
0
100
AcDbLine
 62
7
  6
CONTINUOUS
 10
112.4413333409
 20
33.7664405822
 11
115.4413333409
 21
32.0616782737
  0
LINE
  5
228
100
AcDbEntity
  8
0
100
AcDbLine
 62
7
  6
CONTINUOUS
 10
111.4413333408
 20
58.5918367347
 11
111.3413333408
 21
58.5918367347
  0
LINE
  5
229
100
AcDbEntity
  8
0
100
AcDbLine
 62
7
  6
CONTINUOUS
 10
121.4413333408
 20
286.1918367347
 11
116.2891594278
 21
282.2418367347
  0
LINE
  5
22A
100
AcDbEntity
  8
0
100
AcDbLine
 62
7
  6
CONTINUOUS
 10
80.965854721
 20
242.705882286
 11
105.9245048514
 21
256.3371450496
  0
LINE
  5
22B
100
AcDbEntity
  8
0
100
AcDbLine
 62
7
  6
CONTINUOUS
 10
125.3413333408
 20
61.5918367347
 11
121.8413333408
 21
61.5918367347
  0
LINE
  5
22C
100
AcDbEntity
  8
0
100
AcDbLine
 62
7
  6
CONTINUOUS
 10
111.4413333408
 20
64.5918367347
 11
111.3413333408
 21
64.5918367347
  0
LINE
  5
22D
100
AcDbEntity
  8
0
100
AcDbLine
 62
7
  6
CONTINUOUS
 10
125.3413333408
 20
65.1918367347
 11
131.9110785638
 21
65.1918367347
  0
LINE
  5
22E
100
AcDbEntity
  8
0
100
AcDbLine
 62
7
  6
CONTINUOUS
 10
109.0413333408
 20
65.7918367347
 11
111.4413333408
 21
65.7918367347
  0
LINE
  5
22F
100
AcDbEntity
  8
0
100
AcDbLine
 62
7
  6
CONTINUOUS
 10
105.9245048514
 20
55.205882286
 11
80.965854721
 21
68.8371450496
  0
LINE
  5
230
100
AcDbEntity
  8
0
100
AcDbLine
 62
7
  6
CONTINUOUS
 10
105.4976271187
 20
250.5498081969
 11
81.39284383
 21
237.3848880931
  0
LINE
  5
231
100
AcDbEntity
  8
0
100
AcDbLine
 62
7
  6
CONTINUOUS
 10
118.9236952506
 20
72.6890344113
 11
130.958971431
 21
75.9138769445
  0
LINE
  5
232
100
AcDbEntity
  8
0
100
AcDbLine
 62
7
  6
CONTINUOUS
 10
131.9110785638
 20
69.1918367347
 11
121.8413333408
 21
69.1918367347
  0
LINE
  5
233
100
AcDbEntity
  8
0
100
AcDbLine
 62
7
  6
CONTINUOUS
 10
109.0413333408
 20
71.3918367347
 11
111.4413333408
 21
71.3918367347
  0
LINE
  5
234
100
AcDbEntity
  8
0
100
AcDbLine
 62
7
  6
CONTINUOUS
 10
81.39284383
 20
74.1581392425
 11
80.4451797862
 21
74.1581392425
  0
LINE
  5
235
100
AcDbEntity
  8
0
100
AcDbLine
 62
7
  6
CONTINUOUS
 10
81.39284383
 20
74.1581392425
 11
105.4976628875
 21
60.9931996034
  0
LINE
  5
236
100
AcDbEntity
  8
0
100
AcDbLine
 62
7
  6
CONTINUOUS
 10
106.4451797862
 20
88.0215136678
 11
111.4413333408
 21
88.0215136678
  0
LINE
  5
237
100
AcDbEntity
  8
0
100
AcDbLine
 62
7
  6
CONTINUOUS
 10
106.9451797862
 20
88.5215136678
 11
111.4413333408
 21
88.5215136678
  0
LINE
  5
238
100
AcDbEntity
  8
0
100
AcDbLine
 62
7
  6
CONTINUOUS
 10
111.4413333408
 20
89.5215136678
 11
106.4451797862
 21
89.5215136678
  0
LINE
  5
239
100
AcDbEntity
  8
0
100
AcDbLine
 62
7
  6
CONTINUOUS
 10
80.4451797862
 20
90.3093089862
 11
81.39284383
 21
90.3093089862
  0
LINE
  5
23A
100
AcDbEntity
  8
0
100
AcDbLine
 62
7
  6
CONTINUOUS
 10
106.4451797862
 20
94.3572138761
 11
105.4975157424
 21
94.3572138761
  0
LINE
  5
23B
100
AcDbEntity
  8
0
100
AcDbLine
 62
7
  6
CONTINUOUS
 10
106.4592546223
 20
87.2315407436
 11
81.39284383
 21
90.3093089862
  0
LINE
  5
23C
100
AcDbEntity
  8
0
100
AcDbLine
 62
7
  6
CONTINUOUS
 10
106.4659399053
 20
89.2328874502
 11
81.3233104428
 21
92.3200141687
  0
LINE
  5
23D
100
AcDbEntity
  8
0
100
AcDbLine
 62
7
  6
CONTINUOUS
 10
81.39284383
 20
97.3168954326
 11
105.4975157424
 21
94.3572138761
  0
LINE
  5
23E
100
AcDbEntity
  8
0
100
AcDbLine
 62
7
  6
CONTINUOUS
 10
101.9451797862
 20
96.5215136678
 11
104.899024169
 21
96.5215136678
  0
LINE
  5
23F
100
AcDbEntity
  8
0
100
AcDbLine
 62
7
  6
CONTINUOUS
 10
81.39284383
 20
97.3168973961
 11
80.4451797862
 21
97.3168973961
  0
LINE
  5
240
100
AcDbEntity
  8
0
100
AcDbLine
 62
7
  6
CONTINUOUS
 10
101.9451797862
 20
103.0715136678
 11
101.4451797862
 21
103.0715136678
  0
LINE
  5
241
100
AcDbEntity
  8
0
100
AcDbLine
 62
7
  6
CONTINUOUS
 10
101.9451797862
 20
104.1715136678
 11
101.4451797862
 21
104.1715136678
  0
LINE
  5
242
100
AcDbEntity
  8
0
100
AcDbLine
 62
7
  6
CONTINUOUS
 10
111.4413333408
 20
102.5725052821
 11
110.4451797862
 21
102.6072917308
  0
LINE
  5
243
100
AcDbEntity
  8
0
100
AcDbLine
 62
7
  6
CONTINUOUS
 10
101.9451797862
 20
98.2269165174
 11
111.4413333408
 21
92.7443097063
  0
LINE
  5
244
100
AcDbEntity
  8
0
100
AcDbLine
 62
7
  6
CONTINUOUS
 10
109.4451797862
 20
107.7421475119
 11
111.4413333408
 21
107.81185473
  0
LINE
  5
245
100
AcDbEntity
  8
0
100
AcDbLine
 62
7
  6
CONTINUOUS
 10
110.4451797862
 20
106.3215136678
 11
102.9451797862
 21
106.3215136678
  0
LINE
  5
246
100
AcDbEntity
  8
0
100
AcDbLine
 62
7
  6
CONTINUOUS
 10
103.9451797862
 20
107.3215136678
 11
109.4451797862
 21
107.3215136678
  0
LINE
  5
247
100
AcDbEntity
  8
0
100
AcDbLine
 62
7
  6
CONTINUOUS
 10
111.4413333408
 20
115.1776231723
 11
112.4064338441
 21
115.1776231723
  0
LINE
  5
248
100
AcDbEntity
  8
0
100
AcDbLine
 62
7
  6
CONTINUOUS
 10
111.6451797862
 20
118.1215136678
 11
112.3451797862
 21
118.1215136678
  0
LINE
  5
249
100
AcDbEntity
  8
0
100
AcDbLine
 62
7
  6
CONTINUOUS
 10
111.6451797862
 20
121.1215136678
 11
112.3451797862
 21
121.1215136678
  0
LINE
  5
24A
100
AcDbEntity
  8
0
100
AcDbLine
 62
7
  6
CONTINUOUS
 10
114.4451797862
 20
121.1215136678
 11
115.4413333408
 21
121.1215136678
  0
LINE
  5
24B
100
AcDbEntity
  8
0
100
AcDbLine
 62
7
  6
CONTINUOUS
 10
106.9451797862
 20
117.6144068866
 11
106.4451797862
 21
117.8215136678
  0
LINE
  5
24C
100
AcDbEntity
  8
0
100
AcDbLine
 62
7
  6
CONTINUOUS
 10
109.4451797862
 20
107.3215136678
 11
110.4451797862
 21
106.3215136678
  0
LINE
  5
24D
100
AcDbEntity
  8
0
100
AcDbLine
 62
7
  6
CONTINUOUS
 10
79.9451797862
 20
226.1715136678
 11
79.9451797862
 21
225.0715136678
  0
LINE
  5
24E
100
AcDbEntity
  8
0
100
AcDbLine
 62
7
  6
CONTINUOUS
 10
80.3451797862
 20
223.8215136678
 11
80.3451797862
 21
225.0715136678
  0
LINE
  5
24F
100
AcDbEntity
  8
0
100
AcDbLine
 62
7
  6
CONTINUOUS
 10
80.3451797862
 20
226.1715136678
 11
80.3451797862
 21
237.8215136678
  0
LINE
  5
250
100
AcDbEntity
  8
0
100
AcDbLine
 62
7
  6
CONTINUOUS
 10
80.4451797862
 20
69.7147824929
 11
80.4451797862
 21
225.0715136678
  0
LINE
  5
251
100
AcDbEntity
  8
0
100
AcDbLine
 62
7
  6
CONTINUOUS
 10
80.4451797862
 20
226.1715136678
 11
80.4451797862
 21
241.8282448427
  0
LINE
  5
252
100
AcDbEntity
  8
0
100
AcDbLine
 62
7
  6
CONTINUOUS
 10
81.39284383
 20
74.1581392425
 11
81.39284383
 21
90.3093089862
  0
LINE
  5
253
100
AcDbEntity
  8
0
100
AcDbLine
 62
7
  6
CONTINUOUS
 10
81.39284383
 20
97.3168954326
 11
81.39284383
 21
225.0715136678
  0
LINE
  5
254
100
AcDbEntity
  8
0
100
AcDbLine
 62
7
  6
CONTINUOUS
 10
81.39284383
 20
226.1715136678
 11
81.39284383
 21
237.3848880931
  0
LINE
  5
255
100
AcDbEntity
  8
0
100
AcDbLine
 62
7
  6
CONTINUOUS
 10
112.3451797862
 20
116.7215136678
 11
112.4580950301
 21
116.6085984239
  0
LWPOLYLINE
  5
256
100
AcDbEntity
  8
0
100
AcDbPolyline
 62
7
  6
CONTINUOUS
 90
4
 70
0
 10
106.4452879171
 20
34.9269485296
 10
106.5366834068
 20
34.5147792866
 10
106.8724228816
 20
34.1182615642
 10
107.4039081294
 20
33.9424852087
  0
LINE
  5
257
100
AcDbEntity
  8
0
100
AcDbLine
 62
7
  6
CONTINUOUS
 10
130.958971431
 20
131.9697965248
 11
118.9236952506
 21
135.1946390581
  0
LINE
  5
258
100
AcDbEntity
  8
0
100
AcDbLine
 62
7
  6
CONTINUOUS
 10
106.4451797862
 20
34.9416539761
 11
106.4452879142
 21
34.9269487271
  0
LINE
  5
259
100
AcDbEntity
  8
0
100
AcDbLine
 62
7
  6
CONTINUOUS
 10
101.4451797862
 20
104.1715136678
 11
101.4451797862
 21
103.0715136678
  0
LINE
  5
25A
100
AcDbEntity
  8
0
100
AcDbLine
 62
7
  6
CONTINUOUS
 10
101.9451797862
 20
105.3215136678
 11
101.9451797862
 21
104.1715136678
  0
LINE
  5
25B
100
AcDbEntity
  8
0
100
AcDbLine
 62
7
  6
CONTINUOUS
 10
101.9451797862
 20
103.0715136678
 11
101.9451797862
 21
96.5215136678
  0
LINE
  5
25C
100
AcDbEntity
  8
0
100
AcDbLine
 62
7
  6
CONTINUOUS
 10
105.4975157424
 20
96.1759743968
 11
105.4975157424
 21
94.3572138761
  0
LINE
  5
25D
100
AcDbEntity
  8
0
100
AcDbLine
 62
7
  6
CONTINUOUS
 10
121.9871319782
 20
282.3215869239
 11
122.4413333408
 21
285.5918367347
  0
LINE
  5
25E
100
AcDbEntity
  8
0
100
AcDbLine
 62
7
  6
CONTINUOUS
 10
118.9236952506
 20
149.9890344113
 11
130.958971431
 21
153.2138769445
  0
LINE
  5
25F
100
AcDbEntity
  8
0
100
AcDbLine
 62
7
  6
CONTINUOUS
 10
106.4451797862
 20
117.8215136678
 11
106.4451797862
 21
107.3215136678
  0
LINE
  5
260
100
AcDbEntity
  8
0
100
AcDbLine
 62
7
  6
CONTINUOUS
 10
106.4451797862
 20
34.9416539761
 11
106.4451797862
 21
95.628840306
  0
LINE
  5
261
100
AcDbEntity
  8
0
100
AcDbLine
 62
7
  6
CONTINUOUS
 10
106.4451797862
 20
255.4803559766
 11
106.4451797862
 21
280.2420194956
  0
LINE
  5
262
100
AcDbEntity
  8
0
100
AcDbLine
 62
7
  6
CONTINUOUS
 10
106.9451797862
 20
88.5215136678
 11
106.9451797862
 21
95.3401651714
  0
LINE
  5
263
100
AcDbEntity
  8
0
100
AcDbLine
 62
7
  6
CONTINUOUS
 10
106.9451797862
 20
107.3215136678
 11
106.9451797862
 21
117.6144068866
  0
LINE
  5
264
100
AcDbEntity
  8
0
100
AcDbLine
 62
7
  6
CONTINUOUS
 10
107.39284383
 20
255.4803251484
 11
107.39284383
 21
280.2421538163
  0
LINE
  5
265
100
AcDbEntity
  8
0
100
AcDbLine
 62
7
  6
CONTINUOUS
 10
107.9451797862
 20
34.9067332066
 11
107.9451797862
 21
88.0215136678
  0
LINE
  5
266
100
AcDbEntity
  8
0
100
AcDbLine
 62
7
  6
CONTINUOUS
 10
109.0413333408
 20
65.7918367347
 11
109.0413333408
 21
71.3918367347
  0
LINE
  5
267
100
AcDbEntity
  8
0
100
AcDbLine
 62
7
  6
CONTINUOUS
 10
109.0413333408
 20
240.0918367347
 11
109.0413333408
 21
245.6918367347
  0
LINE
  5
268
100
AcDbEntity
  8
0
100
AcDbLine
 62
7
  6
CONTINUOUS
 10
109.4451797862
 20
107.3215136678
 11
109.4451797862
 21
107.7421475119
  0
LINE
  5
269
100
AcDbEntity
  8
0
100
AcDbLine
 62
7
  6
CONTINUOUS
 10
110.4451797862
 20
102.6072917308
 11
110.4451797862
 21
106.3215136678
  0
LINE
  5
26A
100
AcDbEntity
  8
0
100
AcDbLine
 62
7
  6
CONTINUOUS
 10
110.4936692971
 20
280.3504370277
 11
110.4936692971
 21
245.6918367347
  0
LINE
  5
26B
100
AcDbEntity
  8
0
100
AcDbLine
 62
7
  6
CONTINUOUS
 10
110.4936692971
 20
240.0918367347
 11
110.4936692971
 21
207.5395736755
  0
LINE
  5
26C
100
AcDbEntity
  8
0
100
AcDbLine
 62
7
  6
CONTINUOUS
 10
111.3413333408
 20
32.9429711471
 11
111.3413333408
 21
38.9407023223
  0
LINE
  5
26D
100
AcDbEntity
  8
0
100
AcDbLine
 62
7
  6
CONTINUOUS
 10
111.3413333408
 20
58.5918367347
 11
111.3413333408
 21
64.5918367347
  0
LINE
  5
26E
100
AcDbEntity
  8
0
100
AcDbLine
 62
7
  6
CONTINUOUS
 10
111.3413333408
 20
250.5918367347
 11
111.3413333408
 21
256.5918367347
  0
LINE
  5
26F
100
AcDbEntity
  8
0
100
AcDbLine
 62
7
  6
CONTINUOUS
 10
111.3413333408
 20
276.2429711471
 11
111.3413333408
 21
282.2407023223
  0
LINE
  5
270
100
AcDbEntity
  8
0
100
AcDbLine
 62
7
  6
CONTINUOUS
 10
111.4413333408
 20
250.8314243696
 11
111.4413333408
 21
207.5395736755
  0
LINE
  5
271
100
AcDbEntity
  8
0
100
AcDbLine
 62
7
  6
CONTINUOUS
 10
111.4413333408
 20
115.1776231723
 11
111.4413333408
 21
64.3522490998
  0
LINE
  5
272
100
AcDbEntity
  8
0
100
AcDbLine
 62
7
  6
CONTINUOUS
 10
111.4413333408
 20
34.7670501265
 11
111.4413333408
 21
58.8314243696
  0
LINE
  5
273
100
AcDbEntity
  8
0
100
AcDbLine
 62
7
  6
CONTINUOUS
 10
111.4413333408
 20
256.3522490998
 11
111.4413333408
 21
280.4166233429
  0
LINE
  5
274
100
AcDbEntity
  8
0
100
AcDbLine
 62
7
  6
CONTINUOUS
 10
111.6451797862
 20
118.1236573683
 11
111.6451797862
 21
121.1193699673
  0
LINE
  5
275
100
AcDbEntity
  8
0
100
AcDbLine
 62
7
  6
CONTINUOUS
 10
112.3451797862
 20
116.7215136678
 11
112.3451797862
 21
206.4379902893
  0
LINE
  5
276
100
AcDbEntity
  8
0
100
AcDbLine
 62
7
  6
CONTINUOUS
 10
112.4064345306
 20
33.7676592754
 11
112.4064338441
 21
59.5247246236
  0
LINE
  5
277
100
AcDbEntity
  8
0
100
AcDbLine
 62
7
  6
CONTINUOUS
 10
112.4064338441
 20
63.6589488458
 11
112.4064338441
 21
115.1776231723
  0
LINE
  5
278
100
AcDbEntity
  8
0
100
AcDbLine
 62
7
  6
CONTINUOUS
 10
112.4064338441
 20
207.7560502971
 11
112.4064338441
 21
251.5247246236
  0
LINE
  5
279
100
AcDbEntity
  8
0
100
AcDbLine
 62
7
  6
CONTINUOUS
 10
112.4064338441
 20
255.6589488458
 11
112.4064354316
 21
281.4160142254
  0
LINE
  5
27A
100
AcDbEntity
  8
0
100
AcDbLine
 62
7
  6
CONTINUOUS
 10
114.4451797862
 20
118.5956831801
 11
114.4451797862
 21
121.1193699673
  0
LINE
  5
27B
100
AcDbEntity
  8
0
100
AcDbLine
 62
7
  6
CONTINUOUS
 10
114.7913333408
 20
167.1168367347
 11
114.7913333408
 21
203.9918367347
  0
LINE
  5
27C
100
AcDbEntity
  8
0
100
AcDbLine
 62
7
  6
CONTINUOUS
 10
115.4413333408
 20
202.9276231723
 11
115.4413333408
 21
120.0060502971
  0
LINE
  5
27D
100
AcDbEntity
  8
0
100
AcDbLine
 62
7
  6
CONTINUOUS
 10
116.4064338441
 20
119.1776231723
 11
116.4064338441
 21
203.7560502971
  0
LINE
  5
27E
100
AcDbEntity
  8
0
100
AcDbLine
 62
7
  6
CONTINUOUS
 10
117.4413333408
 20
281.8918367347
 11
117.4413333408
 21
281.5918367347
  0
LINE
  5
27F
100
AcDbEntity
  8
0
100
AcDbLine
 62
7
  6
CONTINUOUS
 10
117.4413333408
 20
31.9918367347
 11
117.4413333408
 21
60.1856006237
  0
LINE
  5
280
100
AcDbEntity
  8
0
100
AcDbLine
 62
7
  6
CONTINUOUS
 10
117.4413333408
 20
62.9980728457
 11
117.4413333408
 21
70.7571827587
  0
LINE
  5
281
100
AcDbEntity
  8
0
100
AcDbLine
 62
7
  6
CONTINUOUS
 10
117.4413333408
 20
137.1264907107
 11
117.4413333408
 21
148.0571827587
  0
LINE
  5
282
100
AcDbEntity
  8
0
100
AcDbLine
 62
7
  6
CONTINUOUS
 10
117.4413333408
 20
244.4264907107
 11
117.4413333408
 21
252.1856006237
  0
LINE
  5
283
100
AcDbEntity
  8
0
100
AcDbLine
 62
7
  6
CONTINUOUS
 10
117.4413333408
 20
254.9980728457
 11
117.4413333408
 21
263.1365365612
  0
LINE
  5
284
100
AcDbEntity
  8
0
100
AcDbLine
 62
7
  6
CONTINUOUS
 10
118.9236952506
 20
281.6436019532
 11
118.9236952506
 21
281.9236470761
  0
LINE
  5
285
100
AcDbEntity
  8
0
100
AcDbLine
 62
7
  6
CONTINUOUS
 10
121.8413333408
 20
32.8418367347
 11
121.8413333408
 21
33.1974161338
  0
LINE
  5
286
100
AcDbEntity
  8
0
100
AcDbLine
 62
7
  6
CONTINUOUS
 10
121.8413333408
 20
60.1502558089
 11
121.8413333408
 21
69.1918367347
  0
LINE
  5
287
100
AcDbEntity
  8
0
100
AcDbLine
 62
7
  6
CONTINUOUS
 10
121.8413333408
 20
252.1502558089
 11
121.8413333408
 21
261.1918367347
  0
LINE
  5
288
100
AcDbEntity
  8
0
100
AcDbLine
 62
7
  6
CONTINUOUS
 10
121.8413333408
 20
281.9862573356
 11
121.8413333408
 21
282.3418367347
  0
LINE
  5
289
100
AcDbEntity
  8
0
100
AcDbLine
 62
7
  6
CONTINUOUS
 10
122.4413333408
 20
285.5918367347
 11
122.4413333408
 21
286.1918367347
  0
LINE
  5
28A
100
AcDbEntity
  8
0
100
AcDbLine
 62
7
  6
CONTINUOUS
 10
123.4413333408
 20
282.5918367347
 11
123.4413333408
 21
282.3418367347
  0
LINE
  5
28B
100
AcDbEntity
  8
0
100
AcDbLine
 62
7
  6
CONTINUOUS
 10
114.7913333408
 20
167.1168367347
 11
115.4413333408
 21
166.4668367347
  0
LINE
  5
28C
100
AcDbEntity
  8
0
100
AcDbLine
 62
7
  6
CONTINUOUS
 10
125.3413333408
 20
282.3418367347
 11
125.3413333408
 21
282.0613646317
  0
LINE
  5
28D
100
AcDbEntity
  8
0
100
AcDbLine
 62
7
  6
CONTINUOUS
 10
125.3413333408
 20
60.3033250203
 11
125.3413333408
 21
65.1918367347
  0
LINE
  5
28E
100
AcDbEntity
  8
0
100
AcDbLine
 62
7
  6
CONTINUOUS
 10
125.3413333408
 20
252.3033250203
 11
125.3413333408
 21
257.1918367347
  0
LINE
  5
28F
100
AcDbEntity
  8
0
100
AcDbLine
 62
7
  6
CONTINUOUS
 10
128.3413333408
 20
269.1264907107
 11
128.3413333408
 21
282.1257423141
  0
LINE
  5
290
100
AcDbEntity
  8
0
100
AcDbLine
 62
7
  6
CONTINUOUS
 10
131.8413333408
 20
261.1918367347
 11
131.8413333408
 21
257.1918367347
  0
LINE
  5
291
100
AcDbEntity
  8
0
100
AcDbLine
 62
7
  6
CONTINUOUS
 10
131.8413333408
 20
69.1918367347
 11
131.8413333408
 21
65.1918367347
  0
LINE
  5
292
100
AcDbEntity
  8
0
100
AcDbLine
 62
7
  6
CONTINUOUS
 10
131.9110785638
 20
65.1918367347
 11
131.9110785638
 21
69.1918367347
  0
LINE
  5
293
100
AcDbEntity
  8
0
100
AcDbLine
 62
7
  6
CONTINUOUS
 10
131.9110785638
 20
257.1918367347
 11
131.9110785638
 21
261.1918367347
  0
LINE
  5
294
100
AcDbEntity
  8
0
100
AcDbLine
 62
7
  6
CONTINUOUS
 10
132.4413333408
 20
77.8457285971
 11
132.4413333408
 21
130.0379448723
  0
LINE
  5
295
100
AcDbEntity
  8
0
100
AcDbLine
 62
7
  6
CONTINUOUS
 10
132.4413333408
 20
155.1457285971
 11
132.4413333408
 21
237.3379448723
  0
LINE
  5
296
100
AcDbEntity
  8
0
100
AcDbLine
 62
7
  6
CONTINUOUS
 10
140.7413333408
 20
25.5918367347
 11
140.7413333408
 21
289.5918367347
  0
LINE
  5
297
100
AcDbEntity
  8
0
100
AcDbLine
 62
7
  6
CONTINUOUS
 10
112.3451797862
 20
123.7215136678
 11
106.4451797862
 21
117.8215136678
  0
LINE
  5
298
100
AcDbEntity
  8
0
100
AcDbLine
 62
7
  6
CONTINUOUS
 10
112.3451797862
 20
123.0144068866
 11
106.9451797862
 21
117.6144068866
  0
LINE
  5
299
100
AcDbEntity
  8
0
100
AcDbLine
 62
7
  6
CONTINUOUS
 10
111.7342265597
 20
115.8847299535
 11
115.148440122
 21
119.2989435159
  0
LINE
  5
29A
100
AcDbEntity
  8
0
100
AcDbLine
 62
7
  6
CONTINUOUS
 10
101.9451797862
 20
105.3215136678
 11
103.9451797862
 21
107.3215136678
  0
LINE
  5
29B
100
AcDbEntity
  8
0
100
AcDbLine
 62
7
  6
CONTINUOUS
 10
147.2587644894
 20
289.0216353939
 11
147.2587644894
 21
26.1620380755
  0
LINE
  5
29C
100
AcDbEntity
  8
0
100
AcDbLine
 62
7
  6
CONTINUOUS
 10
147.4413333408
 20
26.3612770151
 11
147.4413333408
 21
288.8223964543
  0
LINE
  5
29D
100
AcDbEntity
  8
0
100
AcDbLine
 62
7
  6
CONTINUOUS
 10
147.5451797862
 20
28.0691374729
 11
147.5451797862
 21
287.1738898627
  0
LINE
  5
29E
100
AcDbEntity
  8
0
100
AcDbLine
 62
7
  6
CONTINUOUS
 10
148.2294364721
 20
27.9215136678
 11
148.2294364721
 21
287.3215136678
  0
LINE
  5
29F
100
AcDbEntity
  8
0
100
AcDbLine
 62
7
  6
CONTINUOUS
 10
148.4294364721
 20
286.3944860988
 11
148.4294364721
 21
28.8485412368
  0
LINE
  5
2A0
100
AcDbEntity
  8
0
100
AcDbLine
 62
7
  6
CONTINUOUS
 10
148.5251797862
 20
258.6215136678
 11
148.5251797862
 21
275.1215136678
  0
LINE
  5
2A1
100
AcDbEntity
  8
0
100
AcDbLine
 62
7
  6
CONTINUOUS
 10
116.4064338441
 20
119.1776231723
 11
112.4064338441
 21
115.1776231723
  0
LINE
  5
2A2
100
AcDbEntity
  8
0
100
AcDbLine
 62
7
  6
CONTINUOUS
 10
112.3451797862
 20
204.8596360617
 11
111.0794557347
 21
206.1253601132
  0
LINE
  5
2A3
100
AcDbEntity
  8
0
100
AcDbLine
 62
7
  6
CONTINUOUS
 10
112.3451797862
 20
206.2215136678
 11
111.7342265597
 21
206.8324668943
  0
LINE
  5
2A4
100
AcDbEntity
  8
0
100
AcDbLine
 62
7
  6
CONTINUOUS
 10
115.148440122
 20
203.6347299535
 11
111.7342265597
 21
207.0489435159
  0
LINE
  5
2A5
100
AcDbEntity
  8
0
100
AcDbLine
 62
7
  6
CONTINUOUS
 10
112.4064338441
 20
207.7560502971
 11
116.4064338441
 21
203.7560502971
  0
LINE
  5
2A6
100
AcDbEntity
  8
0
100
AcDbLine
 62
7
  6
CONTINUOUS
 10
111.4775842498
 20
207.5357272102
 11
111.4364575696
 21
207.5357272102
  0
LINE
  5
2A7
100
AcDbEntity
  8
0
100
AcDbLine
 62
7
  6
CONTINUOUS
 10
112.4064338441
 20
207.7560502971
 11
111.4413333408
 21
207.7560502971
  0
LINE
  5
2A8
100
AcDbEntity
  8
0
100
AcDbLine
 62
7
  6
CONTINUOUS
 10
148.2294364721
 20
27.9215136678
 11
148.4294364721
 21
28.8485412367
  0
LINE
  5
2A9
100
AcDbEntity
  8
0
100
AcDbLine
 62
7
  6
CONTINUOUS
 10
148.4294364721
 20
286.3944860989
 11
148.2294364721
 21
287.3215136678
  0
LINE
  5
2AA
100
AcDbEntity
  8
0
100
AcDbLine
 62
7
  6
CONTINUOUS
 10
131.9110785638
 20
32.9813271806
 11
131.8413333408
 21
32.8418367347
  0
LINE
  5
2AB
100
AcDbEntity
  8
0
100
AcDbLine
 62
7
  6
CONTINUOUS
 10
80.3451797862
 20
223.8215136678
 11
80.4451797862
 21
223.8215136678
  0
LINE
  5
2AC
100
AcDbEntity
  8
0
100
AcDbLine
 62
7
  6
CONTINUOUS
 10
80.4451797862
 20
224.8215136678
 11
80.3451797862
 21
224.8215136678
  0
LINE
  5
2AD
100
AcDbEntity
  8
0
100
AcDbLine
 62
7
  6
CONTINUOUS
 10
81.3928438299
 20
225.0715136678
 11
79.9451797862
 21
225.0715136678
  0
LINE
  5
2AE
100
AcDbEntity
  8
0
100
AcDbLine
 62
7
  6
CONTINUOUS
 10
81.39284383
 20
226.1715136678
 11
79.9451797862
 21
226.1715136678
  0
LINE
  5
2AF
100
AcDbEntity
  8
0
100
AcDbLine
 62
7
  6
CONTINUOUS
 10
131.8413333408
 20
282.3418367347
 11
131.9110785638
 21
282.2023462888
  0
LINE
  5
2B0
100
AcDbEntity
  8
0
100
AcDbLine
 62
7
  6
CONTINUOUS
 10
80.3451797862
 20
236.8215136678
 11
80.4451797862
 21
236.8215136678
  0
LINE
  5
2B1
100
AcDbEntity
  8
0
100
AcDbLine
 62
7
  6
CONTINUOUS
 10
81.39284383
 20
237.3848885643
 11
80.4451797862
 21
237.3848880931
  0
LINE
  5
2B2
100
AcDbEntity
  8
0
100
AcDbLine
 62
7
  6
CONTINUOUS
 10
80.4451797862
 20
237.8215136678
 11
80.3451797862
 21
237.8215136678
  0
LINE
  5
2B3
100
AcDbEntity
  8
0
100
AcDbLine
 62
7
  6
CONTINUOUS
 10
109.0413333408
 20
240.0918367347
 11
111.4413333408
 21
240.0918367347
  0
LINE
  5
2B4
100
AcDbEntity
  8
0
100
AcDbLine
 62
7
  6
CONTINUOUS
 10
109.0413333408
 20
245.6918367347
 11
111.4413333408
 21
245.6918367347
  0
LINE
  5
2B5
100
AcDbEntity
  8
0
100
AcDbLine
 62
7
  6
CONTINUOUS
 10
130.958971431
 20
239.2697965248
 11
118.9236952506
 21
242.4946390581
  0
LINE
  5
2B6
100
AcDbEntity
  8
0
100
AcDbLine
 62
7
  6
CONTINUOUS
 10
111.4413333408
 20
250.5918367347
 11
111.3413333408
 21
250.5918367347
  0
LINE
  5
2B7
100
AcDbEntity
  8
0
100
AcDbLine
 62
7
  6
CONTINUOUS
 10
125.3413333408
 20
253.5918367347
 11
121.8413333408
 21
253.5918367347
  0
LINE
  5
2B8
100
AcDbEntity
  8
0
100
AcDbLine
 62
7
  6
CONTINUOUS
 10
107.39284383
 20
255.4803251422
 11
106.4451797862
 21
255.4803251422
  0
LINE
  5
2B9
100
AcDbEntity
  8
0
100
AcDbLine
 62
7
  6
CONTINUOUS
 10
111.4413333408
 20
256.5918367347
 11
111.3413333408
 21
256.5918367347
  0
LINE
  5
2BA
100
AcDbEntity
  8
0
100
AcDbLine
 62
7
  6
CONTINUOUS
 10
125.3413333408
 20
257.1918367347
 11
131.9110785638
 21
257.1918367347
  0
LINE
  5
2BB
100
AcDbEntity
  8
0
100
AcDbLine
 62
7
  6
CONTINUOUS
 10
148.4451797862
 20
258.6215136678
 11
148.5251797862
 21
258.6215136678
  0
LINE
  5
2BC
100
AcDbEntity
  8
0
100
AcDbLine
 62
7
  6
CONTINUOUS
 10
127.9913333408
 20
282.3418367347
 11
127.7413333408
 21
282.5918367347
  0
LINE
  5
2BD
100
AcDbEntity
  8
0
100
AcDbLine
 62
7
  6
CONTINUOUS
 10
118.9236952506
 20
265.0683882138
 11
126.8589714311
 21
267.1946390581
  0
LINE
  5
2BE
100
AcDbEntity
  8
0
100
AcDbLine
 62
7
  6
CONTINUOUS
 10
148.5251797862
 20
260.6215136678
 11
148.4451797862
 21
260.6215136678
  0
LINE
  5
2BF
100
AcDbEntity
  8
0
100
AcDbLine
 62
7
  6
CONTINUOUS
 10
131.9110785638
 20
261.1918367347
 11
121.8413333408
 21
261.1918367347
  0
LINE
  5
2C0
100
AcDbEntity
  8
0
100
AcDbLine
 62
7
  6
CONTINUOUS
 10
148.4451797862
 20
273.1215136678
 11
148.5251797862
 21
273.1215136678
  0
LINE
  5
2C1
100
AcDbEntity
  8
0
100
AcDbLine
 62
7
  6
CONTINUOUS
 10
148.5251797862
 20
275.1215136678
 11
148.4451797862
 21
275.1215136678
  0
LINE
  5
2C2
100
AcDbEntity
  8
0
100
AcDbLine
 62
7
  6
CONTINUOUS
 10
111.4413333408
 20
276.2418367347
 11
111.3413333408
 21
276.2418367347
  0
LINE
  5
2C3
100
AcDbEntity
  8
0
100
AcDbLine
 62
7
  6
CONTINUOUS
 10
148.2294364721
 20
287.3215136678
 11
147.5451797862
 21
287.1738898627
  0
LINE
  5
2C4
100
AcDbEntity
  8
0
100
AcDbLine
 62
7
  6
CONTINUOUS
 10
111.4045948835
 20
280.4139439423
 11
110.4936699076
 21
280.3504325275
  0
LINE
  5
2C5
100
AcDbEntity
  8
0
100
AcDbLine
 62
7
  6
CONTINUOUS
 10
110.4936692971
 20
280.3504370277
 11
107.39284383
 21
280.2421538163
  0
LINE
  5
2C6
100
AcDbEntity
  8
0
100
AcDbLine
 62
7
  6
CONTINUOUS
 10
107.4064338441
 20
281.2414103225
 11
111.3413333408
 21
281.3788200408
  0
LINE
  5
2C7
100
AcDbEntity
  8
0
100
AcDbLine
 62
7
  6
CONTINUOUS
 10
112.4064338441
 20
281.41601417
 11
128.3413333408
 21
281.9724731222
  0
LINE
  5
2C8
100
AcDbEntity
  8
0
100
AcDbLine
 62
7
  6
CONTINUOUS
 10
117.4414077728
 20
278.0918360857
 11
112.4064338441
 21
277.9181462754
  0
LINE
  5
2C9
100
AcDbEntity
  8
0
100
AcDbLine
 62
7
  6
CONTINUOUS
 10
140.7413333408
 20
278.8926423287
 11
128.3413333408
 21
278.6265479081
  0
LINE
  5
2CA
100
AcDbEntity
  8
0
100
AcDbLine
 62
7
  6
CONTINUOUS
 10
117.4413333408
 20
281.8918367347
 11
140.7413333408
 21
282.3918367347
  0
LINE
  5
2CB
100
AcDbEntity
  8
0
100
AcDbLine
 62
7
  6
CONTINUOUS
 10
111.4413333408
 20
277.9181465713
 11
112.4064338441
 21
277.9181465713
  0
LINE
  5
2CC
100
AcDbEntity
  8
0
100
AcDbLine
 62
7
  6
CONTINUOUS
 10
106.4451971526
 20
280.2420194224
 11
107.39284383
 21
280.2420197683
  0
LINE
  5
2CD
100
AcDbEntity
  8
0
100
AcDbLine
 62
7
  6
CONTINUOUS
 10
147.5451797862
 20
281.3215136678
 11
148.4294364721
 21
281.3215136678
  0
LINE
  5
2CE
100
AcDbEntity
  8
0
100
AcDbLine
 62
7
  6
CONTINUOUS
 10
140.7413333408
 20
281.9418367347
 11
147.4413333408
 21
281.9418367347
  0
LINE
  5
2CF
100
AcDbEntity
  8
0
100
AcDbLine
 62
7
  6
CONTINUOUS
 10
121.8413333408
 20
282.2418367347
 11
111.3413333408
 21
282.2418367347
  0
LINE
  5
2D0
100
AcDbEntity
  8
0
100
AcDbLine
 62
7
  6
CONTINUOUS
 10
121.8413333408
 20
282.3418367347
 11
131.8413333408
 21
282.3418367347
  0
LINE
  5
2D1
100
AcDbEntity
  8
0
100
AcDbLine
 62
7
  6
CONTINUOUS
 10
127.7413333408
 20
282.5918367347
 11
123.4413333408
 21
282.5918367347
  0
LINE
  5
2D2
100
AcDbEntity
  8
0
100
AcDbLine
 62
7
  6
CONTINUOUS
 10
122.4413333408
 20
286.1918367347
 11
121.4413333408
 21
286.1918367347
  0
LINE
  5
2D3
100
AcDbEntity
  8
0
100
AcDbLine
 62
7
  6
CONTINUOUS
 10
117.4414077728
 20
278.0918360857
 11
128.3413333408
 21
278.089700732
  0
LINE
  5
2D4
100
AcDbEntity
  8
0
100
AcDbLine
 62
7
  6
CONTINUOUS
 10
147.2587644894
 20
289.0216353939
 11
140.7413333408
 21
289.5918367347
  0
ARC
  5
2D5
100
AcDbEntity
  8
0
100
AcDbCircle
 62
7
  6
CONTINUOUS
 10
114.4413333408
 20
120.0060502971
 40
1.0
100
AcDbArc
 50
315.0
 51
360.0
  0
ARC
  5
2D6
100
AcDbEntity
  8
0
100
AcDbCircle
 62
7
  6
CONTINUOUS
 10
112.4413333408
 20
115.1776231723
 40
1.0
100
AcDbArc
 50
135.0
 51
180.0
  0
ARC
  5
2D7
100
AcDbEntity
  8
0
100
AcDbCircle
 62
7
  6
CONTINUOUS
 10
114.4413333408
 20
120.0318807848
 40
1.0
100
AcDbArc
 50
315.0
 51
360.0
  0
ARC
  5
2D8
100
AcDbEntity
  8
0
100
AcDbCircle
 62
7
  6
CONTINUOUS
 10
112.4451797862
 20
115.2073001054
 40
1.0
100
AcDbArc
 50
135.0
 51
179.998547842
  0
ARC
  5
2D9
100
AcDbEntity
  8
0
100
AcDbCircle
 62
7
  6
CONTINUOUS
 10
112.4413333408
 20
34.7670501265
 40
1.0
100
AcDbArc
 50
180.0
 51
268.0
  0
ARC
  5
2DA
100
AcDbEntity
  8
0
100
AcDbCircle
 62
7
  6
CONTINUOUS
 10
105.4451797862
 20
54.3282448427
 40
1.0
100
AcDbArc
 50
16.7351014392
 51
61.3586697662
  0
ARC
  5
2DB
100
AcDbEntity
  8
0
100
AcDbCircle
 62
7
  6
CONTINUOUS
 10
81.4451797862
 20
69.7147824929
 40
1.0
100
AcDbArc
 50
180.0
 51
241.3586697662
  0
ARC
  5
2DC
100
AcDbEntity
  8
0
100
AcDbCircle
 62
7
  6
CONTINUOUS
 10
81.4451797862
 20
93.3125603203
 40
1.0
100
AcDbArc
 50
180.0
 51
263.0
  0
ARC
  5
2DD
100
AcDbEntity
  8
0
100
AcDbCircle
 62
7
  6
CONTINUOUS
 10
106.9451797862
 20
88.0215136678
 40
0.5
100
AcDbArc
 50
90.0000000002
 51
180.0
  0
ARC
  5
2DE
100
AcDbEntity
  8
0
100
AcDbCircle
 62
7
  6
CONTINUOUS
 10
111.2786779315
 20
318.2077701083
 40
110.670983707
100
AcDbArc
 50
269.5935876021
 51
269.9420340359
  0
ARC
  5
2DF
100
AcDbEntity
  8
0
100
AcDbCircle
 62
7
  6
CONTINUOUS
 10
114.4413333408
 20
202.9276231723
 40
1.0
100
AcDbArc
 50
0.0
 51
45.0
  0
ARC
  5
2E0
100
AcDbEntity
  8
0
100
AcDbCircle
 62
7
  6
CONTINUOUS
 10
112.4413333408
 20
207.5395736755
 40
1.0
100
AcDbArc
 50
180.0
 51
225.0
  0
ARC
  5
2E1
100
AcDbEntity
  8
0
100
AcDbCircle
 62
7
  6
CONTINUOUS
 10
81.4451797862
 20
241.8282448427
 40
1.0
100
AcDbArc
 50
118.6413302338
 51
180.0
  0
ARC
  5
2E2
100
AcDbEntity
  8
0
100
AcDbCircle
 62
7
  6
CONTINUOUS
 10
105.4451797862
 20
257.2147824929
 40
1.0
100
AcDbArc
 50
298.6413302338
 51
360.0
  0
ARC
  5
2E3
100
AcDbEntity
  8
0
100
AcDbCircle
 62
7
  6
CONTINUOUS
 10
107.4413333408
 20
280.2420194955
 40
1.0
100
AcDbArc
 50
92.0
 51
180.0
  0
ARC
  5
2E4
100
AcDbEntity
  8
0
100
AcDbCircle
 62
7
  6
CONTINUOUS
 10
112.4413333408
 20
280.4166233429
 40
1.0
100
AcDbArc
 50
92.0
 51
180.0
  0
ARC
  5
2E5
100
AcDbEntity
  8
0
100
AcDbCircle
 62
7
  6
CONTINUOUS
 10
112.4413333408
 20
207.7560502971
 40
1.0
100
AcDbArc
 50
180.0
 51
225.0
  0
ARC
  5
2E6
100
AcDbEntity
  8
0
100
AcDbCircle
 62
7
  6
CONTINUOUS
 10
119.4413333408
 20
70.7571827587
 40
2.0
100
AcDbArc
 50
105.0
 51
180.0
  0
ARC
  5
2E7
100
AcDbEntity
  8
0
100
AcDbCircle
 62
7
  6
CONTINUOUS
 10
130.4413333408
 20
77.8457285971
 40
2.0
100
AcDbArc
 50
285.0
 51
360.0
  0
ARC
  5
2E8
100
AcDbEntity
  8
0
100
AcDbCircle
 62
7
  6
CONTINUOUS
 10
130.4413333408
 20
130.0379448723
 40
2.0
100
AcDbArc
 50
0.0
 51
75.0
  0
ARC
  5
2E9
100
AcDbEntity
  8
0
100
AcDbCircle
 62
7
  6
CONTINUOUS
 10
119.4413333408
 20
137.1264907107
 40
2.0
100
AcDbArc
 50
180.0
 51
255.0
  0
ARC
  5
2EA
100
AcDbEntity
  8
0
100
AcDbCircle
 62
7
  6
CONTINUOUS
 10
119.4413333408
 20
148.0571827587
 40
2.0
100
AcDbArc
 50
105.0
 51
180.0
  0
ARC
  5
2EB
100
AcDbEntity
  8
0
100
AcDbCircle
 62
7
  6
CONTINUOUS
 10
130.4413333408
 20
155.1457285971
 40
2.0
100
AcDbArc
 50
285.0
 51
360.0
  0
ARC
  5
2EC
100
AcDbEntity
  8
0
100
AcDbCircle
 62
7
  6
CONTINUOUS
 10
147.2413333408
 20
26.3612770151
 40
0.2
100
AcDbArc
 50
274.9999999993
 51
359.9999999923
  0
ARC
  5
2ED
100
AcDbEntity
  8
0
100
AcDbCircle
 62
7
  6
CONTINUOUS
 10
121.3175214358
 20
281.5632342184
 40
32.8720631921
100
AcDbArc
 50
242.1703093998
 51
243.1002365315
  0
ARC
  5
2EE
100
AcDbEntity
  8
0
100
AcDbCircle
 62
7
  6
CONTINUOUS
 10
119.4413333408
 20
263.1365365612
 40
2.0
100
AcDbArc
 50
105.0
 51
180.0
  0
ARC
  5
2EF
100
AcDbEntity
  8
0
100
AcDbCircle
 62
7
  6
CONTINUOUS
 10
126.3413333408
 20
269.1264907107
 40
2.0
100
AcDbArc
 50
285.0
 51
360.0
  0
ARC
  5
2F0
100
AcDbEntity
  8
0
100
AcDbCircle
 62
7
  6
CONTINUOUS
 10
130.4413333408
 20
237.3379448723
 40
2.0
100
AcDbArc
 50
0.0
 51
75.0
  0
ARC
  5
2F1
100
AcDbEntity
  8
0
100
AcDbCircle
 62
7
  6
CONTINUOUS
 10
119.4413333408
 20
244.4264907107
 40
2.0
100
AcDbArc
 50
180.0
 51
255.0
  0
ARC
  5
2F2
100
AcDbEntity
  8
0
100
AcDbCircle
 62
7
  6
CONTINUOUS
 10
147.7451797862
 20
286.2468622937
 40
0.7
100
AcDbArc
 50
0.0000000077
 51
12.174581032
  0
ARC
  5
2F3
100
AcDbEntity
  8
0
100
AcDbCircle
 62
7
  6
CONTINUOUS
 10
147.2413333408
 20
288.8223964543
 40
0.2
100
AcDbArc
 50
0.0000000077
 51
85.0000000007
  0
SPLINE
  5
2F4
100
AcDbEntity
  8
0
100
AcDbSpline
 62
7
  6
CONTINUOUS
 70
0
 71
3
 72
18
 73
14
 74
0
 42
0.0000001
 43
0.0000001
 44
0.0000000001
 40
0.0
 40
0.0
 40
0.0
 40
0.0
 40
0.0042432558
 40
0.0170498393
 40
0.0383791136
 40
0.0680267008
 40
0.1058209218
 40
0.1518033892
 40
0.2674878514
 40
0.4127424619
 40
0.5852761474
 40
0.7822600267
 40
1.0
 40
1.0
 40
1.0
 40
1.0
 10
106.4451797895
 20
34.9415734084
 30
0.0
 10
106.4449184792
 20
34.9394673566
 30
0.0
 10
106.4592671498
 20
34.9442817598
 30
0.0
 10
106.472815317
 20
34.9390046527
 30
0.0
 10
106.5079177673
 20
34.9410448673
 30
0.0
 10
106.5508967379
 20
34.9388192657
 30
0.0
 10
106.6081485532
 20
34.9379754543
 30
0.0
 10
106.707625408
 20
34.935463085
 30
0.0
 10
106.8612499725
 20
34.9320301501
 30
0.0
 10
107.0779149644
 20
34.926855182
 30
0.0
 10
107.3353253045
 20
34.9208941303
 30
0.0
 10
107.6289410234
 20
34.9138524614
 30
0.0
 10
107.8363048225
 20
34.9090203443
 30
0.0
 10
107.9451784642
 20
34.9066520709
 30
0.0
  0
SPLINE
  5
2F5
100
AcDbEntity
  8
0
100
AcDbSpline
 62
7
  6
CONTINUOUS
 70
0
 71
3
 72
11
 73
7
 74
0
 42
0.0000001
 43
0.0000001
 44
0.0000000001
 40
0.0
 40
0.0
 40
0.0
 40
0.0
 40
0.1716260042
 40
0.3965750243
 40
0.6804276827
 40
1.0
 40
1.0
 40
1.0
 40
1.0
 10
108.4102802895
 20
33.9073423796
 30
0.0
 10
108.3424784222
 20
33.909710073
 30
0.0
 10
108.190170559
 20
33.987979866
 30
0.0
 10
108.0476885067
 20
34.2232520433
 30
0.0
 10
107.9574026959
 20
34.5404235646
 30
0.0
 10
107.9418723725
 20
34.7804506237
 30
0.0
 10
107.9451797862
 20
34.9067332066
 30
0.0
  0
SPLINE
  5
2F6
100
AcDbEntity
  8
0
100
AcDbSpline
 62
7
  6
CONTINUOUS
 70
0
 71
3
 72
8
 73
4
 74
0
 42
0.0000001
 43
0.0000001
 44
0.0000000001
 40
0.0
 40
0.0
 40
0.0
 40
0.0
 40
1.0
 40
1.0
 40
1.0
 40
1.0
 10
106.4451801264
 20
252.2479481221
 30
0.0
 10
106.1481791305
 20
251.6717874979
 30
0.0
 10
105.8267886883
 20
251.1082196201
 30
0.0
 10
105.4976271187
 20
250.5498081969
 30
0.0
  0
SPLINE
  5
2F7
100
AcDbEntity
  8
0
100
AcDbSpline
 62
7
  6
CONTINUOUS
 70
0
 71
3
 72
9
 73
5
 74
0
 42
0.0000001
 43
0.0000001
 44
0.0000000001
 40
0.0
 40
0.0
 40
0.0
 40
0.0
 40
0.2629289367
 40
1.0
 40
1.0
 40
1.0
 40
1.0
 10
107.3930859918
 20
255.4803251482
 30
0.0
 10
107.39308567
 20
255.1832421205
 30
0.0
 10
107.2708662009
 20
254.052305219
 30
0.0
 10
106.8220268999
 20
252.9906243973
 30
0.0
 10
106.4452696185
 20
252.2479026012
 30
0.0
  0
SPLINE
  5
2F8
100
AcDbEntity
  8
0
100
AcDbSpline
 62
7
  6
CONTINUOUS
 70
0
 71
3
 72
9
 73
5
 74
0
 42
0.0000001
 43
0.0000001
 44
0.0000000001
 40
0.0
 40
0.0
 40
0.0
 40
0.0
 40
0.237059786
 40
1.0
 40
1.0
 40
1.0
 40
1.0
 10
105.5661848012
 20
89.3433631968
 30
0.0
 10
105.5988938879
 20
89.3394554213
 30
0.0
 10
105.7381446176
 20
89.3348394884
 30
0.0
 10
105.8778930072
 20
89.3741895798
 30
0.0
 10
105.971793832
 20
89.4234074127
 30
0.0
  0
SPLINE
  5
2F9
100
AcDbEntity
  8
0
100
AcDbSpline
 62
7
  6
CONTINUOUS
 70
0
 71
3
 72
9
 73
5
 74
0
 42
0.0000001
 43
0.0000001
 44
0.0000000001
 40
0.0
 40
0.0
 40
0.0
 40
0.0
 40
0.2443185482
 40
1.0
 40
1.0
 40
1.0
 40
1.0
 10
105.971793832
 20
89.4234074127
 30
0.0
 10
106.0043550566
 20
89.44047428
 30
0.0
 10
106.1324027201
 20
89.5202454542
 30
0.0
 10
106.2387047877
 20
89.6320506624
 30
0.0
 10
106.3048800945
 20
89.7245190688
 30
0.0
  0
SPLINE
  5
2FA
100
AcDbEntity
  8
0
100
AcDbSpline
 62
7
  6
CONTINUOUS
 70
0
 71
3
 72
9
 73
5
 74
0
 42
0.0000001
 43
0.0000001
 44
0.0000000001
 40
0.0
 40
0.0
 40
0.0
 40
0.0
 40
0.485710776
 40
1.0
 40
1.0
 40
1.0
 40
1.0
 10
106.3048800945
 20
89.7245190688
 30
0.0
 10
106.3449552636
 20
89.7805171019
 30
0.0
 10
106.4180672666
 20
89.9040158162
 30
0.0
 10
106.4451826356
 20
90.0472744646
 30
0.0
 10
106.4451797859
 20
90.1201868406
 30
0.0
  0
SPLINE
  5
2FB
100
AcDbEntity
  8
0
100
AcDbSpline
 62
7
  6
CONTINUOUS
 70
0
 71
3
 72
21
 73
17
 74
0
 42
0.0000001
 43
0.0000001
 44
0.0000000001
 40
0.0
 40
0.0
 40
0.0
 40
0.0
 40
0.0018808838
 40
0.0068566771
 40
0.0148489162
 40
0.025363379
 40
0.0524240947
 40
0.0869145417
 40
0.1286736119
 40
0.1784243843
 40
0.3010638541
 40
0.450840991
 40
0.6214692985
 40
0.7126189284
 40
0.8068113301
 40
1.0
 40
1.0
 40
1.0
 40
1.0
 10
117.4412275287
 20
281.5918330397
 30
0.0
 10
117.4390062645
 20
281.5917554714
 30
0.0
 10
117.4340157944
 20
281.58342102
 30
0.0
 10
117.4217175615
 20
281.5726006248
 30
0.0
 10
117.4039686262
 20
281.5503281117
 30
0.0
 10
117.3716945588
 20
281.5076505818
 30
0.0
 10
117.3321755416
 20
281.4312949381
 30
0.0
 10
117.2938647769
 20
281.3146744307
 30
0.0
 10
117.28092514
 20
281.1653561409
 30
0.0
 10
117.2848680185
 20
280.912483132
 30
0.0
 10
117.3008081518
 20
280.5317434007
 30
0.0
 10
117.2782568146
 20
280.0087281152
 30
0.0
 10
117.2824729358
 20
279.52097504
 30
0.0
 10
117.3415373866
 20
279.1041783122
 30
0.0
 10
117.392714471
 20
278.6598244145
 30
0.0
 10
117.4189887668
 20
278.3211567077
 30
0.0
 10
117.4414077728
 20
278.0939714394
 30
0.0
  0
SPLINE
  5
2FC
100
AcDbEntity
  8
0
100
AcDbSpline
 62
7
  6
CONTINUOUS
 70
0
 71
3
 72
21
 73
17
 74
0
 42
0.0000001
 43
0.0000001
 44
0.0000000001
 40
0.0
 40
0.0
 40
0.0
 40
0.0
 40
0.0012520071
 40
0.0048519255
 40
0.0108434003
 40
0.01921742
 40
0.0430515082
 40
0.0761999639
 40
0.1183118046
 40
0.1689338823
 40
0.2276071503
 40
0.293748111
 40
0.445552701
 40
0.6183848955
 40
0.8057594031
 40
1.0
 40
1.0
 40
1.0
 40
1.0
 10
105.5661883632
 20
89.3433630482
 30
0.0
 10
105.5682658279
 20
89.3431079676
 30
0.0
 10
105.5689200295
 20
89.3556253137
 30
0.0
 10
105.571534383
 20
89.3693957762
 30
0.0
 10
105.5725499383
 20
89.401807032
 30
0.0
 10
105.5748018147
 20
89.4641780394
 30
0.0
 10
105.575869631
 20
89.5745202929
 30
0.0
 10
105.5765715429
 20
89.7396636388
 30
0.0
 10
105.5760508
 20
89.9503094767
 30
0.0
 10
105.5744721632
 20
90.2033522806
 30
0.0
 10
105.5716607404
 20
90.4966516113
 30
0.0
 10
105.5659911333
 20
90.9590503037
 30
0.0
 10
105.5556244191
 20
91.6122658287
 30
0.0
 10
105.5389155578
 20
92.4680657877
 30
0.0
 10
105.5208961093
 20
93.3947971789
 30
0.0
 10
105.5065353742
 20
94.0326138537
 30
0.0
 10
105.4975157463
 20
94.3572138756
 30
0.0
  0
SPLINE
  5
2FD
100
AcDbEntity
  8
0
100
AcDbSpline
 62
7
  6
CONTINUOUS
 70
0
 71
3
 72
21
 73
17
 74
0
 42
0.0000001
 43
0.0000001
 44
0.0000000001
 40
0.0
 40
0.0
 40
0.0
 40
0.0
 40
0.1941692956
 40
0.381024642
 40
0.5537328347
 40
0.7055233472
 40
0.7716358232
 40
0.8303294122
 40
0.8810039605
 40
0.9231511961
 40
0.9563815996
 40
0.9803862397
 40
0.9888537629
 40
0.9949384918
 40
0.9986392629
 40
1.0
 40
1.0
 40
1.0
 40
1.0
 10
81.3928763204
 20
97.3168946459
 30
0.0
 10
81.3850670203
 20
96.9934814488
 30
0.0
 10
81.3702696191
 20
96.3588242725
 30
0.0
 10
81.3511281926
 20
95.4364417122
 30
0.0
 10
81.3348105149
 20
94.5846268871
 30
0.0
 10
81.3242185242
 20
93.9339058808
 30
0.0
 10
81.3181864521
 20
93.4731119738
 30
0.0
 10
81.3148996971
 20
93.1807423209
 30
0.0
 10
81.3128929262
 20
92.9283618511
 30
0.0
 10
81.3120731685
 20
92.7181945407
 30
0.0
 10
81.3128984687
 20
92.5530054225
 30
0.0
 10
81.3142781348
 20
92.4427199797
 30
0.0
 10
81.3169170949
 20
92.3796336856
 30
0.0
 10
81.3178136024
 20
92.3474025239
 30
0.0
 10
81.3209060195
 20
92.3322686671
 30
0.0
 10
81.3210914768
 20
92.3202864666
 30
0.0
 10
81.323341735
 20
92.320010327
 30
0.0
  0
SPLINE
  5
2FE
100
AcDbEntity
  8
0
100
AcDbSpline
 62
7
  6
CONTINUOUS
 70
0
 71
3
 72
17
 73
13
 74
0
 42
0.0000001
 43
0.0000001
 44
0.0000000001
 40
0.0
 40
0.0
 40
0.0
 40
0.0
 40
0.3470112213
 40
0.5111969096
 40
0.6629436595
 40
0.7966906289
 40
0.8543940309
 40
0.9042269423
 40
0.9448507657
 40
0.9750420625
 40
0.9937631056
 40
1.0
 40
1.0
 40
1.0
 40
1.0
 10
116.4064338441
 20
119.1776231723
 30
0.0
 10
116.2606258697
 20
119.1881899815
 30
0.0
 10
116.0463927403
 20
119.210603678
 30
0.0
 10
115.768485905
 20
119.2385452575
 30
0.0
 10
115.5799436483
 20
119.25620367
 30
0.0
 10
115.435782025
 20
119.2697012254
 30
0.0
 10
115.3349763523
 20
119.2796164439
 30
0.0
 10
115.2719986619
 20
119.2854835525
 30
0.0
 10
115.2237934309
 20
119.2912181759
 30
0.0
 10
115.1806145783
 20
119.2934406515
 30
0.0
 10
115.1678054074
 20
119.2988718328
 30
0.0
 10
115.1465821951
 20
119.297085589
 30
0.0
 10
115.148440122
 20
119.2989435159
 30
0.0
  0
SPLINE
  5
2FF
100
AcDbEntity
  8
0
100
AcDbSpline
 62
7
  6
CONTINUOUS
 70
0
 71
3
 72
10
 73
6
 74
0
 42
0.0000001
 43
0.0000001
 44
0.0000000001
 40
0.0
 40
0.0
 40
0.0
 40
0.0
 40
0.3239188586
 40
0.6128234125
 40
1.0
 40
1.0
 40
1.0
 40
1.0
 10
107.9451797862
 20
88.0215136678
 30
0.0
 10
107.9451797862
 20
88.0855277471
 30
0.0
 10
107.9583322245
 20
88.2084558889
 30
0.0
 10
108.0099898189
 20
88.3922677285
 30
0.0
 10
108.1186644734
 20
88.5215136678
 30
0.0
 10
108.1951797862
 20
88.5215136678
 30
0.0
  0
SPLINE
  5
300
100
AcDbEntity
  8
0
100
AcDbSpline
 62
7
  6
CONTINUOUS
 70
0
 71
3
 72
9
 73
5
 74
0
 42
0.0000001
 43
0.0000001
 44
0.0000000001
 40
0.0
 40
0.0
 40
0.0
 40
0.0
 40
0.2753834536
 40
1.0
 40
1.0
 40
1.0
 40
1.0
 10
112.4064338441
 20
115.1776231723
 30
0.0
 10
112.362347829
 20
115.2217629486
 30
0.0
 10
112.2026640441
 20
115.3824495546
 30
0.0
 10
112.0441603351
 20
115.544330148
 30
0.0
 10
111.9309615791
 20
115.663210446
 30
0.0
  0
SPLINE
  5
301
100
AcDbEntity
  8
0
100
AcDbSpline
 62
7
  6
CONTINUOUS
 70
0
 71
3
 72
13
 73
9
 74
0
 42
0.0000001
 43
0.0000001
 44
0.0000000001
 40
0.0
 40
0.0
 40
0.0
 40
0.0
 40
0.4227853062
 40
0.7377376395
 40
0.8504123738
 40
0.9318524997
 40
0.9815963254
 40
1.0
 40
1.0
 40
1.0
 40
1.0
 10
111.9309615791
 20
115.663210446
 30
0.0
 10
111.9021115154
 20
115.6935085189
 30
0.0
 10
111.8522038953
 20
115.7464647923
 30
0.0
 10
111.7946491223
 20
115.808786853
 30
0.0
 10
111.7622352986
 20
115.8461644558
 30
0.0
 10
111.7454747865
 20
115.8655795149
 30
0.0
 10
111.7389778103
 20
115.8758504606
 30
0.0
 10
111.7329388266
 20
115.8834422205
 30
0.0
 10
111.7342265597
 20
115.8847299535
 30
0.0
  0
SPLINE
  5
302
100
AcDbEntity
  8
0
100
AcDbSpline
 62
7
  6
CONTINUOUS
 70
0
 71
3
 72
14
 73
10
 74
0
 42
0.0000001
 43
0.0000001
 44
0.0000000001
 40
0.0
 40
0.0
 40
0.0
 40
0.0
 40
0.0214385016
 40
0.0783657127
 40
0.1701773788
 40
0.2938883485
 40
0.4447918476
 40
0.6174335522
 40
1.0
 40
1.0
 40
1.0
 40
1.0
 10
110.5111057583
 20
281.3498278548
 30
0.0
 10
110.5039462101
 20
281.3495778378
 30
0.0
 10
110.499660501
 20
281.312639127
 30
0.0
 10
110.4914304379
 20
281.2662710279
 30
0.0
 10
110.4873501502
 20
281.169826342
 30
0.0
 10
110.4836897934
 20
281.0497279034
 30
0.0
 10
110.482801568
 20
280.8994338832
 30
0.0
 10
110.4844991871
 20
280.6638335131
 30
0.0
 10
110.4892199934
 20
280.4781983854
 30
0.0
 10
110.4936692979
 20
280.3504370277
 30
0.0
  0
SPLINE
  5
303
100
AcDbEntity
  8
0
100
AcDbSpline
 62
7
  6
CONTINUOUS
 70
0
 71
3
 72
9
 73
5
 74
0
 42
0.0000001
 43
0.0000001
 44
0.0000000001
 40
0.0
 40
0.0
 40
0.0
 40
0.0
 40
0.4078629559
 40
1.0
 40
1.0
 40
1.0
 40
1.0
 10
111.4413333408
 20
256.3522490998
 30
0.0
 10
111.4413333408
 20
256.2770762316
 30
0.0
 10
111.538289339
 20
256.103381065
 30
0.0
 10
111.6702269176
 20
255.9773964276
 30
0.0
 10
111.7565274708
 20
255.9105911955
 30
0.0
  0
SPLINE
  5
304
100
AcDbEntity
  8
0
100
AcDbSpline
 62
7
  6
CONTINUOUS
 70
0
 71
3
 72
9
 73
5
 74
0
 42
0.0000001
 43
0.0000001
 44
0.0000000001
 40
0.0
 40
0.0
 40
0.0
 40
0.0
 40
0.2284872872
 40
1.0
 40
1.0
 40
1.0
 40
1.0
 10
111.7565274708
 20
255.9105911955
 30
0.0
 10
111.7988327119
 20
255.8778427211
 30
0.0
 10
111.9911809957
 20
255.7449126649
 30
0.0
 10
112.225908582
 20
255.6655794445
 30
0.0
 10
112.4064338441
 20
255.6589488458
 30
0.0
  0
SPLINE
  5
305
100
AcDbEntity
  8
0
100
AcDbSpline
 62
7
  6
CONTINUOUS
 70
0
 71
3
 72
13
 73
9
 74
0
 42
0.0000001
 43
0.0000001
 44
0.0000000001
 40
0.0
 40
0.0
 40
0.0
 40
0.0
 40
0.0184036746
 40
0.0681475003
 40
0.1495876262
 40
0.2622623605
 40
0.5772146938
 40
1.0
 40
1.0
 40
1.0
 40
1.0
 10
111.7342265597
 20
207.0489435159
 30
0.0
 10
111.7329388266
 20
207.0502312489
 30
0.0
 10
111.7389778103
 20
207.0578230088
 30
0.0
 10
111.7454747865
 20
207.0680939545
 30
0.0
 10
111.7622352986
 20
207.0875090136
 30
0.0
 10
111.7946491223
 20
207.1248866164
 30
0.0
 10
111.8522038953
 20
207.1872086771
 30
0.0
 10
111.9021115154
 20
207.2401649504
 30
0.0
 10
111.9309615791
 20
207.2704630234
 30
0.0
  0
SPLINE
  5
306
100
AcDbEntity
  8
0
100
AcDbSpline
 62
7
  6
CONTINUOUS
 70
0
 71
3
 72
9
 73
5
 74
0
 42
0.0000001
 43
0.0000001
 44
0.0000000001
 40
0.0
 40
0.0
 40
0.0
 40
0.0
 40
0.2148779724
 40
1.0
 40
1.0
 40
1.0
 40
1.0
 10
111.9309615791
 20
207.2704630234
 30
0.0
 10
111.9645296356
 20
207.3057158893
 30
0.0
 10
112.1215590433
 20
207.4690035057
 30
0.0
 10
112.280743748
 20
207.6302069268
 30
0.0
 10
112.4064338441
 20
207.7560502971
 30
0.0
  0
SPLINE
  5
307
100
AcDbEntity
  8
0
100
AcDbSpline
 62
7
  6
CONTINUOUS
 70
0
 71
3
 72
11
 73
7
 74
0
 42
0.0000001
 43
0.0000001
 44
0.0000000001
 40
0.0
 40
0.0
 40
0.0
 40
0.0
 40
0.3252420675
 40
0.6100505871
 40
0.839257914
 40
1.0
 40
1.0
 40
1.0
 40
1.0
 10
112.4064338441
 20
251.5247246236
 30
0.0
 10
112.2701138878
 20
251.5197176627
 30
0.0
 10
112.014994551
 20
251.4529644891
 30
0.0
 10
111.7170739073
 20
251.2567019214
 30
0.0
 10
111.5209666009
 20
251.0546568273
 30
0.0
 10
111.4413333408
 20
250.8988422465
 30
0.0
 10
111.4413333408
 20
250.8314243696
 30
0.0
  0
SPLINE
  5
308
100
AcDbEntity
  8
0
100
AcDbSpline
 62
7
  6
CONTINUOUS
 70
0
 71
3
 72
9
 73
5
 74
0
 42
0.0000001
 43
0.0000001
 44
0.0000000001
 40
0.0
 40
0.0
 40
0.0
 40
0.0
 40
0.4078629558
 40
1.0
 40
1.0
 40
1.0
 40
1.0
 10
111.4413333408
 20
64.3522490998
 30
0.0
 10
111.4413333408
 20
64.2770762315
 30
0.0
 10
111.538289339
 20
64.103381065
 30
0.0
 10
111.6702269177
 20
63.9773964276
 30
0.0
 10
111.7565274708
 20
63.9105911954
 30
0.0
  0
SPLINE
  5
309
100
AcDbEntity
  8
0
100
AcDbSpline
 62
7
  6
CONTINUOUS
 70
0
 71
3
 72
9
 73
5
 74
0
 42
0.0000001
 43
0.0000001
 44
0.0000000001
 40
0.0
 40
0.0
 40
0.0
 40
0.0
 40
0.2284872872
 40
1.0
 40
1.0
 40
1.0
 40
1.0
 10
111.7565274708
 20
63.9105911954
 30
0.0
 10
111.7988327119
 20
63.8778427211
 30
0.0
 10
111.9911809957
 20
63.7449126648
 30
0.0
 10
112.225908582
 20
63.6655794445
 30
0.0
 10
112.4064338441
 20
63.6589488459
 30
0.0
  0
SPLINE
  5
30A
100
AcDbEntity
  8
0
100
AcDbSpline
 62
7
  6
CONTINUOUS
 70
0
 71
3
 72
11
 73
7
 74
0
 42
0.0000001
 43
0.0000001
 44
0.0000000001
 40
0.0
 40
0.0
 40
0.0
 40
0.0
 40
0.3252420675
 40
0.6100505871
 40
0.839257914
 40
1.0
 40
1.0
 40
1.0
 40
1.0
 10
112.4064338441
 20
59.5247246235
 30
0.0
 10
112.2701138878
 20
59.5197176627
 30
0.0
 10
112.014994551
 20
59.4529644891
 30
0.0
 10
111.7170739073
 20
59.2567019213
 30
0.0
 10
111.5209666009
 20
59.0546568273
 30
0.0
 10
111.4413333408
 20
58.8988422465
 30
0.0
 10
111.4413333408
 20
58.8314243696
 30
0.0
  0
SPLINE
  5
30B
100
AcDbEntity
  8
0
100
AcDbSpline
 62
7
  6
CONTINUOUS
 70
0
 71
3
 72
18
 73
14
 74
0
 42
0.0000001
 43
0.0000001
 44
0.0000000001
 40
0.0
 40
0.0
 40
0.0
 40
0.0
 40
0.005022967
 40
0.0192284383
 40
0.042859308
 40
0.0757371154
 40
0.1175636988
 40
0.1679154289
 40
0.2921650601
 40
0.4436706624
 40
0.616790975
 40
0.8046668127
 40
1.0
 40
1.0
 40
1.0
 40
1.0
 10
81.3233642736
 20
92.3200075606
 30
0.0
 10
81.3200175149
 20
92.3204180646
 30
0.0
 10
81.3177937573
 20
92.3010253402
 30
0.0
 10
81.3146889719
 20
92.2786412762
 30
0.0
 10
81.3133585071
 20
92.2276351232
 30
0.0
 10
81.3126661384
 20
92.1631810562
 30
0.0
 10
81.3133748469
 20
92.0786380685
 30
0.0
 10
81.3159804322
 20
91.9336503372
 30
0.0
 10
81.3227520177
 20
91.7146639627
 30
0.0
 10
81.3346536228
 20
91.41364507
 30
0.0
 10
81.350806211
 20
91.0699637641
 30
0.0
 10
81.3702870571
 20
90.6970228095
 30
0.0
 10
81.3850625301
 20
90.4402020826
 30
0.0
 10
81.3929008198
 20
90.3093124084
 30
0.0
  0
SPLINE
  5
30C
100
AcDbEntity
  8
0
100
AcDbSpline
 62
7
  6
CONTINUOUS
 70
0
 71
3
 72
13
 73
9
 74
0
 42
0.0000001
 43
0.0000001
 44
0.0000000001
 40
0.0
 40
0.0
 40
0.0
 40
0.0
 40
0.4236612129
 40
0.7388314715
 40
0.8520650593
 40
0.9338429106
 40
0.9833022643
 40
1.0
 40
1.0
 40
1.0
 40
1.0
 10
111.1667124563
 20
207.5368430388
 30
0.0
 10
111.2055031499
 20
207.5368454027
 30
0.0
 10
111.2728555952
 20
207.5371515848
 30
0.0
 10
111.3517183657
 20
207.5369108984
 30
0.0
 10
111.3972785829
 20
207.5383143942
 30
0.0
 10
111.4215921433
 20
207.5372998497
 30
0.0
 10
111.4316796298
 20
207.54031591
 30
0.0
 10
111.4413333349
 20
207.5380432406
 30
0.0
 10
111.4413333408
 20
207.5395720961
 30
0.0
  0
SPLINE
  5
30D
100
AcDbEntity
  8
0
100
AcDbSpline
 62
7
  6
CONTINUOUS
 70
0
 71
3
 72
16
 73
12
 74
0
 42
0.0000001
 43
0.0000001
 44
0.0000000001
 40
0.0
 40
0.0
 40
0.0
 40
0.0
 40
0.3849031019
 40
0.5577446356
 40
0.708738096
 40
0.8323727223
 40
0.9243051013
 40
0.957123981
 40
0.9807666569
 40
0.9950937826
 40
1.0
 40
1.0
 40
1.0
 40
1.0
 10
111.0794557347
 20
206.1253601132
 30
0.0
 10
111.164822084
 20
206.2148696264
 30
0.0
 10
111.2885585462
 20
206.3445738879
 30
0.0
 10
111.4464919821
 20
206.5085962243
 30
0.0
 10
111.5455976909
 20
206.6129815139
 30
0.0
 10
111.6238949798
 20
206.7005284203
 30
0.0
 10
111.6767762954
 20
206.7613519761
 30
0.0
 10
111.7061484724
 20
206.7975773074
 30
0.0
 10
111.7228482701
 20
206.8155723007
 30
0.0
 10
111.7275590817
 20
206.8254660937
 30
0.0
 10
111.7353414114
 20
206.8313520426
 30
0.0
 10
111.7342265597
 20
206.8324668943
 30
0.0
  0
SPLINE
  5
30E
100
AcDbEntity
  8
0
100
AcDbSpline
 62
7
  6
CONTINUOUS
 70
0
 71
3
 72
9
 73
5
 74
0
 42
0.0000001
 43
0.0000001
 44
0.0000000001
 40
0.0
 40
0.0
 40
0.0
 40
0.0
 40
0.4999039002
 40
1.0
 40
1.0
 40
1.0
 40
1.0
 10
105.4976628875
 20
60.9931996034
 30
0.0
 10
105.6671331105
 20
60.7123373966
 30
0.0
 10
105.9944374451
 20
60.143495485
 30
0.0
 10
106.3074173326
 20
59.5665545128
 30
0.0
 10
106.4560445505
 20
59.2739858145
 30
0.0
  0
SPLINE
  5
30F
100
AcDbEntity
  8
0
100
AcDbSpline
 62
7
  6
CONTINUOUS
 70
0
 71
3
 72
9
 73
5
 74
0
 42
0.0000001
 43
0.0000001
 44
0.0000000001
 40
0.0
 40
0.0
 40
0.0
 40
0.0
 40
0.2118914963
 40
1.0
 40
1.0
 40
1.0
 40
1.0
 10
106.3187506142
 20
57.3631734323
 30
0.0
 10
106.3268329769
 20
57.3659301978
 30
0.0
 10
106.3650157838
 20
57.378826313
 30
0.0
 10
106.4033149386
 20
57.3913752813
 30
0.0
 10
106.4335253626
 20
57.4011813575
 30
0.0
  0
SPLINE
  5
310
100
AcDbEntity
  8
0
100
AcDbSpline
 62
7
  6
CONTINUOUS
 70
0
 71
3
 72
21
 73
17
 74
0
 42
0.0000001
 43
0.0000001
 44
0.0000000001
 40
0.0
 40
0.0
 40
0.0
 40
0.0
 40
0.001633783
 40
0.005766285
 40
0.0124235207
 40
0.0215889093
 40
0.0473532152
 40
0.0828278694
 40
0.1274461763
 40
0.180476811
 40
0.241184552
 40
0.3087746896
 40
0.4611927006
 40
0.6311901699
 40
0.8129014449
 40
1.0
 40
1.0
 40
1.0
 40
1.0
 10
80.9658546872
 20
68.837145068
 30
0.0
 10
80.9633029528
 20
68.8385387076
 30
0.0
 10
80.9643235205
 20
68.8515562072
 30
0.0
 10
80.9624009143
 20
68.8712551913
 30
0.0
 10
80.9645455915
 20
68.9080527885
 30
0.0
 10
80.9677472392
 20
68.9811988743
 30
0.0
 10
80.9763661266
 20
69.1067873347
 30
0.0
 10
80.9891822855
 20
69.2944564116
 30
0.0
 10
81.0063892543
 20
69.5308459164
 30
0.0
 10
81.0275084407
 20
69.8118306822
 30
0.0
 10
81.0526167202
 20
70.1335597052
 30
0.0
 10
81.0925611863
 20
70.6315217477
 30
0.0
 10
81.1493980222
 20
71.323252707
 30
0.0
 10
81.2237957885
 20
72.2173165344
 30
0.0
 10
81.3088236418
 20
73.1724082413
 30
0.0
 10
81.3660601625
 20
73.8262549261
 30
0.0
 10
81.3928438248
 20
74.1581392453
 30
0.0
  0
SPLINE
  5
311
100
AcDbEntity
  8
0
100
AcDbSpline
 62
7
  6
CONTINUOUS
 70
0
 71
3
 72
16
 73
12
 74
0
 42
0.0000001
 43
0.0000001
 44
0.0000000001
 40
0.0
 40
0.0
 40
0.0
 40
0.0
 40
0.3431705865
 40
0.5059634454
 40
0.6568090543
 40
0.7902056557
 40
0.8982651615
 40
0.9396714901
 40
0.9710807793
 40
0.9914858671
 40
1.0
 40
1.0
 40
1.0
 40
1.0
 10
116.4064338441
 20
119.1776231723
 30
0.0
 10
116.2964276309
 20
119.2729329837
 30
0.0
 10
116.130214703
 20
119.4087481998
 30
0.0
 10
115.9163081306
 20
119.5871816581
 30
0.0
 10
115.7720097399
 20
119.7102513389
 30
0.0
 10
115.6460259198
 20
119.8187331174
 30
0.0
 10
115.5548534897
 20
119.8972181199
 30
0.0
 10
115.4983954809
 20
119.9484592891
 30
0.0
 10
115.468098986
 20
119.9752081473
 30
0.0
 10
115.4525389021
 20
119.9935598833
 30
0.0
 10
115.4413333408
 20
120.0024391269
 30
0.0
 10
115.4413333408
 20
120.0060502971
 30
0.0
  0
SPLINE
  5
312
100
AcDbEntity
  8
0
100
AcDbSpline
 62
7
  6
CONTINUOUS
 70
0
 71
3
 72
22
 73
18
 74
0
 42
0.0000001
 43
0.0000001
 44
0.0000000001
 40
0.0
 40
0.0
 40
0.0
 40
0.0
 40
0.0012640372
 40
0.0052653761
 40
0.0119790325
 40
0.0213529874
 40
0.0333325085
 40
0.0478621464
 40
0.0843487323
 40
0.130275563
 40
0.1847432818
 40
0.2467618761
 40
0.3153412262
 40
0.46847763
 40
0.6375125025
 40
0.8163442809
 40
1.0
 40
1.0
 40
1.0
 40
1.0
 10
105.9242436008
 20
55.20602482
 30
0.0
 10
105.9264887693
 20
55.2050560518
 30
0.0
 10
105.9246923499
 20
55.2234209264
 30
0.0
 10
105.9269893084
 20
55.238460344
 30
0.0
 10
105.9243231155
 20
55.281990702
 30
0.0
 10
105.9224533869
 20
55.3341632216
 30
0.0
 10
105.9184978047
 20
55.4042736225
 30
0.0
 10
105.9114627809
 20
55.5255552546
 30
0.0
 10
105.8993731975
 20
55.7129459934
 30
0.0
 10
105.8814745986
 20
55.9770306748
 30
0.0
 10
105.8594139019
 20
56.2904772494
 30
0.0
 10
105.8336603803
 20
56.6475446493
 30
0.0
 10
105.7934090437
 20
57.1949510288
 30
0.0
 10
105.7366588368
 20
57.9487164514
 30
0.0
 10
105.662034177
 20
58.9150230779
 30
0.0
 10
105.5809303243
 20
59.9400407473
 30
0.0
 10
105.5255620758
 20
60.6390776903
 30
0.0
 10
105.4977832173
 20
60.9932690292
 30
0.0
  0
SPLINE
  5
313
100
AcDbEntity
  8
0
100
AcDbSpline
 62
7
  6
CONTINUOUS
 70
0
 71
3
 72
17
 73
13
 74
0
 42
0.0000001
 43
0.0000001
 44
0.0000000001
 40
0.0
 40
0.0
 40
0.0
 40
0.0
 40
0.3469450676
 40
0.5111334767
 40
0.6628491469
 40
0.7964193191
 40
0.8539986711
 40
0.903733818
 40
0.9443256217
 40
0.9745810732
 40
0.9934757294
 40
1.0
 40
1.0
 40
1.0
 40
1.0
 10
116.4064338441
 20
203.7560502971
 30
0.0
 10
116.2606497879
 20
203.7455651637
 30
0.0
 10
116.0464331424
 20
203.7231712369
 30
0.0
 10
115.7685935759
 20
203.6952315093
 30
0.0
 10
115.5800785256
 20
203.6775824144
 30
0.0
 10
115.4362718648
 20
203.6635678153
 30
0.0
 10
115.3353670226
 20
203.6535532192
 30
0.0
 10
115.2732329866
 20
203.6468335232
 30
0.0
 10
115.2230946503
 20
203.6428166269
 30
0.0
 10
115.1845120208
 20
203.6364204526
 30
0.0
 10
115.1629345345
 20
203.6390519675
 30
0.0
 10
115.1503836314
 20
203.6327864441
 30
0.0
 10
115.148440122
 20
203.6347299535
 30
0.0
  0
SPLINE
  5
314
100
AcDbEntity
  8
0
100
AcDbSpline
 62
7
  6
CONTINUOUS
 70
0
 71
3
 72
9
 73
5
 74
0
 42
0.0000001
 43
0.0000001
 44
0.0000000001
 40
0.0
 40
0.0
 40
0.0
 40
0.0
 40
0.2378886736
 40
1.0
 40
1.0
 40
1.0
 40
1.0
 10
106.42548154
 20
56.674519467
 30
0.0
 10
106.4192578448
 20
56.7294305411
 30
0.0
 10
106.3887205638
 20
56.9597664211
 30
0.0
 10
106.3476004647
 20
57.1884698644
 30
0.0
 10
106.3187507228
 20
57.3631454753
 30
0.0
  0
SPLINE
  5
315
100
AcDbEntity
  8
0
100
AcDbSpline
 62
7
  6
CONTINUOUS
 70
0
 71
3
 72
16
 73
12
 74
0
 42
0.0000001
 43
0.0000001
 44
0.0000000001
 40
0.0
 40
0.0
 40
0.0
 40
0.0
 40
0.0085558639
 40
0.0289676755
 40
0.0603574147
 40
0.101723302
 40
0.2096905254
 40
0.3430734981
 40
0.4939902416
 40
0.6568371532
 40
1.0
 40
1.0
 40
1.0
 40
1.0
 10
115.4413333408
 20
202.9276231723
 30
0.0
 10
115.4413333408
 20
202.9312520604
 30
0.0
 10
115.452483441
 20
202.9401994997
 30
0.0
 10
115.4680910745
 20
202.9585412576
 30
0.0
 10
115.4983763215
 20
202.985256628
 30
0.0
 10
115.554925913
 20
203.0363074106
 30
0.0
 10
115.6462597741
 20
203.1145050418
 30
0.0
 10
115.7722119349
 20
203.2230040694
 30
0.0
 10
115.9162413291
 20
203.3464613304
 30
0.0
 10
116.129925149
 20
203.5252453651
 30
0.0
 10
116.2963156863
 20
203.6608737526
 30
0.0
 10
116.4064338441
 20
203.7560502971
 30
0.0
  0
SPLINE
  5
316
100
AcDbEntity
  8
0
100
AcDbSpline
 62
7
  6
CONTINUOUS
 70
0
 71
3
 72
9
 73
5
 74
0
 42
0.0000001
 43
0.0000001
 44
0.0000000001
 40
0.0
 40
0.0
 40
0.0
 40
0.0
 40
0.5005332726
 40
1.0
 40
1.0
 40
1.0
 40
1.0
 10
106.3187718815
 20
57.3631379361
 30
0.0
 10
106.2875069531
 20
57.527907081
 30
0.0
 10
106.2198260046
 20
57.8560888234
 30
0.0
 10
106.1656028589
 20
58.186871342
 30
0.0
 10
106.1316182219
 20
58.3507361481
 30
0.0
  0
SPLINE
  5
317
100
AcDbEntity
  8
0
100
AcDbSpline
 62
7
  6
CONTINUOUS
 70
0
 71
3
 72
10
 73
6
 74
0
 42
0.0000001
 43
0.0000001
 44
0.0000000001
 40
0.0
 40
0.0
 40
0.0
 40
0.0
 40
0.2480941601
 40
0.4975201114
 40
1.0
 40
1.0
 40
1.0
 40
1.0
 10
106.1316182219
 20
58.3507361481
 30
0.0
 10
106.085971219
 20
58.5708337551
 30
0.0
 10
105.9736555244
 20
59.0076035609
 30
0.0
 10
105.7798948412
 20
59.8927300743
 30
0.0
 10
105.6060115847
 20
60.5516094838
 30
0.0
 10
105.497524989
 20
60.9937575501
 30
0.0
  0
SPLINE
  5
318
100
AcDbEntity
  8
0
100
AcDbSpline
 62
7
  6
CONTINUOUS
 70
0
 71
3
 72
9
 73
5
 74
0
 42
0.0000001
 43
0.0000001
 44
0.0000000001
 40
0.0
 40
0.0
 40
0.0
 40
0.0
 40
0.5168181532
 40
1.0
 40
1.0
 40
1.0
 40
1.0
 10
105.9713756041
 20
252.4931792988
 30
0.0
 10
106.0893960241
 20
253.0013788945
 30
0.0
 10
106.3055278674
 20
253.9861715983
 30
0.0
 10
106.4452442021
 20
254.9926086709
 30
0.0
 10
106.4452404471
 20
255.4803768211
 30
0.0
  0
SPLINE
  5
319
100
AcDbEntity
  8
0
100
AcDbSpline
 62
7
  6
CONTINUOUS
 70
0
 71
3
 72
9
 73
5
 74
0
 42
0.0000001
 43
0.0000001
 44
0.0000000001
 40
0.0
 40
0.0
 40
0.0
 40
0.0
 40
0.7512079517
 40
1.0
 40
1.0
 40
1.0
 40
1.0
 10
105.4975754575
 20
250.5499031184
 30
0.0
 10
105.6182799428
 20
251.0360014606
 30
0.0
 10
105.7801589428
 20
251.6828026914
 30
0.0
 10
105.9342244315
 20
252.3315133505
 30
0.0
 10
105.9713598191
 20
252.4931828052
 30
0.0
  0
SPLINE
  5
31A
100
AcDbEntity
  8
0
100
AcDbSpline
 62
7
  6
CONTINUOUS
 70
0
 71
3
 72
22
 73
18
 74
0
 42
0.0000001
 43
0.0000001
 44
0.0000000001
 40
0.0
 40
0.0
 40
0.0
 40
0.0
 40
0.001594936
 40
0.005738755
 40
0.012491064
 40
0.0218641156
 40
0.0338096858
 40
0.0482658879
 40
0.0844525637
 40
0.129807643
 40
0.1836382626
 40
0.2451150606
 40
0.3133353055
 40
0.4664084124
 40
0.6357690315
 40
0.8153414609
 40
1.0
 40
1.0
 40
1.0
 40
1.0
 10
80.96584351
 20
242.705876163
 30
0.0
 10
80.9633525388
 20
242.7045156645
 30
0.0
 10
80.9650589215
 20
242.6913990337
 30
0.0
 10
80.9632584488
 20
242.6717473827
 30
0.0
 10
80.9658688706
 20
242.6342875881
 30
0.0
 10
80.9676643754
 20
242.5850043589
 30
0.0
 10
80.9713141216
 20
242.5211974963
 30
0.0
 10
80.9779182407
 20
242.4101288934
 30
0.0
 10
80.9896050007
 20
242.2396177287
 30
0.0
 10
81.0069614407
 20
241.9993717539
 30
0.0
 10
81.0286901508
 20
241.7142776319
 30
0.0
 10
81.0543562442
 20
241.3886919789
 30
0.0
 10
81.0945368643
 20
240.8870897456
 30
0.0
 10
81.1510364435
 20
240.1941953906
 30
0.0
 10
81.2266208877
 20
239.3040458987
 30
0.0
 10
81.3067269752
 20
238.357869528
 30
0.0
 10
81.3640502706
 20
237.7122358568
 30
0.0
 10
81.3928271327
 20
237.3848866212
 30
0.0
  0
SPLINE
  5
31B
100
AcDbEntity
  8
0
100
AcDbSpline
 62
7
  6
CONTINUOUS
 70
0
 71
3
 72
19
 73
15
 74
0
 42
0.0000001
 43
0.0000001
 44
0.0000000001
 40
0.0
 40
0.0
 40
0.0
 40
0.0
 40
0.180238305
 40
0.3567606033
 40
0.5244322031
 40
0.6778192678
 40
0.7470578625
 40
0.8099378688
 40
0.8654162915
 40
0.9125491765
 40
0.9504437311
 40
0.9782092987
 40
0.9949645947
 40
1.0
 40
1.0
 40
1.0
 40
1.0
 10
105.4975671678
 20
250.5497754545
 30
0.0
 10
105.5302852499
 20
250.8969502653
 30
0.0
 10
105.5851958116
 20
251.58504727
 30
0.0
 10
105.6575931658
 20
252.5970957187
 30
0.0
 10
105.7326102899
 20
253.5568327382
 30
0.0
 10
105.7908503256
 20
254.3097849694
 30
0.0
 10
105.8316071822
 20
254.8605119673
 30
0.0
 10
105.857575313
 20
255.222904116
 30
0.0
 10
105.87891502
 20
255.5412221369
 30
0.0
 10
105.8971849125
 20
255.8158095805
 30
0.0
 10
105.9095964832
 20
256.0246733051
 30
0.0
 10
105.9253610225
 20
256.2044791942
 30
0.0
 10
105.9256600705
 20
256.2635780354
 30
0.0
 10
105.9330702093
 20
256.3418230527
 30
0.0
 10
105.9245201182
 20
256.3371533876
 30
0.0
  0
SPLINE
  5
31C
100
AcDbEntity
  8
0
100
AcDbSpline
 62
7
  6
CONTINUOUS
 70
0
 71
3
 72
9
 73
5
 74
0
 42
0.0000001
 43
0.0000001
 44
0.0000000001
 40
0.0
 40
0.0
 40
0.0
 40
0.0
 40
0.2838166341
 40
1.0
 40
1.0
 40
1.0
 40
1.0
 10
111.8318550136
 20
206.9345577331
 30
0.0
 10
111.8269494576
 20
206.9293959465
 30
0.0
 10
111.8096989262
 20
206.9111770506
 30
0.0
 10
111.7925756381
 20
206.8928365435
 30
0.0
 10
111.7804488174
 20
206.8795764698
 30
0.0
  0
SPLINE
  5
31D
100
AcDbEntity
  8
0
100
AcDbSpline
 62
7
  6
CONTINUOUS
 70
0
 71
3
 72
11
 73
7
 74
0
 42
0.0000001
 43
0.0000001
 44
0.0000000001
 40
0.0
 40
0.0
 40
0.0
 40
0.0
 40
0.4312850839
 40
0.7429345901
 40
0.9327130029
 40
1.0
 40
1.0
 40
1.0
 40
1.0
 10
111.7804488174
 20
206.8795764698
 30
0.0
 10
111.7739997483
 20
206.8725247344
 30
0.0
 10
111.7634754945
 20
206.8605275824
 30
0.0
 10
111.7483232132
 20
206.844280171
 30
0.0
 10
111.7431874785
 20
206.8356180801
 30
0.0
 10
111.7370053147
 20
206.8296587304
 30
0.0
 10
111.7380549054
 20
206.828599914
 30
0.0
  0
SPLINE
  5
31E
100
AcDbEntity
  8
0
100
AcDbSpline
 62
7
  6
CONTINUOUS
 70
0
 71
3
 72
14
 73
10
 74
0
 42
0.0000001
 43
0.0000001
 44
0.0000000001
 40
0.0
 40
0.0
 40
0.0
 40
0.0
 40
0.381179569
 40
0.5534484126
 40
0.7043771362
 40
0.8283484857
 40
0.9208537892
 40
0.9782881626
 40
1.0
 40
1.0
 40
1.0
 40
1.0
 10
107.3893167373
 20
280.2420306475
 30
0.0
 10
107.3848836018
 20
280.3693263461
 30
0.0
 10
107.3801661752
 20
280.5543695833
 30
0.0
 10
107.3784601906
 20
280.7893850657
 30
0.0
 10
107.3792966712
 20
280.939651058
 30
0.0
 10
107.3829822509
 20
281.0600556502
 30
0.0
 10
107.3869239738
 20
281.1570647413
 30
0.0
 10
107.395382855
 20
281.2037527609
 30
0.0
 10
107.3995013857
 20
281.2411682357
 30
0.0
 10
107.4067520742
 20
281.2414214353
 30
0.0
  0
SPLINE
  5
31F
100
AcDbEntity
  8
0
100
AcDbSpline
 62
7
  6
CONTINUOUS
 70
0
 71
3
 72
13
 73
9
 74
0
 42
0.0000001
 43
0.0000001
 44
0.0000000001
 40
0.0
 40
0.0
 40
0.0
 40
0.0
 40
0.2514926657
 40
0.5021376275
 40
0.6271549348
 40
0.7514948017
 40
0.8759635134
 40
1.0
 40
1.0
 40
1.0
 40
1.0
 10
111.079517261
 20
206.1254228869
 30
0.0
 10
110.9855941701
 20
206.2177326751
 30
0.0
 10
110.8158739391
 20
206.4213801918
 30
0.0
 10
110.6610048582
 20
206.713501938
 30
0.0
 10
110.5720794374
 20
206.9601201527
 30
0.0
 10
110.5266748158
 20
207.1511109894
 30
0.0
 10
110.4995418344
 20
207.3440285433
 30
0.0
 10
110.4869720386
 20
207.4749694085
 30
0.0
 10
110.4937566308
 20
207.5395644774
 30
0.0
  0
ELLIPSE
  5
320
100
AcDbEntity
  8
0
100
AcDbEllipse
 62
7
  6
CONTINUOUS
 10
50.146138126
 20
253.5918367347
 30
0.0
 11
85.9087598487
 21
0.0
 31
0.0
 40
0.0349207695
 41
0.6707859927
 42
0.7601599453
  0
ELLIPSE
  5
321
100
AcDbEntity
  8
0
100
AcDbEllipse
 62
7
  6
CONTINUOUS
 10
-6.0486666592
 20
253.5918367347
 30
0.0
 11
144.46
 21
0.0
 31
0.0
 40
0.0214592275
 41
-0.4836640984
 42
-0.4286561801
  0
ELLIPSE
  5
322
100
AcDbEntity
  8
0
100
AcDbEllipse
 62
7
  6
CONTINUOUS
 10
-6.0486666592
 20
61.5918367347
 30
0.0
 11
139.8
 21
0.0
 31
0.0
 40
0.0214592275
 41
-0.4878699064
 42
-0.4157668458
  0
ELLIPSE
  5
323
100
AcDbEntity
  8
0
100
AcDbEllipse
 62
7
  6
CONTINUOUS
 10
-6.0486666592
 20
61.5918367347
 30
0.0
 11
139.8
 21
0.0
 31
0.0
 40
0.0214592275
 41
0.4157668458
 42
0.4878699064
  0
ELLIPSE
  5
324
100
AcDbEntity
  8
0
100
AcDbEllipse
 62
7
  6
CONTINUOUS
 10
-6.0486666592
 20
253.5918367347
 30
0.0
 11
139.8
 21
0.0
 31
0.0
 40
0.0214592275
 41
-0.4878699064
 42
-0.4157668458
  0
ELLIPSE
  5
325
100
AcDbEntity
  8
0
100
AcDbEllipse
 62
7
  6
CONTINUOUS
 10
50.146138126
 20
253.5918367347
 30
0.0
 11
85.9087598487
 21
0.0
 31
0.0
 40
0.0349207695
 41
-0.7601599453
 42
-0.6707859927
  0
ELLIPSE
  5
326
100
AcDbEntity
  8
0
100
AcDbEllipse
 62
7
  6
CONTINUOUS
 10
-6.0486666592
 20
253.5918367347
 30
0.0
 11
139.8
 21
0.0
 31
0.0
 40
0.0214592275
 41
0.4157668458
 42
0.4878699064
  0
ELLIPSE
  5
327
100
AcDbEntity
  8
0
100
AcDbEllipse
 62
7
  6
CONTINUOUS
 10
-6.0486666592
 20
61.5918367347
 30
0.0
 11
144.46
 21
0.0
 31
0.0
 40
0.0214592275
 41
-0.4836640984
 42
-0.4286561801
  0
ELLIPSE
  5
328
100
AcDbEntity
  8
0
100
AcDbEllipse
 62
7
  6
CONTINUOUS
 10
50.146138126
 20
61.5918367347
 30
0.0
 11
85.9087598487
 21
0.0
 31
0.0
 40
0.0349207695
 41
-0.7601599453
 42
-0.6707859927
  0
ELLIPSE
  5
329
100
AcDbEntity
  8
0
100
AcDbEllipse
 62
7
  6
CONTINUOUS
 10
50.146138126
 20
61.5918367347
 30
0.0
 11
85.9087598487
 21
-0.0
 31
0.0
 40
0.0349207695
 41
0.6707859927
 42
0.7601599453
  0
ENDSEC
  0
SECTION
  2
OBJECTS
  0
DICTIONARY
  5
C
100
AcDbDictionary
280
0
281
1
  3
ACAD_GROUP
350
D
  3
ACAD_MLINESTYLE
350
17
  3
ACAD_LAYOUT
350
1A
  3
ACAD_PLOTSETTINGS
350
19
  3
ACAD_PLOTSTYLENAME
350
E
  0
DICTIONARY
  5
D
102
{ACAD_REACTORS
330
C
102
}
100
AcDbDictionary
280
0
281
1
  0
ACDBDICTIONARYWDFLT
  5
E
102
{ACAD_REACTORS
330
C
102
}
100
AcDbDictionary
281
1
  3
Normal
350
F
100
AcDbDictionaryWithDefault
340
F
  0
DICTIONARY
  5
17
102
{ACAD_REACTORS
330
C
102
}
100
AcDbDictionary
280
0
281
1
  3
Standard
350
18
  0
DICTIONARY
  5
19
102
{ACAD_REACTORS
330
C
102
}
100
AcDbDictionary
281
1
  0
DICTIONARY
  5
1A
102
{ACAD_REACTORS
330
C
102
}
100
AcDbDictionary
281
1
  3
Model
350
32A
  3
Layout1
350
32B
  0
ACDBPLACEHOLDER
  5
F
102
{ACAD_REACTORS
330
E
102
}
  0
MLINESTYLE
  5
18
102
{ACAD_REACTORS
330
17
102
}
100
AcDbMlineStyle
  2
STANDARD
 70
0
  3

 62
256
 51
90.0
 52
90.0
 71
2
 49
0.5
 62
256
  6
BYLAYER
 49
-0.5
 62
256
  6
BYLAYER
  0
LAYOUT
  5
32A
102
{ACAD_REACTORS
330
1A
102
}
100
AcDbPlotSettings
  1

  2
none_device
  4

  6

 40
0.0
 41
0.0
 42
0.0
 43
0.0
 44
210.0
 45
297.0
 46
0.0
 47
0.0
 48
0.0
 49
0.0
140
0.0
141
0.0
142
1.0
143
1.0
 70
1024
 72
1
 73
0
 74
0
  7

 75
0
147
1.0
148
0.0
149
0.0
100
AcDbLayout
  1
Model
 70
0
 71
0
 10
0.0
 20
0.0
 11
210.0
 21
297.0
 12
0.0
 22
0.0
 32
0.0
 14
0.0
 24
0.0
 34
0.0
 15
0.0
 25
0.0
 35
0.0
146
0.0
 13
0.0
 23
0.0
 33
0.0
 16
1.0
 26
0.0
 36
0.0
 17
0.0
 27
1.0
 37
0.0
 76
0
330
210
345
0
346
0
  0
LAYOUT
  5
32B
102
{ACAD_REACTORS
330
1A
102
}
100
AcDbPlotSettings
  1

  2
none_device
  4

  6

 40
0.0
 41
0.0
 42
0.0
 43
0.0
 44
210.0
 45
297.0
 46
0.0
 47
0.0
 48
0.0
 49
0.0
140
0.0
141
0.0
142
1.0
143
1.0
 70
0
 72
1
 73
0
 74
0
  7

 75
0
147
1.0
148
0.0
149
0.0
100
AcDbLayout
  1
Layout1
 70
0
 71
1
 10
0.0
 20
0.0
 11
210.0
 21
297.0
 12
0.0
 22
0.0
 32
0.0
 14
0.0
 24
0.0
 34
0.0
 15
0.0
 25
0.0
 35
0.0
146
0.0
 13
0.0
 23
0.0
 33
0.0
 16
1.0
 26
0.0
 36
0.0
 17
0.0
 27
1.0
 37
0.0
 76
0
330
211
345
0
346
0
  0
ENDSEC
  0
EOF
