999
DXF file: C:\Users\sesa63760\Dev\_Creo\CAD\MCADPD0004752_3D-CAD\drw0001_1.dxf
999
Pro/ENGINEER 2019471 by Parametric Technology Corporation
  0
SECTION
  2
HEADER
  9
$ACADVER
  1
AC1024
  9
$DWGCODEPAGE
  3
ANSI_1252
  9
$EXTMAX
 10
152.5208470743
 20
215.7080551479
 30
0.0
  9
$EXTMIN
 10
0.0
 20
0.0
 30
0.0
  9
$LIMMIN
 10
0.0
 20
0.0
  9
$LIMMAX
 10
152.5208470743
 20
215.7080551479
  9
$VIEWCTR
 10
76.2604235371
 20
107.854027574
  9
$VIEWSIZE
 40
215.7080551479
  9
$CLAYER
  8
0
  9
$LTSCALE
 40
14.0609695208
  9
$CELTYPE
  6
BYLAYER
  9
$DIMSCALE
 40
1.0
  9
$DIMASZ
 40
1.8157243699
  9
$DIMEXO
 40
1.0
  9
$DIMDLI
 40
9.7148516689
  9
$DIMEXE
 40
1.0
  9
$DIMCEN
 40
2.3008859216
  9
$DIMLFAC
 40
1.0
  9
$DIMBLK
  1
_FILLED
  9
$DIMALT
 70
0
  9
$DIMALTF
 40
0.0393700787
  9
$DIMTXT
 40
2.5420141179
  9
$DIMTOL
 70
1
  9
$DIMLIM
 70
0
  9
$DIMTFAC
 40
1.0
  9
$DIMTP
 40
0.01
  9
$DIMTM
 40
0.01
  9
$DIMGAP
 40
0.625
  9
$DIMDSEP
 70
46
  9
$AUNITS
 70
0
  9
$PDMODE
 70
3
  9
$PDSIZE
 40
0.3125
  9
$HANDSEED
  5
322
  9
$TILEMODE
 70
1
  9
$MEASUREMENT
 70
1
  9
$INSUNITS
 70
4
  0
ENDSEC
  0
SECTION
  2
CLASSES
  0
CLASS
  1
ACDBDICTIONARYWDFLT
  2
AcDbDictionaryWithDefault
  3
AutoCAD 2000
 90
0
 91
1
280
0
281
0
  0
CLASS
  1
ACDBPLACEHOLDER
  2
AcDbPlaceHolder
  3
AutoCAD 2000
 90
0
 91
1
280
0
281
0
  0
CLASS
  1
LAYOUT
  2
AcDbLayout
  3
AutoCAD 2000
 90
0
 91
0
280
0
281
0
  0
ENDSEC
  0
SECTION
  2
TABLES
  0
TABLE
  2
VPORT
  5
8
100
AcDbSymbolTable
 70
2
  0
VPORT
  5
1F4
100
AcDbSymbolTableRecord
100
AcDbViewportTableRecord
  2
*ACTIVE
 70
0
 10
0.0
 20
0.0
 11
1.0
 21
1.0
 12
76.2604235371
 22
107.854027574
 13
0.0
 23
0.0
 14
1.0
 24
1.0
 15
0.0
 25
0.0
 16
0.0
 26
0.0
 36
1.0
 17
0.0
 27
0.0
 37
0.0
 40
215.7080551479
 41
0.7070707071
 42
50.0
 43
0.0
 44
0.0
 50
0.0
 51
0.0
 71
0
 72
100
 73
1
 74
1
 75
0
 76
0
 77
0
 78
0
  0
ENDTAB
  0
TABLE
  2
LTYPE
  5
5
100
AcDbSymbolTable
 70
6
  0
LTYPE
  5
14
100
AcDbSymbolTableRecord
100
AcDbLinetypeTableRecord
  2
BYBLOCK
 70
0
  3

 72
65
 73
0
 40
0.0
  0
LTYPE
  5
15
100
AcDbSymbolTableRecord
100
AcDbLinetypeTableRecord
  2
BYLAYER
 70
0
  3

 72
65
 73
0
 40
0.0
  0
LTYPE
  5
16
100
AcDbSymbolTableRecord
100
AcDbLinetypeTableRecord
  2
CONTINUOUS
 70
64
  3
Solid line
 72
65
 73
0
 40
0.0
  0
LTYPE
  5
1F5
100
AcDbSymbolTableRecord
100
AcDbLinetypeTableRecord
  2
CENTER
 70
64
  3
____ _ ____ _ ____ _ ____ _ ____ _ ____ _ ____
 72
65
 73
4
 40
0.6
 49
0.375
 74
0
 49
-0.075
 74
0
 49
0.075
 74
0
 49
-0.075
 74
0
  0
LTYPE
  5
1F6
100
AcDbSymbolTableRecord
100
AcDbLinetypeTableRecord
  2
HIDDEN
 70
64
  3
- - - - - - - - - - - - - - - - - - - -
 72
65
 73
2
 40
0.2
 49
0.1
 74
0
 49
-0.1
 74
0
  0
LTYPE
  5
1F7
100
AcDbSymbolTableRecord
100
AcDbLinetypeTableRecord
  2
PHANTOM
 70
64
  3
_____ _ _ _____ _ _ _____ _ _ _____
 72
65
 73
6
 40
0.8
 49
0.45
 74
0
 49
-0.05
 74
0
 49
0.1
 74
0
 49
-0.05
 74
0
 49
0.1
 74
0
 49
-0.05
 74
0
  0
LTYPE
  5
1F8
100
AcDbSymbolTableRecord
100
AcDbLinetypeTableRecord
  2
DOT
 70
64
  3
. . . . . . . . . . . . . . . . . . . .
 72
65
 73
2
 40
0.2
 49
0.1
 74
0
 49
-0.1
 74
0
  0
LTYPE
  5
1F9
100
AcDbSymbolTableRecord
100
AcDbLinetypeTableRecord
  2
DASHED
 70
64
  3
- - - - - - - - - - - - - - - - - - - -
 72
65
 73
2
 40
0.2
 49
0.1
 74
0
 49
-0.1
 74
0
  0
ENDTAB
  0
TABLE
  2
LAYER
  5
2
100
AcDbSymbolTable
 70
36
  0
LAYER
  5
10
100
AcDbSymbolTableRecord
100
AcDbLayerTableRecord
  2
0
 70
0
 62
7
  6
CONTINUOUS
370
-3
390
F
  0
LAYER
  5
1FA
100
AcDbSymbolTableRecord
100
AcDbLayerTableRecord
  2
DEFAULT_1
 70
0
 62
7
  6
CENTER
370
-3
390
F
  0
LAYER
  5
1FB
100
AcDbSymbolTableRecord
100
AcDbLayerTableRecord
  2
DEFAULT_2
 70
0
 62
7
  6
HIDDEN
370
-3
390
F
  0
LAYER
  5
1FC
100
AcDbSymbolTableRecord
100
AcDbLayerTableRecord
  2
DEFAULT_3
 70
0
 62
7
  6
PHANTOM
370
-3
390
F
  0
LAYER
  5
1FD
100
AcDbSymbolTableRecord
100
AcDbLayerTableRecord
  2
00_COMPONENTS
 70
0
 62
7
  6
CONTINUOUS
370
-3
390
F
  0
LAYER
  5
1FE
100
AcDbSymbolTableRecord
100
AcDbLayerTableRecord
  2
01_1_DEFAULT_DATUMS
 70
0
 62
7
  6
CONTINUOUS
370
-3
390
F
  0
LAYER
  5
1FF
100
AcDbSymbolTableRecord
100
AcDbLayerTableRecord
  2
01_PLANES
 70
0
 62
7
  6
CONTINUOUS
370
-3
390
F
  0
LAYER
  5
200
100
AcDbSymbolTableRecord
100
AcDbLayerTableRecord
  2
02_COORD_SYS
 70
0
 62
7
  6
CONTINUOUS
370
-3
390
F
  0
LAYER
  5
201
100
AcDbSymbolTableRecord
100
AcDbLayerTableRecord
  2
03_AXES
 70
0
 62
7
  6
CONTINUOUS
370
-3
390
F
  0
LAYER
  5
202
100
AcDbSymbolTableRecord
100
AcDbLayerTableRecord
  2
04_POINTS
 70
0
 62
7
  6
CONTINUOUS
370
-3
390
F
  0
LAYER
  5
203
100
AcDbSymbolTableRecord
100
AcDbLayerTableRecord
  2
05_CURVES
 70
0
 62
7
  6
CONTINUOUS
370
-3
390
F
  0
LAYER
  5
204
100
AcDbSymbolTableRecord
100
AcDbLayerTableRecord
  2
06_SURFS
 70
0
 62
7
  6
CONTINUOUS
370
-3
390
F
  0
LAYER
  5
205
100
AcDbSymbolTableRecord
100
AcDbLayerTableRecord
  2
07_COSMETICS
 70
0
 62
7
  6
CONTINUOUS
370
-3
390
F
  0
LAYER
  5
206
100
AcDbSymbolTableRecord
100
AcDbLayerTableRecord
  2
10_NOTES
 70
0
 62
7
  6
CONTINUOUS
370
-3
390
F
  0
LAYER
  5
207
100
AcDbSymbolTableRecord
100
AcDbLayerTableRecord
  2
11_NOTES_PUB
 70
0
 62
7
  6
CONTINUOUS
370
-3
390
F
  0
LAYER
  5
208
100
AcDbSymbolTableRecord
100
AcDbLayerTableRecord
  2
13_REF_GTOL
 70
0
 62
7
  6
CONTINUOUS
370
-3
390
F
  0
LAYER
  5
209
100
AcDbSymbolTableRecord
100
AcDbLayerTableRecord
  2
16_MISC
 70
0
 62
7
  6
CONTINUOUS
370
-3
390
F
  0
LAYER
  5
20A
100
AcDbSymbolTableRecord
100
AcDbLayerTableRecord
  2
17_NO_PRINT
 70
0
 62
7
  6
CONTINUOUS
370
-3
390
F
  0
LAYER
  5
20B
100
AcDbSymbolTableRecord
100
AcDbLayerTableRecord
  2
18_DATUM_CAMS_JOINTS
 70
0
 62
7
  6
CONTINUOUS
370
-3
390
F
  0
LAYER
  5
20C
100
AcDbSymbolTableRecord
100
AcDbLayerTableRecord
  2
19_DATUM_FUNCTIONAL
 70
0
 62
7
  6
CONTINUOUS
370
-3
390
F
  0
LAYER
  5
20D
100
AcDbSymbolTableRecord
100
AcDbLayerTableRecord
  2
20_DATUM_KINEMATIC_SCHEME
 70
0
 62
7
  6
CONTINUOUS
370
-3
390
F
  0
ENDTAB
  0
TABLE
  2
STYLE
  5
3
100
AcDbSymbolTable
 70
1
  0
STYLE
  5
11
100
AcDbSymbolTableRecord
100
AcDbTextStyleTableRecord
  2
STANDARD
 70
0
 40
0.0
 41
1.0
 50
0.0
 71
0
 42
0.2
  3
ARIAL.TTF
  4

  0
STYLE
  5
20E
100
AcDbSymbolTableRecord
100
AcDbTextStyleTableRecord
  2
TEXTSTYLE_1
 70
0
 40
0.0
 41
0.8
 50
0.0
 71
0
 42
0.2
  3
gdt
  4

  0
ENDTAB
  0
TABLE
  2
VIEW
  5
6
100
AcDbSymbolTable
 70
0
  0
ENDTAB
  0
TABLE
  2
UCS
  5
7
100
AcDbSymbolTable
 70
0
  0
ENDTAB
  0
TABLE
  2
APPID
  5
9
100
AcDbSymbolTable
 70
1
  0
APPID
  5
20F
100
AcDbSymbolTableRecord
100
AcDbRegAppTableRecord
  2
ACAD
 70
0
  0
ENDTAB
  0
TABLE
  2
BLOCK_RECORD
  5
1
100
AcDbSymbolTable
 70
0
  0
BLOCK_RECORD
  5
210
100
AcDbSymbolTableRecord
100
AcDbBlockTableRecord
  2
*Model_Space
  0
BLOCK_RECORD
  5
211
100
AcDbSymbolTableRecord
100
AcDbBlockTableRecord
  2
*Paper_Space
  0
BLOCK_RECORD
  5
212
100
AcDbSymbolTableRecord
100
AcDbBlockTableRecord
  2
_FILLED
  0
ENDTAB
  0
TABLE
  2
DIMSTYLE
  5
A
100
AcDbSymbolTable
 70
1
100
AcDbDimStyleTable
 71
0
  0
DIMSTYLE
105
213
100
AcDbSymbolTableRecord
100
AcDbDimStyleTableRecord
  2
STANDARD
 70
0
  3

  4

 40
1.0
 41
1.8157243699
 42
1.0
 43
0.38
 44
1.0
 45
0.0
 46
0.0
 47
0.01
 48
0.01
140
2.5420141179
141
0.09
142
0.0
143
25.4
144
1.0
145
0.0
146
1.0
147
0.625
 71
1
 72
0
 73
0
 74
0
 75
0
 76
0
 77
1
 78
8
 79
2
170
0
171
1
172
0
173
0
174
0
175
0
176
0
177
0
178
0
270
2
179
2
271
2
272
2
273
2
274
2
275
0
280
0
281
0
282
0
283
1
284
8
285
0
286
0
287
3
288
0
340
11
278
46
341
212
342
212
343
212
344
212
  0
ENDTAB
  0
ENDSEC
  0
SECTION
  2
BLOCKS
  0
BLOCK
  5
20
100
AcDbEntity
  8
0
100
AcDbBlockBegin
  2
*Model_Space
 70
0
 10
0.0
 20
0.0
 30
0.0
  3
*Model_Space
  1

  0
ENDBLK
  5
21
100
AcDbEntity
  8
0
100
AcDbBlockEnd
  0
BLOCK
  5
1C
100
AcDbEntity
  8
0
100
AcDbBlockBegin
  2
*Paper_Space
 70
0
 10
0.0
 20
0.0
 30
0.0
  3
*Paper_Space
  1

  0
ENDBLK
  5
1D
100
AcDbEntity
  8
0
100
AcDbBlockEnd
  0
BLOCK
  5
214
100
AcDbEntity
  8
0
100
AcDbBlockBegin
  2
_FILLED
 70
64
 10
0.0
 20
0.0
  3
_FILLED
  1

  0
SOLID
  5
215
100
AcDbEntity
  8
0
  6
BYBLOCK
 62
0
100
AcDbTrace
 10
0.0
 20
0.0
 11
-1.0
 21
0.25
 12
-1.0
 22
-0.25
 13
-1.0
 23
-0.25
  0
ENDBLK
  5
216
100
AcDbEntity
  8
0
  6
BYBLOCK
 62
0
100
AcDbBlockEnd
  0
ENDSEC
  0
SECTION
  2
ENTITIES
  0
LINE
  5
217
100
AcDbEntity
  8
0
100
AcDbLine
 62
7
  6
BYLAYER
 10
22.2903479965
 20
188.0315771836
 11
17.6941730546
 21
185.3779901834
  0
LINE
  5
218
100
AcDbEntity
  8
0
100
AcDbLine
 62
7
  6
BYLAYER
 10
17.6941730546
 20
167.4149370066
 11
18.0477249732
 21
167.6190590835
  0
LINE
  5
219
100
AcDbEntity
  8
0
100
AcDbLine
 62
7
  6
BYLAYER
 10
24.2558048786
 20
164.8514059805
 11
23.90225296
 21
164.6472839036
  0
LINE
  5
21A
100
AcDbEntity
  8
0
100
AcDbLine
 62
7
  6
BYLAYER
 10
23.90225296
 20
163.8307814865
 11
24.2558048786
 21
164.0349035634
  0
LINE
  5
21B
100
AcDbEntity
  8
0
100
AcDbLine
 62
7
  6
BYLAYER
 10
25.2037455139
 20
163.3651447102
 11
26.193690886
 21
163.9366865256
  0
LINE
  5
21C
100
AcDbEntity
  8
0
100
AcDbLine
 62
7
  6
BYLAYER
 10
26.790782581
 20
163.6736427865
 11
27.7807279531
 21
164.2451846019
  0
LINE
  5
21D
100
AcDbEntity
  8
0
100
AcDbLine
 62
7
  6
BYLAYER
 10
26.790782581
 20
162.4488891608
 11
27.7807279531
 21
163.0204309762
  0
LINE
  5
21E
100
AcDbEntity
  8
0
100
AcDbLine
 62
7
  6
BYLAYER
 10
27.8309409867
 20
161.8483670109
 11
28.8208863588
 21
162.4199088263
  0
LINE
  5
21F
100
AcDbEntity
  8
0
100
AcDbLine
 62
7
  6
BYLAYER
 10
26.790782581
 20
161.0543846826
 11
27.7807279531
 21
161.625926498
  0
LINE
  5
220
100
AcDbEntity
  8
0
100
AcDbLine
 62
7
  6
BYLAYER
 10
30.2244979217
 20
160.5889549861
 11
29.8709460031
 21
160.3848329091
  0
LINE
  5
221
100
AcDbEntity
  8
0
100
AcDbLine
 62
7
  6
BYLAYER
 10
17.6941730546
 20
185.3779901834
 11
17.6941730546
 21
168.2314394237
  0
LINE
  5
222
100
AcDbEntity
  8
0
100
AcDbLine
 62
7
  6
BYLAYER
 10
17.6941730546
 20
167.4149370066
 11
17.6941730546
 21
110.2597678075
  0
LINE
  5
223
100
AcDbEntity
  8
0
100
AcDbLine
 62
7
  6
BYLAYER
 10
17.6941730546
 20
109.4432653904
 11
17.6941730546
 21
92.2967146306
  0
LINE
  5
224
100
AcDbEntity
  8
0
100
AcDbLine
 62
7
  6
BYLAYER
 10
18.0477249732
 20
109.6473874673
 11
18.0477249732
 21
110.0556491299
  0
LINE
  5
225
100
AcDbEntity
  8
0
100
AcDbLine
 62
7
  6
BYLAYER
 10
18.0477249732
 20
167.6190590835
 11
18.0477249732
 21
168.0273207461
  0
LINE
  5
226
100
AcDbEntity
  8
0
100
AcDbLine
 62
7
  6
BYLAYER
 10
36.7861356336
 20
157.2089390516
 11
37.1396875522
 21
157.4130611286
  0
LINE
  5
227
100
AcDbEntity
  8
0
100
AcDbLine
 62
7
  6
BYLAYER
 10
36.7861356336
 20
156.3924366345
 11
37.1396875522
 21
156.5965587114
  0
LINE
  5
228
100
AcDbEntity
  8
0
100
AcDbLine
 62
7
  6
BYLAYER
 10
25.2037455139
 20
164.5898983359
 11
25.2037455139
 21
163.3651447102
  0
LINE
  5
229
100
AcDbEntity
  8
0
100
AcDbLine
 62
7
  6
BYLAYER
 10
25.2037455139
 20
106.6182267197
 11
25.2037455139
 21
105.393473094
  0
LINE
  5
22A
100
AcDbEntity
  8
0
100
AcDbLine
 62
7
  6
BYLAYER
 10
26.193690886
 20
164.0183660386
 11
26.193690886
 21
163.9366865256
  0
LINE
  5
22B
100
AcDbEntity
  8
0
100
AcDbLine
 62
7
  6
BYLAYER
 10
26.193690886
 20
106.0466944224
 11
26.193690886
 21
105.9650149094
  0
LINE
  5
22C
100
AcDbEntity
  8
0
100
AcDbLine
 62
7
  6
BYLAYER
 10
26.790782581
 20
165.0681472647
 11
26.790782581
 21
163.6736427865
  0
LINE
  5
22D
100
AcDbEntity
  8
0
100
AcDbLine
 62
7
  6
BYLAYER
 10
26.790782581
 20
162.4488891608
 11
26.790782581
 21
161.0543846826
  0
LINE
  5
22E
100
AcDbEntity
  8
0
100
AcDbLine
 62
7
  6
BYLAYER
 10
26.790782581
 20
107.0964756485
 11
26.790782581
 21
105.7019711703
  0
LINE
  5
22F
100
AcDbEntity
  8
0
100
AcDbLine
 62
7
  6
BYLAYER
 10
26.790782581
 20
104.4772175446
 11
26.790782581
 21
103.0827130664
  0
LINE
  5
230
100
AcDbEntity
  8
0
100
AcDbLine
 62
7
  6
BYLAYER
 10
27.7807279531
 20
164.4966149674
 11
27.7807279531
 21
164.2451846019
  0
LINE
  5
231
100
AcDbEntity
  8
0
100
AcDbLine
 62
7
  6
BYLAYER
 10
27.7807279531
 20
163.0204309762
 11
27.7807279531
 21
161.625926498
  0
LINE
  5
232
100
AcDbEntity
  8
0
100
AcDbLine
 62
7
  6
BYLAYER
 10
27.7807279531
 20
106.5249433512
 11
27.7807279531
 21
106.2735129857
  0
LINE
  5
233
100
AcDbEntity
  8
0
100
AcDbLine
 62
7
  6
BYLAYER
 10
27.7807279531
 20
105.04875936
 11
27.7807279531
 21
103.6542548818
  0
LINE
  5
234
100
AcDbEntity
  8
0
100
AcDbLine
 62
7
  6
BYLAYER
 10
27.8309409867
 20
102.4821909165
 11
27.8309409867
 21
103.8766953947
  0
LINE
  5
235
100
AcDbEntity
  8
0
100
AcDbLine
 62
7
  6
BYLAYER
 10
27.8309409867
 20
105.1014490204
 11
27.8309409867
 21
106.4959534986
  0
LINE
  5
236
100
AcDbEntity
  8
0
100
AcDbLine
 62
7
  6
BYLAYER
 10
27.8309409867
 20
160.4538625327
 11
27.8309409867
 21
161.8483670109
  0
LINE
  5
237
100
AcDbEntity
  8
0
100
AcDbLine
 62
7
  6
BYLAYER
 10
27.8309409867
 20
163.0731206366
 11
27.8309409867
 21
164.4676251148
  0
LINE
  5
238
100
AcDbEntity
  8
0
100
AcDbLine
 62
7
  6
BYLAYER
 10
29.4179780538
 20
102.9604398452
 11
29.4179780538
 21
104.1851934709
  0
LINE
  5
239
100
AcDbEntity
  8
0
100
AcDbLine
 62
7
  6
BYLAYER
 10
29.4179780538
 20
160.9321114614
 11
29.4179780538
 21
162.1568650871
  0
LINE
  5
23A
100
AcDbEntity
  8
0
100
AcDbLine
 62
7
  6
BYLAYER
 10
36.7861356336
 20
162.516204763
 11
36.7861356336
 21
157.2089390516
  0
LINE
  5
23B
100
AcDbEntity
  8
0
100
AcDbLine
 62
7
  6
BYLAYER
 10
36.7861356336
 20
156.3924366345
 11
36.7861356336
 21
99.2372674354
  0
LINE
  5
23C
100
AcDbEntity
  8
0
100
AcDbLine
 62
7
  6
BYLAYER
 10
36.7861356336
 20
98.4207650183
 11
36.7861356336
 21
93.113499307
  0
LINE
  5
23D
100
AcDbEntity
  8
0
100
AcDbLine
 62
7
  6
BYLAYER
 10
37.1396875522
 20
98.6248870952
 11
37.1396875522
 21
99.4413895124
  0
LINE
  5
23E
100
AcDbEntity
  8
0
100
AcDbLine
 62
7
  6
BYLAYER
 10
37.1396875522
 20
156.5965587114
 11
37.1396875522
 21
157.4130611286
  0
LINE
  5
23F
100
AcDbEntity
  8
0
100
AcDbLine
 62
7
  6
BYLAYER
 10
17.6941730546
 20
92.2967146306
 11
128.7103999027
 21
28.2029161709
  0
LINE
  5
240
100
AcDbEntity
  8
0
100
AcDbLine
 62
7
  6
BYLAYER
 10
43.8571740057
 20
158.433831211
 11
43.8571740057
 21
97.1959408457
  0
LINE
  5
241
100
AcDbEntity
  8
0
100
AcDbLine
 62
7
  6
BYLAYER
 10
36.7861356336
 20
93.113499307
 11
109.6184373237
 21
51.0647015914
  0
LINE
  5
242
100
AcDbEntity
  8
0
100
AcDbLine
 62
7
  6
BYLAYER
 10
48.8069420818
 20
99.6455212754
 11
48.8069420818
 21
155.5761459294
  0
LINE
  5
243
100
AcDbEntity
  8
0
100
AcDbLine
 62
7
  6
BYLAYER
 10
50.2211497562
 20
100.4620095831
 11
50.2211497562
 21
154.759671219
  0
LINE
  5
244
100
AcDbEntity
  8
0
100
AcDbLine
 62
7
  6
BYLAYER
 10
17.6941730546
 20
109.4432653904
 11
18.0477249732
 21
109.6473874673
  0
LINE
  5
245
100
AcDbEntity
  8
0
100
AcDbLine
 62
7
  6
BYLAYER
 10
120.462314981
 20
49.0026520743
 11
119.4221565753
 21
49.6031742242
  0
LINE
  5
246
100
AcDbEntity
  8
0
100
AcDbLine
 62
7
  6
BYLAYER
 10
26.790782581
 20
103.0827130664
 11
27.8309409867
 21
102.4821909165
  0
LINE
  5
247
100
AcDbEntity
  8
0
100
AcDbLine
 62
7
  6
BYLAYER
 10
128.7103999027
 20
45.3494669307
 11
122.5023199973
 21
48.9336224508
  0
LINE
  5
248
100
AcDbEntity
  8
0
100
AcDbLine
 62
7
  6
BYLAYER
 10
116.5336269543
 20
52.3795710281
 11
109.6184373237
 21
56.3719673027
  0
LINE
  5
249
100
AcDbEntity
  8
0
100
AcDbLine
 62
7
  6
BYLAYER
 10
17.6941730546
 20
109.4432653904
 11
23.90225296
 21
105.8591098703
  0
LINE
  5
24A
100
AcDbEntity
  8
0
100
AcDbLine
 62
7
  6
BYLAYER
 10
29.8709460031
 20
102.4131612929
 11
36.7861356336
 21
98.4207650183
  0
LINE
  5
24B
100
AcDbEntity
  8
0
100
AcDbLine
 62
7
  6
BYLAYER
 10
120.462314981
 20
50.145726187
 11
120.4121019474
 21
50.1747160396
  0
LINE
  5
24C
100
AcDbEntity
  8
0
100
AcDbLine
 62
7
  6
BYLAYER
 10
27.7807279531
 20
103.6542548818
 11
27.8309409867
 21
103.6252650292
  0
LINE
  5
24D
100
AcDbEntity
  8
0
100
AcDbLine
 62
7
  6
BYLAYER
 10
122.0493520481
 20
49.4809010031
 11
120.462314981
 21
50.3971565525
  0
LINE
  5
24E
100
AcDbEntity
  8
0
100
AcDbLine
 62
7
  6
BYLAYER
 10
119.4221565753
 20
50.9976787024
 11
117.8351195082
 21
51.9139342519
  0
LINE
  5
24F
100
AcDbEntity
  8
0
100
AcDbLine
 62
7
  6
BYLAYER
 10
25.2037455139
 20
105.393473094
 11
26.790782581
 21
104.4772175446
  0
LINE
  5
250
100
AcDbEntity
  8
0
100
AcDbLine
 62
7
  6
BYLAYER
 10
27.8309409867
 20
103.8766953947
 11
29.4179780538
 21
102.9604398452
  0
LINE
  5
251
100
AcDbEntity
  8
0
100
AcDbLine
 62
7
  6
BYLAYER
 10
129.0639518213
 20
45.5535890076
 11
122.8558719159
 21
49.1377445277
  0
LINE
  5
252
100
AcDbEntity
  8
0
100
AcDbLine
 62
7
  6
BYLAYER
 10
116.8871788729
 20
52.583693105
 11
109.9719892424
 21
56.5760893796
  0
LINE
  5
253
100
AcDbEntity
  8
0
100
AcDbLine
 62
7
  6
BYLAYER
 10
18.0477249732
 20
109.6473874673
 11
24.2558048786
 21
106.0632319472
  0
LINE
  5
254
100
AcDbEntity
  8
0
100
AcDbLine
 62
7
  6
BYLAYER
 10
30.2244979217
 20
102.6172833699
 11
37.1396875522
 21
98.6248870952
  0
LINE
  5
255
100
AcDbEntity
  8
0
100
AcDbLine
 62
7
  6
BYLAYER
 10
128.7103999027
 20
46.1659693478
 11
122.5023199973
 21
49.7501248679
  0
LINE
  5
256
100
AcDbEntity
  8
0
100
AcDbLine
 62
7
  6
BYLAYER
 10
36.7861356336
 20
99.2372674354
 11
29.8709460031
 21
103.2296637101
  0
LINE
  5
257
100
AcDbEntity
  8
0
100
AcDbLine
 62
7
  6
BYLAYER
 10
17.6941730546
 20
110.2597678075
 11
23.90225296
 21
106.6756122874
  0
LINE
  5
258
100
AcDbEntity
  8
0
100
AcDbLine
 62
7
  6
BYLAYER
 10
109.6184373237
 20
57.1884697198
 11
116.5336269543
 21
53.1960734452
  0
LINE
  5
259
100
AcDbEntity
  8
0
100
AcDbLine
 62
7
  6
BYLAYER
 10
122.0493520481
 20
50.6239751158
 11
121.4522603531
 21
50.9686983679
  0
LINE
  5
25A
100
AcDbEntity
  8
0
100
AcDbLine
 62
7
  6
BYLAYER
 10
120.4121019474
 20
51.5692205178
 11
118.8250648803
 21
52.4854760673
  0
LINE
  5
25B
100
AcDbEntity
  8
0
100
AcDbLine
 62
7
  6
BYLAYER
 10
26.193690886
 20
105.9650149094
 11
27.7807279531
 21
105.04875936
  0
LINE
  5
25C
100
AcDbEntity
  8
0
100
AcDbLine
 62
7
  6
BYLAYER
 10
28.8208863588
 20
104.4482372101
 11
29.4179780538
 21
104.1035139579
  0
LINE
  5
25D
100
AcDbEntity
  8
0
100
AcDbLine
 62
7
  6
BYLAYER
 10
29.4179780538
 20
104.1851934709
 11
27.8309409867
 21
105.1014490204
  0
LINE
  5
25E
100
AcDbEntity
  8
0
100
AcDbLine
 62
7
  6
BYLAYER
 10
26.790782581
 20
105.7019711703
 11
25.2037455139
 21
106.6182267197
  0
LINE
  5
25F
100
AcDbEntity
  8
0
100
AcDbLine
 62
7
  6
BYLAYER
 10
117.8351195082
 20
53.1386878776
 11
119.4221565753
 21
52.2224323281
  0
LINE
  5
260
100
AcDbEntity
  8
0
100
AcDbLine
 62
7
  6
BYLAYER
 10
120.462314981
 20
51.6219101782
 11
122.0493520481
 21
50.7056546288
  0
LINE
  5
261
100
AcDbEntity
  8
0
100
AcDbLine
 62
7
  6
BYLAYER
 10
43.8571740057
 20
97.1959408457
 11
109.6184373237
 21
59.2295166821
  0
LINE
  5
262
100
AcDbEntity
  8
0
100
AcDbLine
 62
7
  6
BYLAYER
 10
27.8309409867
 20
106.4959534986
 11
26.790782581
 21
107.0964756485
  0
LINE
  5
263
100
AcDbEntity
  8
0
100
AcDbLine
 62
7
  6
BYLAYER
 10
119.4221565753
 20
53.6169368063
 11
120.462314981
 21
53.0164146564
  0
LINE
  5
264
100
AcDbEntity
  8
0
100
AcDbLine
 62
7
  6
BYLAYER
 10
24.2558048786
 20
106.8797343643
 11
23.90225296
 21
106.6756122874
  0
LINE
  5
265
100
AcDbEntity
  8
0
100
AcDbLine
 62
7
  6
BYLAYER
 10
23.90225296
 20
105.8591098703
 11
24.2558048786
 21
106.0632319472
  0
LINE
  5
266
100
AcDbEntity
  8
0
100
AcDbLine
 62
7
  6
BYLAYER
 10
25.2037455139
 20
105.393473094
 11
26.193690886
 21
105.9650149094
  0
LINE
  5
267
100
AcDbEntity
  8
0
100
AcDbLine
 62
7
  6
BYLAYER
 10
26.790782581
 20
105.7019711703
 11
27.7807279531
 21
106.2735129857
  0
LINE
  5
268
100
AcDbEntity
  8
0
100
AcDbLine
 62
7
  6
BYLAYER
 10
26.790782581
 20
104.4772175446
 11
27.7807279531
 21
105.04875936
  0
LINE
  5
269
100
AcDbEntity
  8
0
100
AcDbLine
 62
7
  6
BYLAYER
 10
27.8309409867
 20
103.8766953947
 11
28.8208863588
 21
104.4482372101
  0
LINE
  5
26A
100
AcDbEntity
  8
0
100
AcDbLine
 62
7
  6
BYLAYER
 10
26.790782581
 20
103.0827130664
 11
27.7807279531
 21
103.6542548818
  0
LINE
  5
26B
100
AcDbEntity
  8
0
100
AcDbLine
 62
7
  6
BYLAYER
 10
135.7814382749
 20
46.982590198
 11
133.3065748446
 21
48.4114209411
  0
LINE
  5
26C
100
AcDbEntity
  8
0
100
AcDbLine
 62
7
  6
BYLAYER
 10
109.6184373237
 20
64.5367823934
 11
48.8069420818
 21
99.6455212754
  0
LINE
  5
26D
100
AcDbEntity
  8
0
100
AcDbLine
 62
7
  6
BYLAYER
 10
109.6184373237
 20
66.1697454115
 11
50.2211497562
 21
100.4620095831
  0
LINE
  5
26E
100
AcDbEntity
  8
0
100
AcDbLine
 62
7
  6
BYLAYER
 10
30.2244979217
 20
102.6172833699
 11
29.8709460031
 21
102.4131612929
  0
LINE
  5
26F
100
AcDbEntity
  8
0
100
AcDbLine
 62
7
  6
BYLAYER
 10
36.7861356336
 20
99.2372674354
 11
37.1396875522
 21
99.4413895124
  0
LINE
  5
270
100
AcDbEntity
  8
0
100
AcDbLine
 62
7
  6
BYLAYER
 10
133.3065748446
 20
54.1269378611
 11
135.7814382749
 21
52.6981071179
  0
LINE
  5
271
100
AcDbEntity
  8
0
100
AcDbLine
 62
7
  6
BYLAYER
 10
133.3065748446
 20
55.7599008792
 11
137.1956459493
 21
53.5145954256
  0
LINE
  5
272
100
AcDbEntity
  8
0
100
AcDbLine
 62
7
  6
BYLAYER
 10
36.7861356336
 20
98.4207650183
 11
37.1396875522
 21
98.6248870952
  0
LINE
  5
273
100
AcDbEntity
  8
0
100
AcDbLine
 62
7
  6
BYLAYER
 10
36.7861356336
 20
93.113499307
 11
43.8571740057
 21
97.1959408457
  0
LINE
  5
274
100
AcDbEntity
  8
0
100
AcDbLine
 62
7
  6
BYLAYER
 10
50.2211497562
 20
100.4620095831
 11
48.8069420818
 21
99.6455212754
  0
LINE
  5
275
100
AcDbEntity
  8
0
100
AcDbLine
 62
7
  6
BYLAYER
 10
109.6184373237
 20
114.3436389189
 11
109.9719892424
 21
114.5477609959
  0
LINE
  5
276
100
AcDbEntity
  8
0
100
AcDbLine
 62
7
  6
BYLAYER
 10
133.3065748446
 20
123.9377787239
 11
128.7103999027
 21
121.2841917237
  0
LINE
  5
277
100
AcDbEntity
  8
0
100
AcDbLine
 62
7
  6
BYLAYER
 10
116.8871788729
 20
111.3718671384
 11
116.5336269543
 21
111.1677450614
  0
LINE
  5
278
100
AcDbEntity
  8
0
100
AcDbLine
 62
7
  6
BYLAYER
 10
116.5336269543
 20
110.3512426443
 11
116.8871788729
 21
110.5553647212
  0
LINE
  5
279
100
AcDbEntity
  8
0
100
AcDbLine
 62
7
  6
BYLAYER
 10
117.8351195082
 20
109.8856058681
 11
118.8250648803
 21
110.4571476835
  0
LINE
  5
27A
100
AcDbEntity
  8
0
100
AcDbLine
 62
7
  6
BYLAYER
 10
119.4221565753
 20
110.1941039443
 11
120.4121019474
 21
110.7656457597
  0
LINE
  5
27B
100
AcDbEntity
  8
0
100
AcDbLine
 62
7
  6
BYLAYER
 10
119.4221565753
 20
108.9693503186
 11
120.4121019474
 21
109.540892134
  0
LINE
  5
27C
100
AcDbEntity
  8
0
100
AcDbLine
 62
7
  6
BYLAYER
 10
120.462314981
 20
106.9743236905
 11
119.4221565753
 21
107.5748458404
  0
LINE
  5
27D
100
AcDbEntity
  8
0
100
AcDbLine
 62
7
  6
BYLAYER
 10
26.790782581
 20
161.0543846826
 11
27.8309409867
 21
160.4538625327
  0
LINE
  5
27E
100
AcDbEntity
  8
0
100
AcDbLine
 62
7
  6
BYLAYER
 10
120.462314981
 20
108.3688281687
 11
121.4522603531
 21
108.9403699841
  0
LINE
  5
27F
100
AcDbEntity
  8
0
100
AcDbLine
 62
7
  6
BYLAYER
 10
119.4221565753
 20
107.5748458404
 11
120.4121019474
 21
108.1463876558
  0
LINE
  5
280
100
AcDbEntity
  8
0
100
AcDbLine
 62
7
  6
BYLAYER
 10
122.8558719159
 20
107.1094161439
 11
122.5023199973
 21
106.905294067
  0
LINE
  5
281
100
AcDbEntity
  8
0
100
AcDbLine
 62
7
  6
BYLAYER
 10
135.7814382749
 20
110.6694007741
 11
137.1956459493
 21
111.4858890819
  0
LINE
  5
282
100
AcDbEntity
  8
0
100
AcDbLine
 62
7
  6
BYLAYER
 10
128.7103999027
 20
103.3211385469
 11
122.5023199973
 21
106.905294067
  0
LINE
  5
283
100
AcDbEntity
  8
0
100
AcDbLine
 62
7
  6
BYLAYER
 10
116.5336269543
 20
110.3512426443
 11
109.6184373237
 21
114.3436389189
  0
LINE
  5
284
100
AcDbEntity
  8
0
100
AcDbLine
 62
7
  6
BYLAYER
 10
17.6941730546
 20
167.4149370066
 11
23.90225296
 21
163.8307814865
  0
LINE
  5
285
100
AcDbEntity
  8
0
100
AcDbLine
 62
7
  6
BYLAYER
 10
29.8709460031
 20
160.3848329091
 11
36.7861356336
 21
156.3924366345
  0
LINE
  5
286
100
AcDbEntity
  8
0
100
AcDbLine
 62
7
  6
BYLAYER
 10
120.462314981
 20
108.1173978032
 11
120.4121019474
 21
108.1463876558
  0
LINE
  5
287
100
AcDbEntity
  8
0
100
AcDbLine
 62
7
  6
BYLAYER
 10
27.7807279531
 20
161.625926498
 11
27.8309409867
 21
161.5969366454
  0
LINE
  5
288
100
AcDbEntity
  8
0
100
AcDbLine
 62
7
  6
BYLAYER
 10
122.0493520481
 20
107.4525726193
 11
120.462314981
 21
108.3688281687
  0
LINE
  5
289
100
AcDbEntity
  8
0
100
AcDbLine
 62
7
  6
BYLAYER
 10
119.4221565753
 20
108.9693503186
 11
117.8351195082
 21
109.8856058681
  0
LINE
  5
28A
100
AcDbEntity
  8
0
100
AcDbLine
 62
7
  6
BYLAYER
 10
25.2037455139
 20
163.3651447102
 11
26.790782581
 21
162.4488891608
  0
LINE
  5
28B
100
AcDbEntity
  8
0
100
AcDbLine
 62
7
  6
BYLAYER
 10
27.8309409867
 20
161.8483670109
 11
29.4179780538
 21
160.9321114614
  0
LINE
  5
28C
100
AcDbEntity
  8
0
100
AcDbLine
 62
7
  6
BYLAYER
 10
129.0639518213
 20
103.5252606238
 11
122.8558719159
 21
107.1094161439
  0
LINE
  5
28D
100
AcDbEntity
  8
0
100
AcDbLine
 62
7
  6
BYLAYER
 10
116.8871788729
 20
110.5553647212
 11
109.9719892424
 21
114.5477609959
  0
LINE
  5
28E
100
AcDbEntity
  8
0
100
AcDbLine
 62
7
  6
BYLAYER
 10
18.0477249732
 20
167.6190590835
 11
24.2558048786
 21
164.0349035634
  0
LINE
  5
28F
100
AcDbEntity
  8
0
100
AcDbLine
 62
7
  6
BYLAYER
 10
30.2244979217
 20
160.5889549861
 11
37.1396875522
 21
156.5965587114
  0
LINE
  5
290
100
AcDbEntity
  8
0
100
AcDbLine
 62
7
  6
BYLAYER
 10
128.7103999027
 20
104.137640964
 11
122.5023199973
 21
107.7217964841
  0
LINE
  5
291
100
AcDbEntity
  8
0
100
AcDbLine
 62
7
  6
BYLAYER
 10
17.6941730546
 20
168.2314394237
 11
23.90225296
 21
164.6472839036
  0
LINE
  5
292
100
AcDbEntity
  8
0
100
AcDbLine
 62
7
  6
BYLAYER
 10
36.7861356336
 20
157.2089390516
 11
29.8709460031
 21
161.2013353263
  0
LINE
  5
293
100
AcDbEntity
  8
0
100
AcDbLine
 62
7
  6
BYLAYER
 10
109.6184373237
 20
115.160141336
 11
116.5336269543
 21
111.1677450614
  0
LINE
  5
294
100
AcDbEntity
  8
0
100
AcDbLine
 62
7
  6
BYLAYER
 10
122.0493520481
 20
108.595646732
 11
121.4522603531
 21
108.9403699841
  0
LINE
  5
295
100
AcDbEntity
  8
0
100
AcDbLine
 62
7
  6
BYLAYER
 10
120.4121019474
 20
109.540892134
 11
118.8250648803
 21
110.4571476835
  0
LINE
  5
296
100
AcDbEntity
  8
0
100
AcDbLine
 62
7
  6
BYLAYER
 10
26.193690886
 20
163.9366865256
 11
27.7807279531
 21
163.0204309762
  0
LINE
  5
297
100
AcDbEntity
  8
0
100
AcDbLine
 62
7
  6
BYLAYER
 10
28.8208863588
 20
162.4199088263
 11
29.4179780538
 21
162.0751855741
  0
LINE
  5
298
100
AcDbEntity
  8
0
100
AcDbLine
 62
7
  6
BYLAYER
 10
29.4179780538
 20
162.1568650871
 11
27.8309409867
 21
163.0731206366
  0
LINE
  5
299
100
AcDbEntity
  8
0
100
AcDbLine
 62
7
  6
BYLAYER
 10
26.790782581
 20
163.6736427865
 11
25.2037455139
 21
164.5898983359
  0
LINE
  5
29A
100
AcDbEntity
  8
0
100
AcDbLine
 62
7
  6
BYLAYER
 10
117.8351195082
 20
111.1103594938
 11
119.4221565753
 21
110.1941039443
  0
LINE
  5
29B
100
AcDbEntity
  8
0
100
AcDbLine
 62
7
  6
BYLAYER
 10
120.462314981
 20
109.5935817944
 11
122.0493520481
 21
108.677326245
  0
LINE
  5
29C
100
AcDbEntity
  8
0
100
AcDbLine
 62
7
  6
BYLAYER
 10
27.8309409867
 20
164.4676251148
 11
26.790782581
 21
165.0681472647
  0
LINE
  5
29D
100
AcDbEntity
  8
0
100
AcDbLine
 62
7
  6
BYLAYER
 10
119.4221565753
 20
111.5886084225
 11
120.462314981
 21
110.9880862726
  0
LINE
  5
29E
100
AcDbEntity
  8
0
100
AcDbLine
 62
7
  6
BYLAYER
 10
135.7814382749
 20
104.9538838542
 11
133.3065748446
 21
106.3827145974
  0
LINE
  5
29F
100
AcDbEntity
  8
0
100
AcDbLine
 62
7
  6
BYLAYER
 10
109.6184373237
 20
120.4674070474
 11
36.7861356336
 21
162.516204763
  0
LINE
  5
2A0
100
AcDbEntity
  8
0
100
AcDbLine
 62
7
  6
BYLAYER
 10
109.6184373237
 20
51.0647015914
 11
109.6184373237
 21
56.3719673027
  0
LINE
  5
2A1
100
AcDbEntity
  8
0
100
AcDbLine
 62
7
  6
BYLAYER
 10
109.6184373237
 20
57.1884697198
 11
109.6184373237
 21
114.3436389189
  0
LINE
  5
2A2
100
AcDbEntity
  8
0
100
AcDbLine
 62
7
  6
BYLAYER
 10
109.6184373237
 20
115.160141336
 11
109.6184373237
 21
120.4674070474
  0
LINE
  5
2A3
100
AcDbEntity
  8
0
100
AcDbLine
 62
7
  6
BYLAYER
 10
109.9719892424
 20
56.5760893796
 11
109.9719892424
 21
56.9843510422
  0
LINE
  5
2A4
100
AcDbEntity
  8
0
100
AcDbLine
 62
7
  6
BYLAYER
 10
109.9719892424
 20
114.5477609959
 11
109.9719892424
 21
114.9560226584
  0
LINE
  5
2A5
100
AcDbEntity
  8
0
100
AcDbLine
 62
7
  6
BYLAYER
 10
128.7103999027
 20
104.137640964
 11
129.0639518213
 21
104.3417630409
  0
LINE
  5
2A6
100
AcDbEntity
  8
0
100
AcDbLine
 62
7
  6
BYLAYER
 10
128.7103999027
 20
103.3211385469
 11
129.0639518213
 21
103.5252606238
  0
LINE
  5
2A7
100
AcDbEntity
  8
0
100
AcDbLine
 62
7
  6
BYLAYER
 10
135.7814382749
 20
104.9538838542
 11
137.1956459493
 21
105.770372162
  0
LINE
  5
2A8
100
AcDbEntity
  8
0
100
AcDbLine
 62
7
  6
BYLAYER
 10
133.3065748446
 20
112.0982315173
 11
135.7814382749
 21
110.6694007741
  0
LINE
  5
2A9
100
AcDbEntity
  8
0
100
AcDbLine
 62
7
  6
BYLAYER
 10
133.3065748446
 20
113.7311945355
 11
137.1956459493
 21
111.4858890819
  0
LINE
  5
2AA
100
AcDbEntity
  8
0
100
AcDbLine
 62
7
  6
BYLAYER
 10
117.8351195082
 20
51.9139342519
 11
117.8351195082
 21
53.1386878776
  0
LINE
  5
2AB
100
AcDbEntity
  8
0
100
AcDbLine
 62
7
  6
BYLAYER
 10
117.8351195082
 20
109.8856058681
 11
117.8351195082
 21
111.1103594938
  0
LINE
  5
2AC
100
AcDbEntity
  8
0
100
AcDbLine
 62
7
  6
BYLAYER
 10
128.7103999027
 20
121.2841917237
 11
17.6941730546
 21
185.3779901834
  0
LINE
  5
2AD
100
AcDbEntity
  8
0
100
AcDbLine
 62
7
  6
BYLAYER
 10
118.8250648803
 20
52.4854760673
 11
118.8250648803
 21
52.5671555803
  0
LINE
  5
2AE
100
AcDbEntity
  8
0
100
AcDbLine
 62
7
  6
BYLAYER
 10
118.8250648803
 20
110.4571476835
 11
118.8250648803
 21
110.5388271965
  0
LINE
  5
2AF
100
AcDbEntity
  8
0
100
AcDbLine
 62
7
  6
BYLAYER
 10
119.4221565753
 20
49.6031742242
 11
119.4221565753
 21
50.9976787024
  0
LINE
  5
2B0
100
AcDbEntity
  8
0
100
AcDbLine
 62
7
  6
BYLAYER
 10
119.4221565753
 20
52.2224323281
 11
119.4221565753
 21
53.6169368063
  0
LINE
  5
2B1
100
AcDbEntity
  8
0
100
AcDbLine
 62
7
  6
BYLAYER
 10
119.4221565753
 20
107.5748458404
 11
119.4221565753
 21
108.9693503186
  0
LINE
  5
2B2
100
AcDbEntity
  8
0
100
AcDbLine
 62
7
  6
BYLAYER
 10
119.4221565753
 20
110.1941039443
 11
119.4221565753
 21
111.5886084225
  0
LINE
  5
2B3
100
AcDbEntity
  8
0
100
AcDbLine
 62
7
  6
BYLAYER
 10
120.4121019474
 20
50.1747160396
 11
120.4121019474
 21
51.5692205178
  0
LINE
  5
2B4
100
AcDbEntity
  8
0
100
AcDbLine
 62
7
  6
BYLAYER
 10
120.4121019474
 20
52.7939741435
 11
120.4121019474
 21
53.0454045091
  0
LINE
  5
2B5
100
AcDbEntity
  8
0
100
AcDbLine
 62
7
  6
BYLAYER
 10
120.4121019474
 20
108.1463876558
 11
120.4121019474
 21
109.540892134
  0
LINE
  5
2B6
100
AcDbEntity
  8
0
100
AcDbLine
 62
7
  6
BYLAYER
 10
120.4121019474
 20
110.7656457597
 11
120.4121019474
 21
111.0170761253
  0
LINE
  5
2B7
100
AcDbEntity
  8
0
100
AcDbLine
 62
7
  6
BYLAYER
 10
120.462314981
 20
110.9880862726
 11
120.462314981
 21
109.5935817944
  0
LINE
  5
2B8
100
AcDbEntity
  8
0
100
AcDbLine
 62
7
  6
BYLAYER
 10
120.462314981
 20
108.3688281687
 11
120.462314981
 21
106.9743236905
  0
LINE
  5
2B9
100
AcDbEntity
  8
0
100
AcDbLine
 62
7
  6
BYLAYER
 10
120.462314981
 20
53.0164146564
 11
120.462314981
 21
51.6219101782
  0
LINE
  5
2BA
100
AcDbEntity
  8
0
100
AcDbLine
 62
7
  6
BYLAYER
 10
120.462314981
 20
50.3971565525
 11
120.462314981
 21
49.0026520743
  0
LINE
  5
2BB
100
AcDbEntity
  8
0
100
AcDbLine
 62
7
  6
BYLAYER
 10
122.0493520481
 20
108.677326245
 11
122.0493520481
 21
107.4525726193
  0
LINE
  5
2BC
100
AcDbEntity
  8
0
100
AcDbLine
 62
7
  6
BYLAYER
 10
122.0493520481
 20
50.7056546288
 11
122.0493520481
 21
49.4809010031
  0
LINE
  5
2BD
100
AcDbEntity
  8
0
100
AcDbLine
 62
7
  6
BYLAYER
 10
133.3065748446
 20
123.9377787239
 11
22.2903479965
 21
188.0315771836
  0
LINE
  5
2BE
100
AcDbEntity
  8
0
100
AcDbLine
 62
7
  6
BYLAYER
 10
128.7103999027
 20
28.2029161709
 11
128.7103999027
 21
45.3494669307
  0
LINE
  5
2BF
100
AcDbEntity
  8
0
100
AcDbLine
 62
7
  6
BYLAYER
 10
128.7103999027
 20
46.1659693478
 11
128.7103999027
 21
103.3211385469
  0
LINE
  5
2C0
100
AcDbEntity
  8
0
100
AcDbLine
 62
7
  6
BYLAYER
 10
128.7103999027
 20
104.137640964
 11
128.7103999027
 21
121.2841917237
  0
LINE
  5
2C1
100
AcDbEntity
  8
0
100
AcDbLine
 62
7
  6
BYLAYER
 10
129.0639518213
 20
45.5535890076
 11
129.0639518213
 21
46.3700914247
  0
LINE
  5
2C2
100
AcDbEntity
  8
0
100
AcDbLine
 62
7
  6
BYLAYER
 10
129.0639518213
 20
103.5252606238
 11
129.0639518213
 21
104.3417630409
  0
LINE
  5
2C3
100
AcDbEntity
  8
0
100
AcDbLine
 62
7
  6
BYLAYER
 10
133.3065748446
 20
30.8565031711
 11
133.3065748446
 21
123.9377787239
  0
LINE
  5
2C4
100
AcDbEntity
  8
0
100
AcDbLine
 62
7
  6
BYLAYER
 10
135.7814382749
 20
46.982590198
 11
135.7814382749
 21
52.6981071179
  0
LINE
  5
2C5
100
AcDbEntity
  8
0
100
AcDbLine
 62
7
  6
BYLAYER
 10
135.7814382749
 20
104.9538838542
 11
135.7814382749
 21
110.6694007741
  0
LINE
  5
2C6
100
AcDbEntity
  8
0
100
AcDbLine
 62
7
  6
BYLAYER
 10
137.1956459493
 20
111.4858890819
 11
137.1956459493
 21
105.770372162
  0
LINE
  5
2C7
100
AcDbEntity
  8
0
100
AcDbLine
 62
7
  6
BYLAYER
 10
137.1956459493
 20
53.5145954256
 11
137.1956459493
 21
47.7990785057
  0
LINE
  5
2C8
100
AcDbEntity
  8
0
100
AcDbLine
 62
7
  6
BYLAYER
 10
109.6184373237
 20
56.3719673027
 11
109.9719892424
 21
56.5760893796
  0
LINE
  5
2C9
100
AcDbEntity
  8
0
100
AcDbLine
 62
7
  6
BYLAYER
 10
116.8871788729
 20
53.4001955222
 11
116.5336269543
 21
53.1960734452
  0
LINE
  5
2CA
100
AcDbEntity
  8
0
100
AcDbLine
 62
7
  6
BYLAYER
 10
116.5336269543
 20
52.3795710281
 11
116.8871788729
 21
52.583693105
  0
LINE
  5
2CB
100
AcDbEntity
  8
0
100
AcDbLine
 62
7
  6
BYLAYER
 10
117.8351195082
 20
51.9139342519
 11
118.8250648803
 21
52.4854760673
  0
LINE
  5
2CC
100
AcDbEntity
  8
0
100
AcDbLine
 62
7
  6
BYLAYER
 10
119.4221565753
 20
52.2224323281
 11
120.4121019474
 21
52.7939741435
  0
LINE
  5
2CD
100
AcDbEntity
  8
0
100
AcDbLine
 62
7
  6
BYLAYER
 10
119.4221565753
 20
50.9976787024
 11
120.4121019474
 21
51.5692205178
  0
LINE
  5
2CE
100
AcDbEntity
  8
0
100
AcDbLine
 62
7
  6
BYLAYER
 10
120.462314981
 20
50.3971565525
 11
121.4522603531
 21
50.9686983679
  0
LINE
  5
2CF
100
AcDbEntity
  8
0
100
AcDbLine
 62
7
  6
BYLAYER
 10
119.4221565753
 20
49.6031742242
 11
120.4121019474
 21
50.1747160396
  0
LINE
  5
2D0
100
AcDbEntity
  8
0
100
AcDbLine
 62
7
  6
BYLAYER
 10
122.8558719159
 20
49.1377445277
 11
122.5023199973
 21
48.9336224508
  0
LINE
  5
2D1
100
AcDbEntity
  8
0
100
AcDbLine
 62
7
  6
BYLAYER
 10
135.7814382749
 20
52.6981071179
 11
137.1956459493
 21
53.5145954256
  0
LINE
  5
2D2
100
AcDbEntity
  8
0
100
AcDbLine
 62
7
  6
BYLAYER
 10
128.7103999027
 20
46.1659693478
 11
129.0639518213
 21
46.3700914247
  0
LINE
  5
2D3
100
AcDbEntity
  8
0
100
AcDbLine
 62
7
  6
BYLAYER
 10
128.7103999027
 20
45.3494669307
 11
129.0639518213
 21
45.5535890076
  0
LINE
  5
2D4
100
AcDbEntity
  8
0
100
AcDbLine
 62
7
  6
BYLAYER
 10
135.7814382749
 20
46.982590198
 11
137.1956459493
 21
47.7990785057
  0
LINE
  5
2D5
100
AcDbEntity
  8
0
100
AcDbLine
 62
7
  6
BYLAYER
 10
133.3065748446
 20
30.8565031711
 11
128.7103999027
 21
28.2029161709
  0
ARC
  5
2D6
100
AcDbEntity
  8
0
100
AcDbCircle
 62
7
  6
BYLAYER
 10
23.1752363178
 20
102.4948202492
 40
6.6871426415
100
AcDbArc
 50
39.9757641786
 51
41.1188841902
  0
ARC
  5
2D7
100
AcDbEntity
  8
0
100
AcDbCircle
 62
7
  6
BYLAYER
 10
115.806610312
 20
106.9869530232
 40
6.6871426415
100
AcDbArc
 50
39.9757641786
 51
41.1188841902
  0
ARC
  5
2D8
100
AcDbEntity
  8
0
100
AcDbCircle
 62
7
  6
BYLAYER
 10
23.175236318
 20
160.4664918655
 40
6.6871426412
100
AcDbArc
 50
39.9757641786
 51
41.1188841903
  0
ARC
  5
2D9
100
AcDbEntity
  8
0
100
AcDbCircle
 62
7
  6
BYLAYER
 10
115.806610312
 20
49.015281407
 40
6.6871426414
100
AcDbArc
 50
39.9757641786
 51
41.1188841903
  0
ARC
  5
2DA
100
AcDbEntity
  8
0
100
AcDbCircle
 62
7
  6
BYLAYER
 10
116.2926915141
 20
49.0069056809
 40
6.2609767724
100
AcDbArc
 50
16.1932752928
 51
16.7621426492
  0
ARC
  5
2DB
100
AcDbEntity
  8
0
100
AcDbCircle
 62
7
  6
BYLAYER
 10
116.3840482266
 20
49.0333537288
 40
6.1658687187
100
AcDbArc
 50
15.209231581
 51
16.1940061802
  0
SPLINE
  5
2DC
100
AcDbEntity
  8
0
100
AcDbSpline
 62
7
  6
BYLAYER
 70
0
 71
3
 72
9
 73
5
 74
0
 42
0.0000001
 43
0.0000001
 44
0.0000000001
 40
0.0
 40
0.0
 40
0.0
 40
0.0
 40
0.2402656452
 40
1.0
 40
1.0
 40
1.0
 40
1.0
 10
29.8709460031
 20
103.2296637101
 30
0.0
 10
29.8625692057
 20
103.3161471117
 30
0.0
 10
29.8176611903
 20
103.6750940068
 30
0.0
 10
29.7355004031
 20
104.0290326547
 30
0.0
 10
29.6562670301
 20
104.2921052092
 30
0.0
  0
SPLINE
  5
2DD
100
AcDbEntity
  8
0
100
AcDbSpline
 62
7
  6
BYLAYER
 70
0
 71
3
 72
9
 73
5
 74
0
 42
0.0000001
 43
0.0000001
 44
0.0000000001
 40
0.0
 40
0.0
 40
0.0
 40
0.0
 40
0.4973983083
 40
1.0
 40
1.0
 40
1.0
 40
1.0
 10
29.6562670301
 20
104.2921052092
 30
0.0
 10
29.5196367435
 20
104.7457483798
 30
0.0
 10
29.1438451555
 20
105.6289330625
 30
0.0
 10
28.6072812364
 20
106.4242192859
 30
0.0
 10
28.2997025267
 20
106.7910654448
 30
0.0
  0
SPLINE
  5
2DE
100
AcDbEntity
  8
0
100
AcDbSpline
 62
7
  6
BYLAYER
 70
0
 71
3
 72
9
 73
5
 74
0
 42
0.0000001
 43
0.0000001
 44
0.0000000001
 40
0.0
 40
0.0
 40
0.0
 40
0.0
 40
0.2560611363
 40
1.0
 40
1.0
 40
1.0
 40
1.0
 10
28.212973067
 20
106.8924429198
 30
0.0
 10
28.1625723485
 20
106.9501756543
 30
0.0
 10
27.9618458852
 20
107.1721888894
 30
0.0
 10
27.7453164912
 20
107.3800765533
 30
0.0
 10
27.5756193525
 20
107.5242245524
 30
0.0
  0
SPLINE
  5
2DF
100
AcDbEntity
  8
0
100
AcDbSpline
 62
7
  6
BYLAYER
 70
0
 71
3
 72
11
 73
7
 74
0
 42
0.0000001
 43
0.0000001
 44
0.0000000001
 40
0.0
 40
0.0
 40
0.0
 40
0.0
 40
0.2926382498
 40
0.5565872711
 40
0.7907778387
 40
1.0
 40
1.0
 40
1.0
 40
1.0
 10
27.5756193525
 20
107.5242245524
 30
0.0
 10
27.3783665883
 20
107.691779477
 30
0.0
 10
26.979686598
 20
107.9846439463
 30
0.0
 10
26.3481201533
 20
108.2952228743
 30
0.0
 10
25.7340326486
 20
108.4433311625
 30
0.0
 10
25.3344293501
 20
108.4227662305
 30
0.0
 10
25.1543771223
 20
108.3801036928
 30
0.0
  0
SPLINE
  5
2E0
100
AcDbEntity
  8
0
100
AcDbSpline
 62
7
  6
BYLAYER
 70
0
 71
3
 72
9
 73
5
 74
0
 42
0.0000001
 43
0.0000001
 44
0.0000000001
 40
0.0
 40
0.0
 40
0.0
 40
0.0
 40
0.2534412254
 40
1.0
 40
1.0
 40
1.0
 40
1.0
 10
25.1543771223
 20
108.3801036928
 30
0.0
 10
25.1195954698
 20
108.371862342
 30
0.0
 10
24.9835278923
 20
108.3346108943
 30
0.0
 10
24.85283775
 20
108.2775728484
 30
0.0
 10
24.7616542373
 20
108.2249218884
 30
0.0
  0
SPLINE
  5
2E1
100
AcDbEntity
  8
0
100
AcDbSpline
 62
7
  6
BYLAYER
 70
0
 71
3
 72
9
 73
5
 74
0
 42
0.0000001
 43
0.0000001
 44
0.0000000001
 40
0.0
 40
0.0
 40
0.0
 40
0.0
 40
0.2441999891
 40
1.0
 40
1.0
 40
1.0
 40
1.0
 10
30.2244979217
 20
102.6172833699
 30
0.0
 10
30.2280002141
 20
102.6493975921
 30
0.0
 10
30.2404253346
 20
102.7811107539
 30
0.0
 10
30.245367732
 20
102.9135026825
 30
0.0
 10
30.245367732
 20
103.0134856604
 30
0.0
  0
SPLINE
  5
2E2
100
AcDbEntity
  8
0
100
AcDbSpline
 62
7
  6
BYLAYER
 70
0
 71
3
 72
9
 73
5
 74
0
 42
0.0000001
 43
0.0000001
 44
0.0000000001
 40
0.0
 40
0.0
 40
0.0
 40
0.0
 40
0.2441999891
 40
1.0
 40
1.0
 40
1.0
 40
1.0
 10
30.2244979217
 20
160.5889549861
 30
0.0
 10
30.2280002141
 20
160.6210692083
 30
0.0
 10
30.2404253346
 20
160.7527823701
 30
0.0
 10
30.245367732
 20
160.8851742987
 30
0.0
 10
30.245367732
 20
160.9851572766
 30
0.0
  0
SPLINE
  5
2E3
100
AcDbEntity
  8
0
100
AcDbSpline
 62
7
  6
BYLAYER
 70
0
 71
3
 72
9
 73
5
 74
0
 42
0.0000001
 43
0.0000001
 44
0.0000000001
 40
0.0
 40
0.0
 40
0.0
 40
0.0
 40
0.2441999891
 40
1.0
 40
1.0
 40
1.0
 40
1.0
 10
122.8558719159
 20
49.1377445277
 30
0.0
 10
122.8593742084
 20
49.16985875
 30
0.0
 10
122.8717993289
 20
49.3015719118
 30
0.0
 10
122.8767417263
 20
49.4339638404
 30
0.0
 10
122.8767417263
 20
49.5339468182
 30
0.0
  0
SPLINE
  5
2E4
100
AcDbEntity
  8
0
100
AcDbSpline
 62
7
  6
BYLAYER
 70
0
 71
3
 72
9
 73
5
 74
0
 42
0.0000001
 43
0.0000001
 44
0.0000000001
 40
0.0
 40
0.0
 40
0.0
 40
0.0
 40
0.2402656452
 40
1.0
 40
1.0
 40
1.0
 40
1.0
 10
29.8709460031
 20
161.2013353263
 30
0.0
 10
29.8625692057
 20
161.2878187279
 30
0.0
 10
29.8176611903
 20
161.646765623
 30
0.0
 10
29.7355004031
 20
162.0007042709
 30
0.0
 10
29.6562670301
 20
162.2637768254
 30
0.0
  0
SPLINE
  5
2E5
100
AcDbEntity
  8
0
100
AcDbSpline
 62
7
  6
BYLAYER
 70
0
 71
3
 72
9
 73
5
 74
0
 42
0.0000001
 43
0.0000001
 44
0.0000000001
 40
0.0
 40
0.0
 40
0.0
 40
0.0
 40
0.4973983083
 40
1.0
 40
1.0
 40
1.0
 40
1.0
 10
29.6562670301
 20
162.2637768254
 30
0.0
 10
29.5196367435
 20
162.717419996
 30
0.0
 10
29.1438451555
 20
163.6006046787
 30
0.0
 10
28.6072812364
 20
164.3958909021
 30
0.0
 10
28.2997025267
 20
164.762737061
 30
0.0
  0
SPLINE
  5
2E6
100
AcDbEntity
  8
0
100
AcDbSpline
 62
7
  6
BYLAYER
 70
0
 71
3
 72
9
 73
5
 74
0
 42
0.0000001
 43
0.0000001
 44
0.0000000001
 40
0.0
 40
0.0
 40
0.0
 40
0.0
 40
0.2560611363
 40
1.0
 40
1.0
 40
1.0
 40
1.0
 10
28.212973067
 20
164.864114536
 30
0.0
 10
28.1625723485
 20
164.9218472705
 30
0.0
 10
27.9618458852
 20
165.1438605056
 30
0.0
 10
27.7453164912
 20
165.3517481695
 30
0.0
 10
27.5756193525
 20
165.4958961686
 30
0.0
  0
SPLINE
  5
2E7
100
AcDbEntity
  8
0
100
AcDbSpline
 62
7
  6
BYLAYER
 70
0
 71
3
 72
11
 73
7
 74
0
 42
0.0000001
 43
0.0000001
 44
0.0000000001
 40
0.0
 40
0.0
 40
0.0
 40
0.0
 40
0.2926382498
 40
0.5565872711
 40
0.7907778387
 40
1.0
 40
1.0
 40
1.0
 40
1.0
 10
27.5756193525
 20
165.4958961686
 30
0.0
 10
27.3783665883
 20
165.6634510932
 30
0.0
 10
26.979686598
 20
165.9563155625
 30
0.0
 10
26.3481201533
 20
166.2668944905
 30
0.0
 10
25.7340326486
 20
166.4150027787
 30
0.0
 10
25.3344293501
 20
166.3944378467
 30
0.0
 10
25.1543771223
 20
166.351775309
 30
0.0
  0
SPLINE
  5
2E8
100
AcDbEntity
  8
0
100
AcDbSpline
 62
7
  6
BYLAYER
 70
0
 71
3
 72
9
 73
5
 74
0
 42
0.0000001
 43
0.0000001
 44
0.0000000001
 40
0.0
 40
0.0
 40
0.0
 40
0.0
 40
0.2534412254
 40
1.0
 40
1.0
 40
1.0
 40
1.0
 10
25.1543771223
 20
166.351775309
 30
0.0
 10
25.1195954698
 20
166.3435339582
 30
0.0
 10
24.9835278923
 20
166.3062825105
 30
0.0
 10
24.85283775
 20
166.2492444646
 30
0.0
 10
24.7616542373
 20
166.1965935046
 30
0.0
  0
SPLINE
  5
2E9
100
AcDbEntity
  8
0
100
AcDbSpline
 62
7
  6
BYLAYER
 70
0
 71
3
 72
9
 73
5
 74
0
 42
0.0000001
 43
0.0000001
 44
0.0000000001
 40
0.0
 40
0.0
 40
0.0
 40
0.0
 40
0.2402656452
 40
1.0
 40
1.0
 40
1.0
 40
1.0
 10
122.5023199973
 20
107.7217964841
 30
0.0
 10
122.4939432
 20
107.8082798857
 30
0.0
 10
122.4490351845
 20
108.1672267808
 30
0.0
 10
122.3668743974
 20
108.5211654287
 30
0.0
 10
122.2876410244
 20
108.7842379832
 30
0.0
  0
SPLINE
  5
2EA
100
AcDbEntity
  8
0
100
AcDbSpline
 62
7
  6
BYLAYER
 70
0
 71
3
 72
9
 73
5
 74
0
 42
0.0000001
 43
0.0000001
 44
0.0000000001
 40
0.0
 40
0.0
 40
0.0
 40
0.0
 40
0.4973983083
 40
1.0
 40
1.0
 40
1.0
 40
1.0
 10
122.2876410244
 20
108.7842379832
 30
0.0
 10
122.1510107378
 20
109.2378811538
 30
0.0
 10
121.7752191497
 20
110.1210658365
 30
0.0
 10
121.2386552307
 20
110.9163520599
 30
0.0
 10
120.931076521
 20
111.2831982188
 30
0.0
  0
SPLINE
  5
2EB
100
AcDbEntity
  8
0
100
AcDbSpline
 62
7
  6
BYLAYER
 70
0
 71
3
 72
9
 73
5
 74
0
 42
0.0000001
 43
0.0000001
 44
0.0000000001
 40
0.0
 40
0.0
 40
0.0
 40
0.0
 40
0.2560611363
 40
1.0
 40
1.0
 40
1.0
 40
1.0
 10
120.8443470612
 20
111.3845756938
 30
0.0
 10
120.7939463427
 20
111.4423084284
 30
0.0
 10
120.5932198795
 20
111.6643216635
 30
0.0
 10
120.3766904855
 20
111.8722093273
 30
0.0
 10
120.2069933468
 20
112.0163573264
 30
0.0
  0
SPLINE
  5
2EC
100
AcDbEntity
  8
0
100
AcDbSpline
 62
7
  6
BYLAYER
 70
0
 71
3
 72
11
 73
7
 74
0
 42
0.0000001
 43
0.0000001
 44
0.0000000001
 40
0.0
 40
0.0
 40
0.0
 40
0.0
 40
0.2926382498
 40
0.5565872711
 40
0.7907778387
 40
1.0
 40
1.0
 40
1.0
 40
1.0
 10
120.2069933468
 20
112.0163573264
 30
0.0
 10
120.0097405826
 20
112.183912251
 30
0.0
 10
119.6110605922
 20
112.4767767203
 30
0.0
 10
118.9794941475
 20
112.7873556483
 30
0.0
 10
118.3654066428
 20
112.9354639365
 30
0.0
 10
117.9658033444
 20
112.9148990045
 30
0.0
 10
117.7857511165
 20
112.8722364668
 30
0.0
  0
SPLINE
  5
2ED
100
AcDbEntity
  8
0
100
AcDbSpline
 62
7
  6
BYLAYER
 70
0
 71
3
 72
9
 73
5
 74
0
 42
0.0000001
 43
0.0000001
 44
0.0000000001
 40
0.0
 40
0.0
 40
0.0
 40
0.0
 40
0.2534412254
 40
1.0
 40
1.0
 40
1.0
 40
1.0
 10
117.7857511165
 20
112.8722364668
 30
0.0
 10
117.750969464
 20
112.8639951161
 30
0.0
 10
117.6149018866
 20
112.8267436683
 30
0.0
 10
117.4842117442
 20
112.7697056224
 30
0.0
 10
117.3930282315
 20
112.7170546624
 30
0.0
  0
SPLINE
  5
2EE
100
AcDbEntity
  8
0
100
AcDbSpline
 62
7
  6
BYLAYER
 70
0
 71
3
 72
9
 73
5
 74
0
 42
0.0000001
 43
0.0000001
 44
0.0000000001
 40
0.0
 40
0.0
 40
0.0
 40
0.0
 40
0.2441999891
 40
1.0
 40
1.0
 40
1.0
 40
1.0
 10
122.8558719159
 20
107.1094161439
 30
0.0
 10
122.8593742084
 20
107.1415303662
 30
0.0
 10
122.8717993289
 20
107.273243528
 30
0.0
 10
122.8767417263
 20
107.4056354566
 30
0.0
 10
122.8767417263
 20
107.5056184344
 30
0.0
  0
SPLINE
  5
2EF
100
AcDbEntity
  8
0
100
AcDbSpline
 62
7
  6
BYLAYER
 70
0
 71
3
 72
9
 73
5
 74
0
 42
0.0000001
 43
0.0000001
 44
0.0000000001
 40
0.0
 40
0.0
 40
0.0
 40
0.0
 40
0.2413724791
 40
1.0
 40
1.0
 40
1.0
 40
1.0
 10
122.5023199973
 20
49.7501248679
 30
0.0
 10
122.4952067451
 20
49.823563227
 30
0.0
 10
122.4585276714
 20
50.1270993623
 30
0.0
 10
122.3947836308
 20
50.4271621742
 30
0.0
 10
122.3339526928
 20
50.6509364622
 30
0.0
  0
SPLINE
  5
2F0
100
AcDbEntity
  8
0
100
AcDbSpline
 62
7
  6
BYLAYER
 70
0
 71
3
 72
9
 73
5
 74
0
 42
0.0000001
 43
0.0000001
 44
0.0000000001
 40
0.0
 40
0.0
 40
0.0
 40
0.0
 40
0.4973983083
 40
1.0
 40
1.0
 40
1.0
 40
1.0
 10
122.2876410244
 20
50.812566367
 30
0.0
 10
122.1510107378
 20
51.2662095376
 30
0.0
 10
121.7752191497
 20
52.1493942203
 30
0.0
 10
121.2386552307
 20
52.9446804437
 30
0.0
 10
120.931076521
 20
53.3115266026
 30
0.0
  0
SPLINE
  5
2F1
100
AcDbEntity
  8
0
100
AcDbSpline
 62
7
  6
BYLAYER
 70
0
 71
3
 72
9
 73
5
 74
0
 42
0.0000001
 43
0.0000001
 44
0.0000000001
 40
0.0
 40
0.0
 40
0.0
 40
0.0
 40
0.2560611363
 40
1.0
 40
1.0
 40
1.0
 40
1.0
 10
120.8443470612
 20
53.4129040776
 30
0.0
 10
120.7939463427
 20
53.4706368122
 30
0.0
 10
120.5932198795
 20
53.6926500473
 30
0.0
 10
120.3766904855
 20
53.9005377111
 30
0.0
 10
120.2069933468
 20
54.0446857102
 30
0.0
  0
SPLINE
  5
2F2
100
AcDbEntity
  8
0
100
AcDbSpline
 62
7
  6
BYLAYER
 70
0
 71
3
 72
11
 73
7
 74
0
 42
0.0000001
 43
0.0000001
 44
0.0000000001
 40
0.0
 40
0.0
 40
0.0
 40
0.0
 40
0.2926382498
 40
0.5565872711
 40
0.7907778387
 40
1.0
 40
1.0
 40
1.0
 40
1.0
 10
120.2069933468
 20
54.0446857102
 30
0.0
 10
120.0097405826
 20
54.2122406348
 30
0.0
 10
119.6110605922
 20
54.5051051041
 30
0.0
 10
118.9794941475
 20
54.8156840321
 30
0.0
 10
118.3654066428
 20
54.9637923203
 30
0.0
 10
117.9658033444
 20
54.9432273883
 30
0.0
 10
117.7857511165
 20
54.9005648506
 30
0.0
  0
SPLINE
  5
2F3
100
AcDbEntity
  8
0
100
AcDbSpline
 62
7
  6
BYLAYER
 70
0
 71
3
 72
9
 73
5
 74
0
 42
0.0000001
 43
0.0000001
 44
0.0000000001
 40
0.0
 40
0.0
 40
0.0
 40
0.0
 40
0.2534412254
 40
1.0
 40
1.0
 40
1.0
 40
1.0
 10
117.7857511165
 20
54.9005648506
 30
0.0
 10
117.750969464
 20
54.8923234999
 30
0.0
 10
117.6149018866
 20
54.8550720521
 30
0.0
 10
117.4842117442
 20
54.7980340062
 30
0.0
 10
117.3930282315
 20
54.7453830462
 30
0.0
  0
SPLINE
  5
2F4
100
AcDbEntity
  8
0
100
AcDbSpline
 62
7
  6
BYLAYER
 70
0
 71
3
 72
9
 73
5
 74
0
 42
0.0000001
 43
0.0000001
 44
0.0000000001
 40
0.0
 40
0.0
 40
0.0
 40
0.0
 40
0.2478806552
 40
1.0
 40
1.0
 40
1.0
 40
1.0
 10
121.6429187201
 20
105.355984466
 30
0.0
 10
121.6751906603
 20
105.3746188505
 30
0.0
 10
121.8024148267
 20
105.4548595781
 30
0.0
 10
121.9166313269
 20
105.5554089313
 30
0.0
 10
121.9927366311
 20
105.6390332877
 30
0.0
  0
SPLINE
  5
2F5
100
AcDbEntity
  8
0
100
AcDbSpline
 62
7
  6
BYLAYER
 70
0
 71
3
 72
9
 73
5
 74
0
 42
0.0000001
 43
0.0000001
 44
0.0000000001
 40
0.0
 40
0.0
 40
0.0
 40
0.0
 40
0.4667086664
 40
1.0
 40
1.0
 40
1.0
 40
1.0
 10
121.9927366311
 20
105.6390332877
 30
0.0
 10
122.137432917
 20
105.798025278
 30
0.0
 10
122.3761203157
 20
106.2053977019
 30
0.0
 10
122.4756882335
 20
106.661094475
 30
0.0
 10
122.5023199973
 20
106.905294067
 30
0.0
  0
SPLINE
  5
2F6
100
AcDbEntity
  8
0
100
AcDbSpline
 62
7
  6
BYLAYER
 70
0
 71
3
 72
9
 73
5
 74
0
 42
0.0000001
 43
0.0000001
 44
0.0000000001
 40
0.0
 40
0.0
 40
0.0
 40
0.0
 40
0.2478806552
 40
1.0
 40
1.0
 40
1.0
 40
1.0
 10
121.6429187201
 20
47.3843128498
 30
0.0
 10
121.6751906603
 20
47.4029472343
 30
0.0
 10
121.8024148267
 20
47.4831879619
 30
0.0
 10
121.9166313269
 20
47.5837373151
 30
0.0
 10
121.9927366311
 20
47.6673616715
 30
0.0
  0
SPLINE
  5
2F7
100
AcDbEntity
  8
0
100
AcDbSpline
 62
7
  6
BYLAYER
 70
0
 71
3
 72
9
 73
5
 74
0
 42
0.0000001
 43
0.0000001
 44
0.0000000001
 40
0.0
 40
0.0
 40
0.0
 40
0.0
 40
0.4667086664
 40
1.0
 40
1.0
 40
1.0
 40
1.0
 10
121.9927366311
 20
47.6673616715
 30
0.0
 10
122.137432917
 20
47.8263536618
 30
0.0
 10
122.3761203157
 20
48.2337260857
 30
0.0
 10
122.4756882335
 20
48.6894228588
 30
0.0
 10
122.5023199973
 20
48.9336224508
 30
0.0
  0
SPLINE
  5
2F8
100
AcDbEntity
  8
0
100
AcDbSpline
 62
7
  6
BYLAYER
 70
0
 71
3
 72
9
 73
5
 74
0
 42
0.0000001
 43
0.0000001
 44
0.0000000001
 40
0.0
 40
0.0
 40
0.0
 40
0.0
 40
0.2478806552
 40
1.0
 40
1.0
 40
1.0
 40
1.0
 10
29.0115447258
 20
158.8355233081
 30
0.0
 10
29.0438166661
 20
158.8541576926
 30
0.0
 10
29.1710408324
 20
158.9343984202
 30
0.0
 10
29.2852573327
 20
159.0349477734
 30
0.0
 10
29.3613626369
 20
159.1185721299
 30
0.0
  0
SPLINE
  5
2F9
100
AcDbEntity
  8
0
100
AcDbSpline
 62
7
  6
BYLAYER
 70
0
 71
3
 72
9
 73
5
 74
0
 42
0.0000001
 43
0.0000001
 44
0.0000000001
 40
0.0
 40
0.0
 40
0.0
 40
0.0
 40
0.4667086664
 40
1.0
 40
1.0
 40
1.0
 40
1.0
 10
29.3613626369
 20
159.1185721299
 30
0.0
 10
29.5060589228
 20
159.2775641202
 30
0.0
 10
29.7447463214
 20
159.6849365441
 30
0.0
 10
29.8443142392
 20
160.1406333171
 30
0.0
 10
29.8709460031
 20
160.3848329091
 30
0.0
  0
SPLINE
  5
2FA
100
AcDbEntity
  8
0
100
AcDbSpline
 62
7
  6
BYLAYER
 70
0
 71
3
 72
9
 73
5
 74
0
 42
0.0000001
 43
0.0000001
 44
0.0000000001
 40
0.0
 40
0.0
 40
0.0
 40
0.0
 40
0.2478806552
 40
1.0
 40
1.0
 40
1.0
 40
1.0
 10
29.0115447258
 20
100.8638516919
 30
0.0
 10
29.0438166661
 20
100.8824860764
 30
0.0
 10
29.1710408324
 20
100.962726804
 30
0.0
 10
29.2852573327
 20
101.0632761572
 30
0.0
 10
29.3613626369
 20
101.1469005137
 30
0.0
  0
SPLINE
  5
2FB
100
AcDbEntity
  8
0
100
AcDbSpline
 62
7
  6
BYLAYER
 70
0
 71
3
 72
9
 73
5
 74
0
 42
0.0000001
 43
0.0000001
 44
0.0000000001
 40
0.0
 40
0.0
 40
0.0
 40
0.0
 40
0.4667086664
 40
1.0
 40
1.0
 40
1.0
 40
1.0
 10
29.3613626369
 20
101.1469005137
 30
0.0
 10
29.5060589228
 20
101.305892504
 30
0.0
 10
29.7447463214
 20
101.7132649279
 30
0.0
 10
29.8443142392
 20
102.1689617009
 30
0.0
 10
29.8709460031
 20
102.4131612929
 30
0.0
  0
SPLINE
  5
2FC
100
AcDbEntity
  8
0
100
AcDbSpline
 62
7
  6
BYLAYER
 70
0
 71
3
 72
17
 73
13
 74
0
 42
0.0000001
 43
0.0000001
 44
0.0000000001
 40
0.0
 40
0.0
 40
0.0
 40
0.0
 40
0.1342294496
 40
0.2784771965
 40
0.4256644483
 40
0.5682037321
 40
0.6992886278
 40
0.8142480363
 40
0.8654205083
 40
0.9127642101
 40
0.9571836972
 40
1.0
 40
1.0
 40
1.0
 40
1.0
 10
116.5336269543
 20
52.3795710281
 30
0.0
 10
116.5683503989
 20
52.0210806082
 30
0.0
 10
116.7240283686
 20
51.2844919223
 30
0.0
 10
117.1520669952
 20
50.2205421767
 30
0.0
 10
117.7548171949
 20
49.2184272635
 30
0.0
 10
118.4882211686
 20
48.3526607367
 30
0.0
 10
119.2981521024
 20
47.6865280974
 30
0.0
 10
120.0203435811
 20
47.3238607913
 30
0.0
 10
120.5806836831
 20
47.1931835279
 30
0.0
 10
120.9662981477
 20
47.1751393853
 30
0.0
 10
121.3254407209
 20
47.2344174785
 30
0.0
 10
121.5434275261
 20
47.3268648889
 30
0.0
 10
121.6429187201
 20
47.3843128498
 30
0.0
  0
SPLINE
  5
2FD
100
AcDbEntity
  8
0
100
AcDbSpline
 62
7
  6
BYLAYER
 70
0
 71
3
 72
17
 73
13
 74
0
 42
0.0000001
 43
0.0000001
 44
0.0000000001
 40
0.0
 40
0.0
 40
0.0
 40
0.0
 40
0.1342294496
 40
0.2784771965
 40
0.4256644483
 40
0.5682037321
 40
0.6992886278
 40
0.8142480363
 40
0.8654205083
 40
0.9127642101
 40
0.9571836972
 40
1.0
 40
1.0
 40
1.0
 40
1.0
 10
116.5336269543
 20
110.3512426443
 30
0.0
 10
116.5683503989
 20
109.9927522244
 30
0.0
 10
116.7240283686
 20
109.2561635385
 30
0.0
 10
117.1520669952
 20
108.1922137929
 30
0.0
 10
117.7548171949
 20
107.1900988797
 30
0.0
 10
118.4882211686
 20
106.3243323529
 30
0.0
 10
119.2981521024
 20
105.6581997136
 30
0.0
 10
120.0203435811
 20
105.2955324075
 30
0.0
 10
120.5806836831
 20
105.1648551441
 30
0.0
 10
120.9662981477
 20
105.1468110015
 30
0.0
 10
121.3254407209
 20
105.2060890947
 30
0.0
 10
121.5434275261
 20
105.2985365051
 30
0.0
 10
121.6429187201
 20
105.355984466
 30
0.0
  0
SPLINE
  5
2FE
100
AcDbEntity
  8
0
100
AcDbSpline
 62
7
  6
BYLAYER
 70
0
 71
3
 72
9
 73
5
 74
0
 42
0.0000001
 43
0.0000001
 44
0.0000000001
 40
0.0
 40
0.0
 40
0.0
 40
0.0
 40
0.2550920141
 40
1.0
 40
1.0
 40
1.0
 40
1.0
 10
24.305645452
 20
106.5243564892
 30
0.0
 10
24.305645452
 20
106.5555812219
 30
0.0
 10
24.3070930216
 20
106.6779804124
 30
0.0
 10
24.3144130605
 20
106.8003281174
 30
0.0
 10
24.3235121426
 20
106.8910540071
 30
0.0
  0
SPLINE
  5
2FF
100
AcDbEntity
  8
0
100
AcDbSpline
 62
7
  6
BYLAYER
 70
0
 71
3
 72
9
 73
5
 74
0
 42
0.0000001
 43
0.0000001
 44
0.0000000001
 40
0.0
 40
0.0
 40
0.0
 40
0.0
 40
0.5296086231
 40
1.0
 40
1.0
 40
1.0
 40
1.0
 10
24.3235121426
 20
106.8910540071
 30
0.0
 10
24.3448659704
 20
107.1039705429
 30
0.0
 10
24.4226062444
 20
107.5040527377
 30
0.0
 10
24.600422097
 20
107.8741679428
 30
0.0
 10
24.7100173058
 20
108.02944533
 30
0.0
  0
SPLINE
  5
300
100
AcDbEntity
  8
0
100
AcDbSpline
 62
7
  6
BYLAYER
 70
0
 71
3
 72
9
 73
5
 74
0
 42
0.0000001
 43
0.0000001
 44
0.0000000001
 40
0.0
 40
0.0
 40
0.0
 40
0.0
 40
0.2562618411
 40
1.0
 40
1.0
 40
1.0
 40
1.0
 10
24.7100173058
 20
108.02944533
 30
0.0
 10
24.7335655649
 20
108.0628091257
 30
0.0
 10
24.8300677875
 20
108.1896570456
 30
0.0
 10
24.9458048003
 20
108.3021075673
 30
0.0
 10
25.0404030741
 20
108.3735083464
 30
0.0
  0
SPLINE
  5
301
100
AcDbEntity
  8
0
100
AcDbSpline
 62
7
  6
BYLAYER
 70
0
 71
3
 72
9
 73
5
 74
0
 42
0.0000001
 43
0.0000001
 44
0.0000000001
 40
0.0
 40
0.0
 40
0.0
 40
0.0
 40
0.2550920141
 40
1.0
 40
1.0
 40
1.0
 40
1.0
 10
116.9370194463
 20
111.0164892632
 30
0.0
 10
116.9370194463
 20
111.047713996
 30
0.0
 10
116.9384670158
 20
111.1701131864
 30
0.0
 10
116.9457870548
 20
111.2924608914
 30
0.0
 10
116.9548861368
 20
111.3831867811
 30
0.0
  0
SPLINE
  5
302
100
AcDbEntity
  8
0
100
AcDbSpline
 62
7
  6
BYLAYER
 70
0
 71
3
 72
9
 73
5
 74
0
 42
0.0000001
 43
0.0000001
 44
0.0000000001
 40
0.0
 40
0.0
 40
0.0
 40
0.0
 40
0.5296086231
 40
1.0
 40
1.0
 40
1.0
 40
1.0
 10
116.9548861368
 20
111.3831867811
 30
0.0
 10
116.9762399646
 20
111.5961033169
 30
0.0
 10
117.0539802386
 20
111.9961855117
 30
0.0
 10
117.2317960913
 20
112.3663007168
 30
0.0
 10
117.3413913
 20
112.521578104
 30
0.0
  0
SPLINE
  5
303
100
AcDbEntity
  8
0
100
AcDbSpline
 62
7
  6
BYLAYER
 70
0
 71
3
 72
9
 73
5
 74
0
 42
0.0000001
 43
0.0000001
 44
0.0000000001
 40
0.0
 40
0.0
 40
0.0
 40
0.0
 40
0.2562618411
 40
1.0
 40
1.0
 40
1.0
 40
1.0
 10
117.3413913
 20
112.521578104
 30
0.0
 10
117.3649395592
 20
112.5549418997
 30
0.0
 10
117.4614417817
 20
112.6817898197
 30
0.0
 10
117.5771787946
 20
112.7942403413
 30
0.0
 10
117.6717770684
 20
112.8656411204
 30
0.0
  0
SPLINE
  5
304
100
AcDbEntity
  8
0
100
AcDbSpline
 62
7
  6
BYLAYER
 70
0
 71
3
 72
9
 73
5
 74
0
 42
0.0000001
 43
0.0000001
 44
0.0000000001
 40
0.0
 40
0.0
 40
0.0
 40
0.0
 40
0.2441999891
 40
1.0
 40
1.0
 40
1.0
 40
1.0
 10
116.8871788729
 20
53.4001955222
 30
0.0
 10
116.8836765805
 20
53.3680812999
 30
0.0
 10
116.8712514599
 20
53.2363681381
 30
0.0
 10
116.8663090625
 20
53.1039762095
 30
0.0
 10
116.8663090625
 20
53.0039932316
 30
0.0
  0
SPLINE
  5
305
100
AcDbEntity
  8
0
100
AcDbSpline
 62
7
  6
BYLAYER
 70
0
 71
3
 72
9
 73
5
 74
0
 42
0.0000001
 43
0.0000001
 44
0.0000000001
 40
0.0
 40
0.0
 40
0.0
 40
0.0
 40
0.2448175435
 40
1.0
 40
1.0
 40
1.0
 40
1.0
 10
116.8663090625
 20
53.0039932316
 30
0.0
 10
116.8663090625
 20
52.9696444296
 30
0.0
 10
116.8681134588
 20
52.8293441051
 30
0.0
 10
116.8769638712
 20
52.6891544235
 30
0.0
 10
116.8871788729
 20
52.583693105
 30
0.0
  0
SPLINE
  5
306
100
AcDbEntity
  8
0
100
AcDbSpline
 62
7
  6
BYLAYER
 70
0
 71
3
 72
9
 73
5
 74
0
 42
0.0000001
 43
0.0000001
 44
0.0000000001
 40
0.0
 40
0.0
 40
0.0
 40
0.0
 40
0.2441999891
 40
1.0
 40
1.0
 40
1.0
 40
1.0
 10
24.2558048786
 20
106.8797343643
 30
0.0
 10
24.2523025862
 20
106.8476201421
 30
0.0
 10
24.2398774657
 20
106.7159069803
 30
0.0
 10
24.2349350683
 20
106.5835150516
 30
0.0
 10
24.2349350683
 20
106.4835320738
 30
0.0
  0
SPLINE
  5
307
100
AcDbEntity
  8
0
100
AcDbSpline
 62
7
  6
BYLAYER
 70
0
 71
3
 72
9
 73
5
 74
0
 42
0.0000001
 43
0.0000001
 44
0.0000000001
 40
0.0
 40
0.0
 40
0.0
 40
0.0
 40
0.2441999891
 40
1.0
 40
1.0
 40
1.0
 40
1.0
 10
24.2558048786
 20
164.8514059805
 30
0.0
 10
24.2523025862
 20
164.8192917583
 30
0.0
 10
24.2398774657
 20
164.6875785965
 30
0.0
 10
24.2349350683
 20
164.5551866678
 30
0.0
 10
24.2349350683
 20
164.45520369
 30
0.0
  0
SPLINE
  5
308
100
AcDbEntity
  8
0
100
AcDbSpline
 62
7
  6
BYLAYER
 70
0
 71
3
 72
9
 73
5
 74
0
 42
0.0000001
 43
0.0000001
 44
0.0000000001
 40
0.0
 40
0.0
 40
0.0
 40
0.0
 40
0.2448175435
 40
1.0
 40
1.0
 40
1.0
 40
1.0
 10
24.2349350683
 20
164.45520369
 30
0.0
 10
24.2349350683
 20
164.420854888
 30
0.0
 10
24.2367394645
 20
164.2805545635
 30
0.0
 10
24.2455898769
 20
164.1403648818
 30
0.0
 10
24.2558048786
 20
164.0349035634
 30
0.0
  0
SPLINE
  5
309
100
AcDbEntity
  8
0
100
AcDbSpline
 62
7
  6
BYLAYER
 70
0
 71
3
 72
9
 73
5
 74
0
 42
0.0000001
 43
0.0000001
 44
0.0000000001
 40
0.0
 40
0.0
 40
0.0
 40
0.0
 40
0.2448175435
 40
1.0
 40
1.0
 40
1.0
 40
1.0
 10
24.2349350683
 20
106.4835320738
 30
0.0
 10
24.2349350683
 20
106.4491832718
 30
0.0
 10
24.2367394645
 20
106.3088829473
 30
0.0
 10
24.2455898769
 20
106.1686932656
 30
0.0
 10
24.2558048786
 20
106.0632319472
 30
0.0
  0
SPLINE
  5
30A
100
AcDbEntity
  8
0
100
AcDbSpline
 62
7
  6
BYLAYER
 70
0
 71
3
 72
9
 73
5
 74
0
 42
0.0000001
 43
0.0000001
 44
0.0000000001
 40
0.0
 40
0.0
 40
0.0
 40
0.0
 40
0.2550920141
 40
1.0
 40
1.0
 40
1.0
 40
1.0
 10
24.305645452
 20
164.4960281054
 30
0.0
 10
24.305645452
 20
164.5272528381
 30
0.0
 10
24.3070930216
 20
164.6496520286
 30
0.0
 10
24.3144130605
 20
164.7719997336
 30
0.0
 10
24.3235121426
 20
164.8627256233
 30
0.0
  0
SPLINE
  5
30B
100
AcDbEntity
  8
0
100
AcDbSpline
 62
7
  6
BYLAYER
 70
0
 71
3
 72
9
 73
5
 74
0
 42
0.0000001
 43
0.0000001
 44
0.0000000001
 40
0.0
 40
0.0
 40
0.0
 40
0.0
 40
0.5296086231
 40
1.0
 40
1.0
 40
1.0
 40
1.0
 10
24.3235121426
 20
164.8627256233
 30
0.0
 10
24.3448659704
 20
165.0756421591
 30
0.0
 10
24.4226062444
 20
165.4757243539
 30
0.0
 10
24.600422097
 20
165.845839559
 30
0.0
 10
24.7100173058
 20
166.0011169462
 30
0.0
  0
SPLINE
  5
30C
100
AcDbEntity
  8
0
100
AcDbSpline
 62
7
  6
BYLAYER
 70
0
 71
3
 72
9
 73
5
 74
0
 42
0.0000001
 43
0.0000001
 44
0.0000000001
 40
0.0
 40
0.0
 40
0.0
 40
0.0
 40
0.2562618411
 40
1.0
 40
1.0
 40
1.0
 40
1.0
 10
24.7100173058
 20
166.0011169462
 30
0.0
 10
24.7335655649
 20
166.0344807419
 30
0.0
 10
24.8300677875
 20
166.1613286618
 30
0.0
 10
24.9458048003
 20
166.2737791835
 30
0.0
 10
25.0404030741
 20
166.3451799626
 30
0.0
  0
SPLINE
  5
30D
100
AcDbEntity
  8
0
100
AcDbSpline
 62
7
  6
BYLAYER
 70
0
 71
3
 72
17
 73
13
 74
0
 42
0.0000001
 43
0.0000001
 44
0.0000000001
 40
0.0
 40
0.0
 40
0.0
 40
0.0
 40
0.1342294496
 40
0.2784771965
 40
0.4256644483
 40
0.5682037321
 40
0.6992886278
 40
0.8142480363
 40
0.8654205083
 40
0.9127642101
 40
0.9571836972
 40
1.0
 40
1.0
 40
1.0
 40
1.0
 10
23.90225296
 20
163.8307814865
 30
0.0
 10
23.9369764046
 20
163.4722910665
 30
0.0
 10
24.0926543743
 20
162.7357023806
 30
0.0
 10
24.520693001
 20
161.671752635
 30
0.0
 10
25.1234432007
 20
160.6696377218
 30
0.0
 10
25.8568471744
 20
159.8038711951
 30
0.0
 10
26.6667781081
 20
159.1377385558
 30
0.0
 10
27.3889695869
 20
158.7750712497
 30
0.0
 10
27.9493096889
 20
158.6443939863
 30
0.0
 10
28.3349241534
 20
158.6263498436
 30
0.0
 10
28.6940667266
 20
158.6856279368
 30
0.0
 10
28.9120535319
 20
158.7780753472
 30
0.0
 10
29.0115447258
 20
158.8355233081
 30
0.0
  0
SPLINE
  5
30E
100
AcDbEntity
  8
0
100
AcDbSpline
 62
7
  6
BYLAYER
 70
0
 71
3
 72
9
 73
5
 74
0
 42
0.0000001
 43
0.0000001
 44
0.0000000001
 40
0.0
 40
0.0
 40
0.0
 40
0.0
 40
0.2459663685
 40
1.0
 40
1.0
 40
1.0
 40
1.0
 10
121.7899701284
 20
105.4780378477
 30
0.0
 10
121.7627681592
 20
105.4692556589
 30
0.0
 10
121.6511612513
 20
105.4367402892
 30
0.0
 10
121.5358927224
 20
105.4170777381
 30
0.0
 10
121.4486290391
 20
105.4090893657
 30
0.0
  0
SPLINE
  5
30F
100
AcDbEntity
  8
0
100
AcDbSpline
 62
7
  6
BYLAYER
 70
0
 71
3
 72
15
 73
11
 74
0
 42
0.0000001
 43
0.0000001
 44
0.0000000001
 40
0.0
 40
0.0
 40
0.0
 40
0.0
 40
0.1994164376
 40
0.2594900075
 40
0.3230217468
 40
0.4581981409
 40
0.5997143037
 40
0.7412523568
 40
0.8764822659
 40
1.0
 40
1.0
 40
1.0
 40
1.0
 10
121.4486290391
 20
105.4090893657
 30
0.0
 10
120.9323005652
 20
105.3618231489
 30
0.0
 10
120.2394944514
 20
105.6045012246
 30
0.0
 10
119.5416907977
 20
106.0638639157
 30
0.0
 10
119.0169646802
 20
106.4883645353
 30
0.0
 10
118.4094348641
 20
107.1368547381
 30
0.0
 10
117.7947170782
 20
108.0387204469
 30
0.0
 10
117.3201630587
 20
109.0219984217
 30
0.0
 10
117.0165834989
 20
110.0218268835
 30
0.0
 10
116.9370194463
 20
110.6953402644
 30
0.0
 10
116.9370194463
 20
111.0164892632
 30
0.0
  0
SPLINE
  5
310
100
AcDbEntity
  8
0
100
AcDbSpline
 62
7
  6
BYLAYER
 70
0
 71
3
 72
11
 73
7
 74
0
 42
0.0000001
 43
0.0000001
 44
0.0000000001
 40
0.0
 40
0.0
 40
0.0
 40
0.0
 40
0.2243801603
 40
0.4604872507
 40
0.7175647787
 40
1.0
 40
1.0
 40
1.0
 40
1.0
 10
117.3930282315
 20
112.7170546624
 30
0.0
 10
117.274163038
 20
112.6484198143
 30
0.0
 10
117.0499176566
 20
112.4704652094
 30
0.0
 10
116.7919367141
 20
112.1094782812
 30
0.0
 10
116.6138048584
 20
111.6657898162
 30
0.0
 10
116.5523578573
 20
111.3394978187
 30
0.0
 10
116.5336269543
 20
111.1677450614
 30
0.0
  0
SPLINE
  5
311
100
AcDbEntity
  8
0
100
AcDbSpline
 62
7
  6
BYLAYER
 70
0
 71
3
 72
9
 73
5
 74
0
 42
0.0000001
 43
0.0000001
 44
0.0000000001
 40
0.0
 40
0.0
 40
0.0
 40
0.0
 40
0.2459663685
 40
1.0
 40
1.0
 40
1.0
 40
1.0
 10
121.7899701284
 20
47.5063662315
 30
0.0
 10
121.7627681592
 20
47.4975840427
 30
0.0
 10
121.6511612513
 20
47.465068673
 30
0.0
 10
121.5358927224
 20
47.4454061219
 30
0.0
 10
121.4486290391
 20
47.4374177495
 30
0.0
  0
SPLINE
  5
312
100
AcDbEntity
  8
0
100
AcDbSpline
 62
7
  6
BYLAYER
 70
0
 71
3
 72
15
 73
11
 74
0
 42
0.0000001
 43
0.0000001
 44
0.0000000001
 40
0.0
 40
0.0
 40
0.0
 40
0.0
 40
0.1994164376
 40
0.2594900075
 40
0.3230217468
 40
0.4581981409
 40
0.5997143037
 40
0.7412523568
 40
0.8764822659
 40
1.0
 40
1.0
 40
1.0
 40
1.0
 10
121.4486290391
 20
47.4374177495
 30
0.0
 10
120.9323005652
 20
47.3901515327
 30
0.0
 10
120.2394944514
 20
47.6328296084
 30
0.0
 10
119.5416907977
 20
48.0921922995
 30
0.0
 10
119.0169646802
 20
48.5166929191
 30
0.0
 10
118.4094348641
 20
49.1651831219
 30
0.0
 10
117.7947170782
 20
50.0670488307
 30
0.0
 10
117.3201630587
 20
51.0503268055
 30
0.0
 10
117.0165834989
 20
52.0501552673
 30
0.0
 10
116.9370194463
 20
52.7236686482
 30
0.0
 10
116.9370194463
 20
53.044817647
 30
0.0
  0
SPLINE
  5
313
100
AcDbEntity
  8
0
100
AcDbSpline
 62
7
  6
BYLAYER
 70
0
 71
3
 72
11
 73
7
 74
0
 42
0.0000001
 43
0.0000001
 44
0.0000000001
 40
0.0
 40
0.0
 40
0.0
 40
0.0
 40
0.2243801603
 40
0.4604872507
 40
0.7175647787
 40
1.0
 40
1.0
 40
1.0
 40
1.0
 10
117.3930282315
 20
54.7453830462
 30
0.0
 10
117.274163038
 20
54.6767481981
 30
0.0
 10
117.0499176566
 20
54.4987935932
 30
0.0
 10
116.7919367141
 20
54.137806665
 30
0.0
 10
116.6138048584
 20
53.6941182
 30
0.0
 10
116.5523578573
 20
53.3678262025
 30
0.0
 10
116.5336269543
 20
53.1960734452
 30
0.0
  0
SPLINE
  5
314
100
AcDbEntity
  8
0
100
AcDbSpline
 62
7
  6
BYLAYER
 70
0
 71
3
 72
9
 73
5
 74
0
 42
0.0000001
 43
0.0000001
 44
0.0000000001
 40
0.0
 40
0.0
 40
0.0
 40
0.0
 40
0.2459663685
 40
1.0
 40
1.0
 40
1.0
 40
1.0
 10
29.1585961341
 20
158.9575766898
 30
0.0
 10
29.1313941649
 20
158.948794501
 30
0.0
 10
29.0197872571
 20
158.9162791314
 30
0.0
 10
28.9045187282
 20
158.8966165803
 30
0.0
 10
28.8172550449
 20
158.8886282078
 30
0.0
  0
SPLINE
  5
315
100
AcDbEntity
  8
0
100
AcDbSpline
 62
7
  6
BYLAYER
 70
0
 71
3
 72
15
 73
11
 74
0
 42
0.0000001
 43
0.0000001
 44
0.0000000001
 40
0.0
 40
0.0
 40
0.0
 40
0.0
 40
0.1994164376
 40
0.2594900075
 40
0.3230217468
 40
0.4581981409
 40
0.5997143037
 40
0.7412523568
 40
0.8764822659
 40
1.0
 40
1.0
 40
1.0
 40
1.0
 10
28.8172550449
 20
158.8886282078
 30
0.0
 10
28.300926571
 20
158.8413619911
 30
0.0
 10
27.6081204571
 20
159.0840400668
 30
0.0
 10
26.9103168034
 20
159.5434027579
 30
0.0
 10
26.3855906859
 20
159.9679033775
 30
0.0
 10
25.7780608698
 20
160.6163935802
 30
0.0
 10
25.163343084
 20
161.5182592891
 30
0.0
 10
24.6887890644
 20
162.5015372639
 30
0.0
 10
24.3852095046
 20
163.5013657256
 30
0.0
 10
24.305645452
 20
164.1748791066
 30
0.0
 10
24.305645452
 20
164.4960281054
 30
0.0
  0
SPLINE
  5
316
100
AcDbEntity
  8
0
100
AcDbSpline
 62
7
  6
BYLAYER
 70
0
 71
3
 72
9
 73
5
 74
0
 42
0.0000001
 43
0.0000001
 44
0.0000000001
 40
0.0
 40
0.0
 40
0.0
 40
0.0
 40
0.2550920141
 40
1.0
 40
1.0
 40
1.0
 40
1.0
 10
116.9370194463
 20
53.044817647
 30
0.0
 10
116.9370194463
 20
53.0760423798
 30
0.0
 10
116.9384670158
 20
53.1984415702
 30
0.0
 10
116.9457870548
 20
53.3207892752
 30
0.0
 10
116.9548861368
 20
53.4115151649
 30
0.0
  0
SPLINE
  5
317
100
AcDbEntity
  8
0
100
AcDbSpline
 62
7
  6
BYLAYER
 70
0
 71
3
 72
9
 73
5
 74
0
 42
0.0000001
 43
0.0000001
 44
0.0000000001
 40
0.0
 40
0.0
 40
0.0
 40
0.0
 40
0.5296086231
 40
1.0
 40
1.0
 40
1.0
 40
1.0
 10
116.9548861368
 20
53.4115151649
 30
0.0
 10
116.9762399646
 20
53.6244317007
 30
0.0
 10
117.0539802386
 20
54.0245138955
 30
0.0
 10
117.2317960913
 20
54.3946291006
 30
0.0
 10
117.3413913
 20
54.5499064878
 30
0.0
  0
SPLINE
  5
318
100
AcDbEntity
  8
0
100
AcDbSpline
 62
7
  6
BYLAYER
 70
0
 71
3
 72
9
 73
5
 74
0
 42
0.0000001
 43
0.0000001
 44
0.0000000001
 40
0.0
 40
0.0
 40
0.0
 40
0.0
 40
0.2562618411
 40
1.0
 40
1.0
 40
1.0
 40
1.0
 10
117.3413913
 20
54.5499064878
 30
0.0
 10
117.3649395592
 20
54.5832702835
 30
0.0
 10
117.4614417817
 20
54.7101182035
 30
0.0
 10
117.5771787946
 20
54.8225687251
 30
0.0
 10
117.6717770684
 20
54.8939695042
 30
0.0
  0
SPLINE
  5
319
100
AcDbEntity
  8
0
100
AcDbSpline
 62
7
  6
BYLAYER
 70
0
 71
3
 72
9
 73
5
 74
0
 42
0.0000001
 43
0.0000001
 44
0.0000000001
 40
0.0
 40
0.0
 40
0.0
 40
0.0
 40
0.2441999891
 40
1.0
 40
1.0
 40
1.0
 40
1.0
 10
116.8871788729
 20
111.3718671384
 30
0.0
 10
116.8836765805
 20
111.3397529161
 30
0.0
 10
116.8712514599
 20
111.2080397543
 30
0.0
 10
116.8663090625
 20
111.0756478257
 30
0.0
 10
116.8663090625
 20
110.9756648478
 30
0.0
  0
SPLINE
  5
31A
100
AcDbEntity
  8
0
100
AcDbSpline
 62
7
  6
BYLAYER
 70
0
 71
3
 72
11
 73
7
 74
0
 42
0.0000001
 43
0.0000001
 44
0.0000000001
 40
0.0
 40
0.0
 40
0.0
 40
0.0
 40
0.2243801603
 40
0.4604872507
 40
0.7175647787
 40
1.0
 40
1.0
 40
1.0
 40
1.0
 10
24.7616542373
 20
166.1965935046
 30
0.0
 10
24.6427890438
 20
166.1279586564
 30
0.0
 10
24.4185436623
 20
165.9500040515
 30
0.0
 10
24.1605627199
 20
165.5890171234
 30
0.0
 10
23.9824308642
 20
165.1453286584
 30
0.0
 10
23.9209838631
 20
164.8190366608
 30
0.0
 10
23.90225296
 20
164.6472839036
 30
0.0
  0
SPLINE
  5
31B
100
AcDbEntity
  8
0
100
AcDbSpline
 62
7
  6
BYLAYER
 70
0
 71
3
 72
9
 73
5
 74
0
 42
0.0000001
 43
0.0000001
 44
0.0000000001
 40
0.0
 40
0.0
 40
0.0
 40
0.0
 40
0.2448175435
 40
1.0
 40
1.0
 40
1.0
 40
1.0
 10
116.8663090625
 20
110.9756648478
 30
0.0
 10
116.8663090625
 20
110.9413160458
 30
0.0
 10
116.8681134588
 20
110.8010157213
 30
0.0
 10
116.8769638712
 20
110.6608260397
 30
0.0
 10
116.8871788729
 20
110.5553647212
 30
0.0
  0
SPLINE
  5
31C
100
AcDbEntity
  8
0
100
AcDbSpline
 62
7
  6
BYLAYER
 70
0
 71
3
 72
9
 73
5
 74
0
 42
0.0000001
 43
0.0000001
 44
0.0000000001
 40
0.0
 40
0.0
 40
0.0
 40
0.0
 40
0.2459663685
 40
1.0
 40
1.0
 40
1.0
 40
1.0
 10
29.1585961341
 20
100.9859050736
 30
0.0
 10
29.1313941649
 20
100.9771228848
 30
0.0
 10
29.0197872571
 20
100.9446075152
 30
0.0
 10
28.9045187282
 20
100.9249449641
 30
0.0
 10
28.8172550449
 20
100.9169565916
 30
0.0
  0
SPLINE
  5
31D
100
AcDbEntity
  8
0
100
AcDbSpline
 62
7
  6
BYLAYER
 70
0
 71
3
 72
15
 73
11
 74
0
 42
0.0000001
 43
0.0000001
 44
0.0000000001
 40
0.0
 40
0.0
 40
0.0
 40
0.0
 40
0.1994164376
 40
0.2594900075
 40
0.3230217468
 40
0.4581981409
 40
0.5997143037
 40
0.7412523568
 40
0.8764822659
 40
1.0
 40
1.0
 40
1.0
 40
1.0
 10
28.8172550449
 20
100.9169565916
 30
0.0
 10
28.300926571
 20
100.8696903749
 30
0.0
 10
27.6081204571
 20
101.1123684506
 30
0.0
 10
26.9103168034
 20
101.5717311417
 30
0.0
 10
26.3855906859
 20
101.9962317613
 30
0.0
 10
25.7780608698
 20
102.644721964
 30
0.0
 10
25.163343084
 20
103.5465876729
 30
0.0
 10
24.6887890644
 20
104.5298656477
 30
0.0
 10
24.3852095046
 20
105.5296941094
 30
0.0
 10
24.305645452
 20
106.2032074904
 30
0.0
 10
24.305645452
 20
106.5243564892
 30
0.0
  0
SPLINE
  5
31E
100
AcDbEntity
  8
0
100
AcDbSpline
 62
7
  6
BYLAYER
 70
0
 71
3
 72
11
 73
7
 74
0
 42
0.0000001
 43
0.0000001
 44
0.0000000001
 40
0.0
 40
0.0
 40
0.0
 40
0.0
 40
0.2243801603
 40
0.4604872507
 40
0.7175647787
 40
1.0
 40
1.0
 40
1.0
 40
1.0
 10
24.7616542373
 20
108.2249218884
 30
0.0
 10
24.6427890438
 20
108.1562870402
 30
0.0
 10
24.4185436623
 20
107.9783324353
 30
0.0
 10
24.1605627199
 20
107.6173455072
 30
0.0
 10
23.9824308642
 20
107.1736570422
 30
0.0
 10
23.9209838631
 20
106.8473650446
 30
0.0
 10
23.90225296
 20
106.6756122874
 30
0.0
  0
SPLINE
  5
31F
100
AcDbEntity
  8
0
100
AcDbSpline
 62
7
  6
BYLAYER
 70
0
 71
3
 72
17
 73
13
 74
0
 42
0.0000001
 43
0.0000001
 44
0.0000000001
 40
0.0
 40
0.0
 40
0.0
 40
0.0
 40
0.1342294496
 40
0.2784771965
 40
0.4256644483
 40
0.5682037321
 40
0.6992886278
 40
0.8142480363
 40
0.8654205083
 40
0.9127642101
 40
0.9571836972
 40
1.0
 40
1.0
 40
1.0
 40
1.0
 10
23.90225296
 20
105.8591098703
 30
0.0
 10
23.9369764046
 20
105.5006194503
 30
0.0
 10
24.0926543743
 20
104.7640307644
 30
0.0
 10
24.520693001
 20
103.7000810188
 30
0.0
 10
25.1234432007
 20
102.6979661056
 30
0.0
 10
25.8568471744
 20
101.8321995789
 30
0.0
 10
26.6667781081
 20
101.1660669396
 30
0.0
 10
27.3889695869
 20
100.8033996335
 30
0.0
 10
27.9493096889
 20
100.6727223701
 30
0.0
 10
28.3349241534
 20
100.6546782274
 30
0.0
 10
28.6940667266
 20
100.7139563206
 30
0.0
 10
28.9120535319
 20
100.806403731
 30
0.0
 10
29.0115447258
 20
100.8638516919
 30
0.0
  0
ENDSEC
  0
SECTION
  2
OBJECTS
  0
DICTIONARY
  5
C
100
AcDbDictionary
280
0
281
1
  3
ACAD_GROUP
350
D
  3
ACAD_MLINESTYLE
350
17
  3
ACAD_LAYOUT
350
1A
  3
ACAD_PLOTSETTINGS
350
19
  3
ACAD_PLOTSTYLENAME
350
E
  0
DICTIONARY
  5
D
102
{ACAD_REACTORS
330
C
102
}
100
AcDbDictionary
280
0
281
1
  0
ACDBDICTIONARYWDFLT
  5
E
102
{ACAD_REACTORS
330
C
102
}
100
AcDbDictionary
281
1
  3
Normal
350
F
100
AcDbDictionaryWithDefault
340
F
  0
DICTIONARY
  5
17
102
{ACAD_REACTORS
330
C
102
}
100
AcDbDictionary
280
0
281
1
  3
Standard
350
18
  0
DICTIONARY
  5
19
102
{ACAD_REACTORS
330
C
102
}
100
AcDbDictionary
281
1
  0
DICTIONARY
  5
1A
102
{ACAD_REACTORS
330
C
102
}
100
AcDbDictionary
281
1
  3
Model
350
320
  3
Layout1
350
321
  0
ACDBPLACEHOLDER
  5
F
102
{ACAD_REACTORS
330
E
102
}
  0
MLINESTYLE
  5
18
102
{ACAD_REACTORS
330
17
102
}
100
AcDbMlineStyle
  2
STANDARD
 70
0
  3

 62
256
 51
90.0
 52
90.0
 71
2
 49
0.5
 62
256
  6
BYLAYER
 49
-0.5
 62
256
  6
BYLAYER
  0
LAYOUT
  5
320
102
{ACAD_REACTORS
330
1A
102
}
100
AcDbPlotSettings
  1

  2
none_device
  4

  6

 40
0.0
 41
0.0
 42
0.0
 43
0.0
 44
210.0
 45
297.0
 46
0.0
 47
0.0
 48
0.0
 49
0.0
140
0.0
141
0.0
142
1.0
143
1.0
 70
1024
 72
1
 73
0
 74
0
  7

 75
0
147
1.0
148
0.0
149
0.0
100
AcDbLayout
  1
Model
 70
0
 71
0
 10
0.0
 20
0.0
 11
210.0
 21
297.0
 12
0.0
 22
0.0
 32
0.0
 14
0.0
 24
0.0
 34
0.0
 15
0.0
 25
0.0
 35
0.0
146
0.0
 13
0.0
 23
0.0
 33
0.0
 16
1.0
 26
0.0
 36
0.0
 17
0.0
 27
1.0
 37
0.0
 76
0
330
210
345
0
346
0
  0
LAYOUT
  5
321
102
{ACAD_REACTORS
330
1A
102
}
100
AcDbPlotSettings
  1

  2
none_device
  4

  6

 40
0.0
 41
0.0
 42
0.0
 43
0.0
 44
210.0
 45
297.0
 46
0.0
 47
0.0
 48
0.0
 49
0.0
140
0.0
141
0.0
142
1.0
143
1.0
 70
0
 72
1
 73
0
 74
0
  7

 75
0
147
1.0
148
0.0
149
0.0
100
AcDbLayout
  1
Layout1
 70
0
 71
1
 10
0.0
 20
0.0
 11
210.0
 21
297.0
 12
0.0
 22
0.0
 32
0.0
 14
0.0
 24
0.0
 34
0.0
 15
0.0
 25
0.0
 35
0.0
146
0.0
 13
0.0
 23
0.0
 33
0.0
 16
1.0
 26
0.0
 36
0.0
 17
0.0
 27
1.0
 37
0.0
 76
0
330
211
345
0
346
0
  0
ENDSEC
  0
EOF
