999
DXF file: C:\Users\sesa63760\Dev\_Creo\CAD\MCADPD0004503_3D-CAD\drw0001_6.dxf
999
Pro/ENGINEER 2019471 by Parametric Technology Corporation
  0
SECTION
  2
HEADER
  9
$ACADVER
  1
AC1024
  9
$DWGCODEPAGE
  3
ANSI_1252
  9
$EXTMAX
 10
204.7781977322
 20
289.6148796499
 30
0.0
  9
$EXTMIN
 10
0.0
 20
0.0
 30
0.0
  9
$LIMMIN
 10
0.0
 20
0.0
  9
$LIMMAX
 10
204.7781977322
 20
289.6148796499
  9
$VIEWCTR
 10
102.3890988661
 20
144.8074398249
  9
$VIEWSIZE
 40
289.6148796499
  9
$CLAYER
  8
0
  9
$LTSCALE
 40
18.8785995624
  9
$CELTYPE
  6
BYLAYER
  9
$DIMSCALE
 40
1.0
  9
$DIMASZ
 40
2.4378356873
  9
$DIMEXO
 40
1.0
  9
$DIMDLI
 40
13.0433960613
  9
$DIMEXE
 40
1.0
  9
$DIMCEN
 40
3.0892253829
  9
$DIMLFAC
 40
1.0
  9
$DIMBLK
  1
_FILLED
  9
$DIMALT
 70
0
  9
$DIMALTF
 40
0.0393700787
  9
$DIMTXT
 40
3.4129699622
  9
$DIMTOL
 70
1
  9
$DIMLIM
 70
0
  9
$DIMTFAC
 40
1.0
  9
$DIMTP
 40
0.01
  9
$DIMTM
 40
0.01
  9
$DIMGAP
 40
0.625
  9
$DIMDSEP
 70
46
  9
$AUNITS
 70
0
  9
$PDMODE
 70
3
  9
$PDSIZE
 40
0.3125
  9
$HANDSEED
  5
2D4
  9
$TILEMODE
 70
1
  9
$MEASUREMENT
 70
1
  9
$INSUNITS
 70
4
  0
ENDSEC
  0
SECTION
  2
CLASSES
  0
CLASS
  1
ACDBDICTIONARYWDFLT
  2
AcDbDictionaryWithDefault
  3
AutoCAD 2000
 90
0
 91
1
280
0
281
0
  0
CLASS
  1
ACDBPLACEHOLDER
  2
AcDbPlaceHolder
  3
AutoCAD 2000
 90
0
 91
1
280
0
281
0
  0
CLASS
  1
LAYOUT
  2
AcDbLayout
  3
AutoCAD 2000
 90
0
 91
0
280
0
281
0
  0
ENDSEC
  0
SECTION
  2
TABLES
  0
TABLE
  2
VPORT
  5
8
100
AcDbSymbolTable
 70
2
  0
VPORT
  5
1F4
100
AcDbSymbolTableRecord
100
AcDbViewportTableRecord
  2
*ACTIVE
 70
0
 10
0.0
 20
0.0
 11
1.0
 21
1.0
 12
102.3890988661
 22
144.8074398249
 13
0.0
 23
0.0
 14
1.0
 24
1.0
 15
0.0
 25
0.0
 16
0.0
 26
0.0
 36
1.0
 17
0.0
 27
0.0
 37
0.0
 40
289.6148796499
 41
0.7070707071
 42
50.0
 43
0.0
 44
0.0
 50
0.0
 51
0.0
 71
0
 72
100
 73
1
 74
1
 75
0
 76
0
 77
0
 78
0
  0
ENDTAB
  0
TABLE
  2
LTYPE
  5
5
100
AcDbSymbolTable
 70
6
  0
LTYPE
  5
14
100
AcDbSymbolTableRecord
100
AcDbLinetypeTableRecord
  2
BYBLOCK
 70
0
  3

 72
65
 73
0
 40
0.0
  0
LTYPE
  5
15
100
AcDbSymbolTableRecord
100
AcDbLinetypeTableRecord
  2
BYLAYER
 70
0
  3

 72
65
 73
0
 40
0.0
  0
LTYPE
  5
16
100
AcDbSymbolTableRecord
100
AcDbLinetypeTableRecord
  2
CONTINUOUS
 70
64
  3
Solid line
 72
65
 73
0
 40
0.0
  0
LTYPE
  5
1F5
100
AcDbSymbolTableRecord
100
AcDbLinetypeTableRecord
  2
CENTER
 70
64
  3
____ _ ____ _ ____ _ ____ _ ____ _ ____ _ ____
 72
65
 73
4
 40
0.6
 49
0.375
 74
0
 49
-0.075
 74
0
 49
0.075
 74
0
 49
-0.075
 74
0
  0
LTYPE
  5
1F6
100
AcDbSymbolTableRecord
100
AcDbLinetypeTableRecord
  2
HIDDEN
 70
64
  3
- - - - - - - - - - - - - - - - - - - -
 72
65
 73
2
 40
0.2
 49
0.1
 74
0
 49
-0.1
 74
0
  0
LTYPE
  5
1F7
100
AcDbSymbolTableRecord
100
AcDbLinetypeTableRecord
  2
PHANTOM
 70
64
  3
_____ _ _ _____ _ _ _____ _ _ _____
 72
65
 73
6
 40
0.8
 49
0.45
 74
0
 49
-0.05
 74
0
 49
0.1
 74
0
 49
-0.05
 74
0
 49
0.1
 74
0
 49
-0.05
 74
0
  0
LTYPE
  5
1F8
100
AcDbSymbolTableRecord
100
AcDbLinetypeTableRecord
  2
DOT
 70
64
  3
. . . . . . . . . . . . . . . . . . . .
 72
65
 73
2
 40
0.2
 49
0.1
 74
0
 49
-0.1
 74
0
  0
LTYPE
  5
1F9
100
AcDbSymbolTableRecord
100
AcDbLinetypeTableRecord
  2
DASHED
 70
64
  3
- - - - - - - - - - - - - - - - - - - -
 72
65
 73
2
 40
0.2
 49
0.1
 74
0
 49
-0.1
 74
0
  0
ENDTAB
  0
TABLE
  2
LAYER
  5
2
100
AcDbSymbolTable
 70
36
  0
LAYER
  5
10
100
AcDbSymbolTableRecord
100
AcDbLayerTableRecord
  2
0
 70
0
 62
7
  6
CONTINUOUS
370
-3
390
F
  0
LAYER
  5
1FA
100
AcDbSymbolTableRecord
100
AcDbLayerTableRecord
  2
DEFAULT_1
 70
0
 62
7
  6
CENTER
370
-3
390
F
  0
LAYER
  5
1FB
100
AcDbSymbolTableRecord
100
AcDbLayerTableRecord
  2
DEFAULT_2
 70
0
 62
7
  6
HIDDEN
370
-3
390
F
  0
LAYER
  5
1FC
100
AcDbSymbolTableRecord
100
AcDbLayerTableRecord
  2
DEFAULT_3
 70
0
 62
7
  6
PHANTOM
370
-3
390
F
  0
LAYER
  5
1FD
100
AcDbSymbolTableRecord
100
AcDbLayerTableRecord
  2
00_COMPONENTS
 70
0
 62
7
  6
CONTINUOUS
370
-3
390
F
  0
LAYER
  5
1FE
100
AcDbSymbolTableRecord
100
AcDbLayerTableRecord
  2
01_1_DEFAULT_DATUMS
 70
0
 62
7
  6
CONTINUOUS
370
-3
390
F
  0
LAYER
  5
1FF
100
AcDbSymbolTableRecord
100
AcDbLayerTableRecord
  2
01_PLANES
 70
0
 62
7
  6
CONTINUOUS
370
-3
390
F
  0
LAYER
  5
200
100
AcDbSymbolTableRecord
100
AcDbLayerTableRecord
  2
02_COORD_SYS
 70
0
 62
7
  6
CONTINUOUS
370
-3
390
F
  0
LAYER
  5
201
100
AcDbSymbolTableRecord
100
AcDbLayerTableRecord
  2
03_AXES
 70
0
 62
7
  6
CONTINUOUS
370
-3
390
F
  0
LAYER
  5
202
100
AcDbSymbolTableRecord
100
AcDbLayerTableRecord
  2
04_POINTS
 70
0
 62
7
  6
CONTINUOUS
370
-3
390
F
  0
LAYER
  5
203
100
AcDbSymbolTableRecord
100
AcDbLayerTableRecord
  2
05_CURVES
 70
0
 62
7
  6
CONTINUOUS
370
-3
390
F
  0
LAYER
  5
204
100
AcDbSymbolTableRecord
100
AcDbLayerTableRecord
  2
06_SURFS
 70
0
 62
7
  6
CONTINUOUS
370
-3
390
F
  0
LAYER
  5
205
100
AcDbSymbolTableRecord
100
AcDbLayerTableRecord
  2
07_COSMETICS
 70
0
 62
7
  6
CONTINUOUS
370
-3
390
F
  0
LAYER
  5
206
100
AcDbSymbolTableRecord
100
AcDbLayerTableRecord
  2
10_NOTES
 70
0
 62
7
  6
CONTINUOUS
370
-3
390
F
  0
LAYER
  5
207
100
AcDbSymbolTableRecord
100
AcDbLayerTableRecord
  2
11_NOTES_PUB
 70
0
 62
7
  6
CONTINUOUS
370
-3
390
F
  0
LAYER
  5
208
100
AcDbSymbolTableRecord
100
AcDbLayerTableRecord
  2
13_REF_GTOL
 70
0
 62
7
  6
CONTINUOUS
370
-3
390
F
  0
LAYER
  5
209
100
AcDbSymbolTableRecord
100
AcDbLayerTableRecord
  2
16_MISC
 70
0
 62
7
  6
CONTINUOUS
370
-3
390
F
  0
LAYER
  5
20A
100
AcDbSymbolTableRecord
100
AcDbLayerTableRecord
  2
17_NO_PRINT
 70
0
 62
7
  6
CONTINUOUS
370
-3
390
F
  0
LAYER
  5
20B
100
AcDbSymbolTableRecord
100
AcDbLayerTableRecord
  2
18_DATUM_CAMS_JOINTS
 70
0
 62
7
  6
CONTINUOUS
370
-3
390
F
  0
LAYER
  5
20C
100
AcDbSymbolTableRecord
100
AcDbLayerTableRecord
  2
19_DATUM_FUNCTIONAL
 70
0
 62
7
  6
CONTINUOUS
370
-3
390
F
  0
LAYER
  5
20D
100
AcDbSymbolTableRecord
100
AcDbLayerTableRecord
  2
20_DATUM_KINEMATIC_SCHEME
 70
0
 62
7
  6
CONTINUOUS
370
-3
390
F
  0
ENDTAB
  0
TABLE
  2
STYLE
  5
3
100
AcDbSymbolTable
 70
1
  0
STYLE
  5
11
100
AcDbSymbolTableRecord
100
AcDbTextStyleTableRecord
  2
STANDARD
 70
0
 40
0.0
 41
1.0
 50
0.0
 71
0
 42
0.2
  3
ARIAL.TTF
  4

  0
STYLE
  5
20E
100
AcDbSymbolTableRecord
100
AcDbTextStyleTableRecord
  2
TEXTSTYLE_1
 70
0
 40
0.0
 41
0.8
 50
0.0
 71
0
 42
0.2
  3
gdt
  4

  0
ENDTAB
  0
TABLE
  2
VIEW
  5
6
100
AcDbSymbolTable
 70
0
  0
ENDTAB
  0
TABLE
  2
UCS
  5
7
100
AcDbSymbolTable
 70
0
  0
ENDTAB
  0
TABLE
  2
APPID
  5
9
100
AcDbSymbolTable
 70
1
  0
APPID
  5
20F
100
AcDbSymbolTableRecord
100
AcDbRegAppTableRecord
  2
ACAD
 70
0
  0
ENDTAB
  0
TABLE
  2
BLOCK_RECORD
  5
1
100
AcDbSymbolTable
 70
0
  0
BLOCK_RECORD
  5
210
100
AcDbSymbolTableRecord
100
AcDbBlockTableRecord
  2
*Model_Space
  0
BLOCK_RECORD
  5
211
100
AcDbSymbolTableRecord
100
AcDbBlockTableRecord
  2
*Paper_Space
  0
BLOCK_RECORD
  5
212
100
AcDbSymbolTableRecord
100
AcDbBlockTableRecord
  2
_FILLED
  0
ENDTAB
  0
TABLE
  2
DIMSTYLE
  5
A
100
AcDbSymbolTable
 70
1
100
AcDbDimStyleTable
 71
0
  0
DIMSTYLE
105
213
100
AcDbSymbolTableRecord
100
AcDbDimStyleTableRecord
  2
STANDARD
 70
0
  3

  4

 40
1.0
 41
2.4378356873
 42
1.0
 43
0.38
 44
1.0
 45
0.0
 46
0.0
 47
0.01
 48
0.01
140
3.4129699622
141
0.09
142
0.0
143
25.4
144
1.0
145
0.0
146
1.0
147
0.625
 71
1
 72
0
 73
0
 74
0
 75
0
 76
0
 77
1
 78
8
 79
2
170
0
171
1
172
0
173
0
174
0
175
0
176
0
177
0
178
0
270
2
179
2
271
2
272
2
273
2
274
2
275
0
280
0
281
0
282
0
283
1
284
8
285
0
286
0
287
3
288
0
340
11
278
46
341
212
342
212
343
212
344
212
  0
ENDTAB
  0
ENDSEC
  0
SECTION
  2
BLOCKS
  0
BLOCK
  5
20
100
AcDbEntity
  8
0
100
AcDbBlockBegin
  2
*Model_Space
 70
0
 10
0.0
 20
0.0
 30
0.0
  3
*Model_Space
  1

  0
ENDBLK
  5
21
100
AcDbEntity
  8
0
100
AcDbBlockEnd
  0
BLOCK
  5
1C
100
AcDbEntity
  8
0
100
AcDbBlockBegin
  2
*Paper_Space
 70
0
 10
0.0
 20
0.0
 30
0.0
  3
*Paper_Space
  1

  0
ENDBLK
  5
1D
100
AcDbEntity
  8
0
100
AcDbBlockEnd
  0
BLOCK
  5
214
100
AcDbEntity
  8
0
100
AcDbBlockBegin
  2
_FILLED
 70
64
 10
0.0
 20
0.0
  3
_FILLED
  1

  0
SOLID
  5
215
100
AcDbEntity
  8
0
  6
BYBLOCK
 62
0
100
AcDbTrace
 10
0.0
 20
0.0
 11
-1.0
 21
0.25
 12
-1.0
 22
-0.25
 13
-1.0
 23
-0.25
  0
ENDBLK
  5
216
100
AcDbEntity
  8
0
  6
BYBLOCK
 62
0
100
AcDbBlockEnd
  0
ENDSEC
  0
SECTION
  2
ENTITIES
  0
LWPOLYLINE
  5
217
100
AcDbEntity
  8
0
100
AcDbPolyline
 62
7
  6
BYLAYER
 90
8
 70
0
 10
149.0755562536
 20
60.9773545682
 10
149.0887281813
 20
60.979274493
 10
149.3682337467
 20
61.0241949702
 10
149.6097034901
 20
61.0521558534
 10
150.3086352191
 20
61.1108874791
 10
151.3420872834
 20
61.1668697936
 10
152.7707973918
 20
61.209397832
 10
154.1615277689
 20
61.2222191403
  0
LINE
  5
218
100
AcDbEntity
  8
0
100
AcDbLine
 62
7
  6
BYLAYER
 10
23.1615277501
 20
122.739063063
 11
23.1615277501
 21
125.739063063
  0
LINE
  5
219
100
AcDbEntity
  8
0
100
AcDbLine
 62
7
  6
BYLAYER
 10
163.0115277501
 20
59.9755940152
 11
58.92463446
 21
59.9755940152
  0
LINE
  5
21A
100
AcDbEntity
  8
0
100
AcDbLine
 62
7
  6
BYLAYER
 10
49.3984051652
 20
59.9755940152
 11
45.3115277501
 21
59.9755940152
  0
LINE
  5
21B
100
AcDbEntity
  8
0
100
AcDbLine
 62
7
  6
BYLAYER
 10
78.5615277501
 20
60.239063063
 11
70.7615277501
 21
60.239063063
  0
LINE
  5
21C
100
AcDbEntity
  8
0
100
AcDbLine
 62
7
  6
BYLAYER
 10
45.3115277501
 20
61.339063063
 11
163.0115277501
 21
61.339063063
  0
LINE
  5
21D
100
AcDbEntity
  8
0
100
AcDbLine
 62
7
  6
BYLAYER
 10
163.0115277501
 20
63.339063063
 11
45.3115277501
 21
63.339063063
  0
LINE
  5
21E
100
AcDbEntity
  8
0
100
AcDbLine
 62
7
  6
BYLAYER
 10
165.0115277501
 20
63.839063063
 11
163.5115277501
 21
63.839063063
  0
LINE
  5
21F
100
AcDbEntity
  8
0
100
AcDbLine
 62
7
  6
BYLAYER
 10
44.8115277501
 20
63.839063063
 11
43.3115277501
 21
63.839063063
  0
LINE
  5
220
100
AcDbEntity
  8
0
100
AcDbLine
 62
7
  6
BYLAYER
 10
42.4115277501
 20
65.339063063
 11
165.9115277501
 21
65.339063063
  0
LWPOLYLINE
  5
221
100
AcDbEntity
  8
0
100
AcDbPolyline
 62
7
  6
BYLAYER
 90
8
 70
0
 10
154.161527749
 20
61.2222111402
 10
155.417790162
 20
61.2117862107
 10
156.8044115623
 20
61.1740094012
 10
157.834660494
 20
61.1226895617
 10
158.5592603531
 20
61.0673661732
 10
159.0240870471
 20
61.0148458114
 10
159.2477969646
 20
60.9762244293
 10
159.2584237101
 20
60.9736137085
  0
LINE
  5
222
100
AcDbEntity
  8
0
100
AcDbLine
 62
7
  6
BYLAYER
 10
35.6615277501
 20
226.139063063
 11
35.6615277501
 21
229.139063063
  0
LINE
  5
223
100
AcDbEntity
  8
0
100
AcDbLine
 62
7
  6
BYLAYER
 10
38.1615277501
 20
125.739063063
 11
38.1615277501
 21
122.739063063
  0
LINE
  5
224
100
AcDbEntity
  8
0
100
AcDbLine
 62
7
  6
BYLAYER
 10
39.1595650094
 20
122.739063063
 11
39.1595650094
 21
125.739063063
  0
LINE
  5
225
100
AcDbEntity
  8
0
100
AcDbLine
 62
7
  6
BYLAYER
 10
40.0323564435
 20
122.739063063
 11
40.0323564435
 21
125.739063063
  0
LINE
  5
226
100
AcDbEntity
  8
0
100
AcDbLine
 62
7
  6
BYLAYER
 10
42.4115277501
 20
117.839063063
 11
42.4115277501
 21
65.339063063
  0
LINE
  5
227
100
AcDbEntity
  8
0
100
AcDbLine
 62
7
  6
BYLAYER
 10
42.6615277501
 20
150.639063063
 11
42.6615277501
 21
117.839063063
  0
LINE
  5
228
100
AcDbEntity
  8
0
100
AcDbLine
 62
7
  6
BYLAYER
 10
43.1615277501
 20
116.639063063
 11
43.1615277501
 21
168.639063063
  0
LINE
  5
229
100
AcDbEntity
  8
0
100
AcDbLine
 62
7
  6
BYLAYER
 10
43.3115277501
 20
61.9765299893
 11
43.3115277501
 21
65.339063063
  0
LINE
  5
22A
100
AcDbEntity
  8
0
100
AcDbLine
 62
7
  6
BYLAYER
 10
44.8115277502
 20
63.8390630631
 11
44.8115277501
 21
65.339063063
  0
LINE
  5
22B
100
AcDbEntity
  8
0
100
AcDbLine
 62
7
  6
BYLAYER
 10
45.3115277501
 20
59.9755940152
 11
45.3115277501
 21
63.339063063
  0
LINE
  5
22C
100
AcDbEntity
  8
0
100
AcDbLine
 62
7
  6
BYLAYER
 10
45.4115277501
 20
65.339063063
 11
45.4115277501
 21
116.639063063
  0
LINE
  5
22D
100
AcDbEntity
  8
0
100
AcDbLine
 62
7
  6
BYLAYER
 10
138.0275531539
 20
229.639063063
 11
137.1615277501
 21
229.139063063
  0
LINE
  5
22E
100
AcDbEntity
  8
0
100
AcDbLine
 62
7
  6
BYLAYER
 10
69.0615277501
 20
174.6811986868
 11
67.7790234044
 21
173.398694341
  0
LINE
  5
22F
100
AcDbEntity
  8
0
100
AcDbLine
 62
7
  6
BYLAYER
 10
51.516079483
 20
116.639063063
 11
53.1615277501
 21
115.689063063
  0
LINE
  5
230
100
AcDbEntity
  8
0
100
AcDbLine
 62
7
  6
BYLAYER
 10
59.6615277501
 20
115.689063063
 11
59.6615277501
 21
111.089063063
  0
LINE
  5
231
100
AcDbEntity
  8
0
100
AcDbLine
 62
7
  6
BYLAYER
 10
62.1615277501
 20
115.689063063
 11
62.1615277501
 21
113.589063063
  0
LINE
  5
232
100
AcDbEntity
  8
0
100
AcDbLine
 62
7
  6
BYLAYER
 10
64.6615277501
 20
115.689063063
 11
64.6615277501
 21
111.089063063
  0
LINE
  5
233
100
AcDbEntity
  8
0
100
AcDbLine
 62
7
  6
BYLAYER
 10
72.6615277501
 20
116.689063063
 11
73.6615277501
 21
115.689063063
  0
LINE
  5
234
100
AcDbEntity
  8
0
100
AcDbLine
 62
7
  6
BYLAYER
 10
66.9115277501
 20
225.639063063
 11
66.9115277501
 21
177.639063063
  0
LINE
  5
235
100
AcDbEntity
  8
0
100
AcDbLine
 62
7
  6
BYLAYER
 10
68.1615277501
 20
224.5202609095
 11
68.1615277501
 21
225.639063063
  0
LINE
  5
236
100
AcDbEntity
  8
0
100
AcDbLine
 62
7
  6
BYLAYER
 10
69.0615277501
 20
174.6811986868
 11
69.0615277501
 21
223.145488201
  0
LINE
  5
237
100
AcDbEntity
  8
0
100
AcDbLine
 62
7
  6
BYLAYER
 10
70.7615277501
 20
61.339063063
 11
70.7615277501
 21
60.239063063
  0
LINE
  5
238
100
AcDbEntity
  8
0
100
AcDbLine
 62
7
  6
BYLAYER
 10
71.2615277501
 20
223.939063063
 11
71.2615277501
 21
218.289063063
  0
LINE
  5
239
100
AcDbEntity
  8
0
100
AcDbLine
 62
7
  6
BYLAYER
 10
71.2615277501
 20
212.789063063
 11
71.2615277501
 21
168.839063063
  0
LINE
  5
23A
100
AcDbEntity
  8
0
100
AcDbLine
 62
7
  6
BYLAYER
 10
73.6615277501
 20
115.689063063
 11
73.6615277501
 21
109.189063063
  0
LINE
  5
23B
100
AcDbEntity
  8
0
100
AcDbLine
 62
7
  6
BYLAYER
 10
145.6615277501
 20
109.189063063
 11
143.6615277501
 21
109.189063063
  0
LINE
  5
23C
100
AcDbEntity
  8
0
100
AcDbLine
 62
7
  6
BYLAYER
 10
75.6615277501
 20
109.189063063
 11
73.6615277501
 21
109.189063063
  0
LINE
  5
23D
100
AcDbEntity
  8
0
100
AcDbLine
 62
7
  6
BYLAYER
 10
155.1615277501
 20
110.689063063
 11
143.6615277501
 21
110.689063063
  0
LINE
  5
23E
100
AcDbEntity
  8
0
100
AcDbLine
 62
7
  6
BYLAYER
 10
85.1615277501
 20
110.689063063
 11
73.6615277501
 21
110.689063063
  0
LINE
  5
23F
100
AcDbEntity
  8
0
100
AcDbLine
 62
7
  6
BYLAYER
 10
134.6615277501
 20
111.089063063
 11
123.1615277501
 21
111.089063063
  0
LINE
  5
240
100
AcDbEntity
  8
0
100
AcDbLine
 62
7
  6
BYLAYER
 10
64.6615277501
 20
111.089063063
 11
59.6615277501
 21
111.089063063
  0
LINE
  5
241
100
AcDbEntity
  8
0
100
AcDbLine
 62
7
  6
BYLAYER
 10
155.1615277501
 20
113.589063063
 11
147.6615277501
 21
113.589063063
  0
LINE
  5
242
100
AcDbEntity
  8
0
100
AcDbLine
 62
7
  6
BYLAYER
 10
132.1615277501
 20
113.589063063
 11
123.1615277501
 21
113.589063063
  0
LINE
  5
243
100
AcDbEntity
  8
0
100
AcDbLine
 62
7
  6
BYLAYER
 10
62.1615277501
 20
113.589063063
 11
59.6615277501
 21
113.589063063
  0
LINE
  5
244
100
AcDbEntity
  8
0
100
AcDbLine
 62
7
  6
BYLAYER
 10
77.6615277501
 20
113.589063063
 11
85.1615277501
 21
113.589063063
  0
LINE
  5
245
100
AcDbEntity
  8
0
100
AcDbLine
 62
7
  6
BYLAYER
 10
75.6615277501
 20
110.689063063
 11
75.6615277501
 21
109.189063063
  0
LINE
  5
246
100
AcDbEntity
  8
0
100
AcDbLine
 62
7
  6
BYLAYER
 10
77.6615277501
 20
113.589063063
 11
77.6615277501
 21
110.689063063
  0
LINE
  5
247
100
AcDbEntity
  8
0
100
AcDbLine
 62
7
  6
BYLAYER
 10
78.5615277501
 20
61.339063063
 11
78.5615277501
 21
60.239063063
  0
LINE
  5
248
100
AcDbEntity
  8
0
100
AcDbLine
 62
7
  6
BYLAYER
 10
53.1615277501
 20
115.689063063
 11
64.6615277501
 21
115.689063063
  0
LINE
  5
249
100
AcDbEntity
  8
0
100
AcDbLine
 62
7
  6
BYLAYER
 10
73.6615277501
 20
115.689063063
 11
85.1615277501
 21
115.689063063
  0
LINE
  5
24A
100
AcDbEntity
  8
0
100
AcDbLine
 62
7
  6
BYLAYER
 10
123.1615277501
 20
115.689063063
 11
134.6615277501
 21
115.689063063
  0
LINE
  5
24B
100
AcDbEntity
  8
0
100
AcDbLine
 62
7
  6
BYLAYER
 10
143.6615277501
 20
115.689063063
 11
155.1615277501
 21
115.689063063
  0
LINE
  5
24C
100
AcDbEntity
  8
0
100
AcDbLine
 62
7
  6
BYLAYER
 10
43.1615277501
 20
116.639063063
 11
51.516079483
 21
116.639063063
  0
LINE
  5
24D
100
AcDbEntity
  8
0
100
AcDbLine
 62
7
  6
BYLAYER
 10
86.8069760173
 20
116.639063063
 11
121.516079483
 21
116.639063063
  0
LINE
  5
24E
100
AcDbEntity
  8
0
100
AcDbLine
 62
7
  6
BYLAYER
 10
156.8069760173
 20
116.639063063
 11
165.1615277501
 21
116.639063063
  0
LINE
  5
24F
100
AcDbEntity
  8
0
100
AcDbLine
 62
7
  6
BYLAYER
 10
65.6615277501
 20
116.689063063
 11
72.6615277501
 21
116.689063063
  0
LINE
  5
250
100
AcDbEntity
  8
0
100
AcDbLine
 62
7
  6
BYLAYER
 10
135.6615277501
 20
116.689063063
 11
142.6615277501
 21
116.689063063
  0
LINE
  5
251
100
AcDbEntity
  8
0
100
AcDbLine
 62
7
  6
BYLAYER
 10
42.4115277501
 20
117.839063063
 11
43.1615277501
 21
117.839063063
  0
LINE
  5
252
100
AcDbEntity
  8
0
100
AcDbLine
 62
7
  6
BYLAYER
 10
165.1615277501
 20
117.839063063
 11
165.9115277501
 21
117.839063063
  0
LINE
  5
253
100
AcDbEntity
  8
0
100
AcDbLine
 62
7
  6
BYLAYER
 10
43.1615277501
 20
118.839063063
 11
165.1615277501
 21
118.839063063
  0
LINE
  5
254
100
AcDbEntity
  8
0
100
AcDbLine
 62
7
  6
BYLAYER
 10
83.3615277501
 20
216.289063063
 11
83.3615277501
 21
214.789063063
  0
LINE
  5
255
100
AcDbEntity
  8
0
100
AcDbLine
 62
7
  6
BYLAYER
 10
85.1615277501
 20
115.689063063
 11
85.1615277501
 21
110.689063063
  0
LINE
  5
256
100
AcDbEntity
  8
0
100
AcDbLine
 62
7
  6
BYLAYER
 10
185.1615277501
 20
122.739063063
 11
165.6615277501
 21
122.739063063
  0
LINE
  5
257
100
AcDbEntity
  8
0
100
AcDbLine
 62
7
  6
BYLAYER
 10
23.1615277501
 20
122.739063063
 11
42.6615277501
 21
122.739063063
  0
LINE
  5
258
100
AcDbEntity
  8
0
100
AcDbLine
 62
7
  6
BYLAYER
 10
23.1615277501
 20
125.739063063
 11
42.6615277501
 21
125.739063063
  0
LINE
  5
259
100
AcDbEntity
  8
0
100
AcDbLine
 62
7
  6
BYLAYER
 10
165.6615277501
 20
125.739063063
 11
185.1615277501
 21
125.739063063
  0
LINE
  5
25A
100
AcDbEntity
  8
0
100
AcDbLine
 62
7
  6
BYLAYER
 10
43.1615277501
 20
129.339063063
 11
94.1615277501
 21
129.339063063
  0
LINE
  5
25B
100
AcDbEntity
  8
0
100
AcDbLine
 62
7
  6
BYLAYER
 10
114.1615277501
 20
129.339063063
 11
165.1615277501
 21
129.339063063
  0
LINE
  5
25C
100
AcDbEntity
  8
0
100
AcDbLine
 62
7
  6
BYLAYER
 10
121.516079483
 20
116.639063063
 11
123.1615277501
 21
115.689063063
  0
LINE
  5
25D
100
AcDbEntity
  8
0
100
AcDbLine
 62
7
  6
BYLAYER
 10
70.4115277501
 20
168.839063063
 11
65.9081956505
 21
176.639063063
  0
LINE
  5
25E
100
AcDbEntity
  8
0
100
AcDbLine
 62
7
  6
BYLAYER
 10
94.1615277501
 20
129.339063063
 11
94.1615277501
 21
118.839063063
  0
LINE
  5
25F
100
AcDbEntity
  8
0
100
AcDbLine
 62
7
  6
BYLAYER
 10
64.6615277501
 20
115.689063063
 11
65.6615277501
 21
116.689063063
  0
LINE
  5
260
100
AcDbEntity
  8
0
100
AcDbLine
 62
7
  6
BYLAYER
 10
98.1615277501
 20
168.839063063
 11
98.1615277501
 21
165.839063063
  0
LINE
  5
261
100
AcDbEntity
  8
0
100
AcDbLine
 62
7
  6
BYLAYER
 10
54.9615277501
 20
140.139063063
 11
56.3615277501
 21
140.139063063
  0
LINE
  5
262
100
AcDbEntity
  8
0
100
AcDbLine
 62
7
  6
BYLAYER
 10
151.9615277501
 20
140.139063063
 11
153.3615277501
 21
140.139063063
  0
LINE
  5
263
100
AcDbEntity
  8
0
100
AcDbLine
 62
7
  6
BYLAYER
 10
110.1615277501
 20
165.839063063
 11
110.1615277501
 21
168.839063063
  0
LINE
  5
264
100
AcDbEntity
  8
0
100
AcDbLine
 62
7
  6
BYLAYER
 10
153.3615277501
 20
149.139063063
 11
151.9615277501
 21
149.139063063
  0
LINE
  5
265
100
AcDbEntity
  8
0
100
AcDbLine
 62
7
  6
BYLAYER
 10
56.3615277501
 20
149.139063063
 11
54.9615277501
 21
149.139063063
  0
LINE
  5
266
100
AcDbEntity
  8
0
100
AcDbLine
 62
7
  6
BYLAYER
 10
43.1615277501
 20
149.639063063
 11
63.7034878586
 21
149.639063063
  0
LINE
  5
267
100
AcDbEntity
  8
0
100
AcDbLine
 62
7
  6
BYLAYER
 10
69.6195676417
 20
149.639063063
 11
133.1909905771
 21
149.639063063
  0
LINE
  5
268
100
AcDbEntity
  8
0
100
AcDbLine
 62
7
  6
BYLAYER
 10
147.0625482646
 20
149.639063063
 11
165.1615277501
 21
149.639063063
  0
LINE
  5
269
100
AcDbEntity
  8
0
100
AcDbLine
 62
7
  6
BYLAYER
 10
42.6615277501
 20
150.639063063
 11
43.1615277501
 21
150.639063063
  0
LINE
  5
26A
100
AcDbEntity
  8
0
100
AcDbLine
 62
7
  6
BYLAYER
 10
165.1615277501
 20
150.639063063
 11
165.6615277501
 21
150.639063063
  0
LINE
  5
26B
100
AcDbEntity
  8
0
100
AcDbLine
 62
7
  6
BYLAYER
 10
142.6615277501
 20
116.689063063
 11
143.6615277501
 21
115.689063063
  0
LINE
  5
26C
100
AcDbEntity
  8
0
100
AcDbLine
 62
7
  6
BYLAYER
 10
114.1615277501
 20
118.839063063
 11
114.1615277501
 21
129.339063063
  0
LINE
  5
26D
100
AcDbEntity
  8
0
100
AcDbLine
 62
7
  6
BYLAYER
 10
85.1615277501
 20
115.689063063
 11
86.8069760173
 21
116.639063063
  0
LINE
  5
26E
100
AcDbEntity
  8
0
100
AcDbLine
 62
7
  6
BYLAYER
 10
123.1615277501
 20
111.089063063
 11
123.1615277501
 21
115.689063063
  0
LINE
  5
26F
100
AcDbEntity
  8
0
100
AcDbLine
 62
7
  6
BYLAYER
 10
124.9615277501
 20
216.289063063
 11
124.9615277501
 21
214.789063063
  0
LINE
  5
270
100
AcDbEntity
  8
0
100
AcDbLine
 62
7
  6
BYLAYER
 10
142.4148598498
 20
176.639063063
 11
137.9115277501
 21
168.839063063
  0
LINE
  5
271
100
AcDbEntity
  8
0
100
AcDbLine
 62
7
  6
BYLAYER
 10
110.1615277501
 20
165.839063063
 11
98.1615277501
 21
165.839063063
  0
LINE
  5
272
100
AcDbEntity
  8
0
100
AcDbLine
 62
7
  6
BYLAYER
 10
98.1615277501
 20
168.839063063
 11
70.4115277501
 21
168.839063063
  0
LINE
  5
273
100
AcDbEntity
  8
0
100
AcDbLine
 62
7
  6
BYLAYER
 10
110.1615277501
 20
168.839063063
 11
137.9115277501
 21
168.839063063
  0
LINE
  5
274
100
AcDbEntity
  8
0
100
AcDbLine
 62
7
  6
BYLAYER
 10
132.1615277501
 20
115.689063063
 11
132.1615277501
 21
113.589063063
  0
LINE
  5
275
100
AcDbEntity
  8
0
100
AcDbLine
 62
7
  6
BYLAYER
 10
134.6615277501
 20
115.689063063
 11
134.6615277501
 21
111.089063063
  0
LINE
  5
276
100
AcDbEntity
  8
0
100
AcDbLine
 62
7
  6
BYLAYER
 10
51.1615277501
 20
176.639063063
 11
65.9081956505
 21
176.639063063
  0
LINE
  5
277
100
AcDbEntity
  8
0
100
AcDbLine
 62
7
  6
BYLAYER
 10
142.4148598498
 20
176.639063063
 11
157.1615277501
 21
176.639063063
  0
LINE
  5
278
100
AcDbEntity
  8
0
100
AcDbLine
 62
7
  6
BYLAYER
 10
137.0615277501
 20
223.939063063
 11
137.0615277501
 21
218.289063063
  0
LINE
  5
279
100
AcDbEntity
  8
0
100
AcDbLine
 62
7
  6
BYLAYER
 10
137.0615277501
 20
212.789063063
 11
137.0615277501
 21
168.839063063
  0
LINE
  5
27A
100
AcDbEntity
  8
0
100
AcDbLine
 62
7
  6
BYLAYER
 10
139.2615277501
 20
174.6811986868
 11
139.2615277501
 21
223.145488201
  0
LINE
  5
27B
100
AcDbEntity
  8
0
100
AcDbLine
 62
7
  6
BYLAYER
 10
140.1615277501
 20
224.5202609095
 11
140.1615277501
 21
225.639063063
  0
LINE
  5
27C
100
AcDbEntity
  8
0
100
AcDbLine
 62
7
  6
BYLAYER
 10
141.4115277501
 20
177.639063063
 11
141.4115277501
 21
225.639063063
  0
LINE
  5
27D
100
AcDbEntity
  8
0
100
AcDbLine
 62
7
  6
BYLAYER
 10
143.6615277501
 20
115.689063063
 11
143.6615277501
 21
109.189063063
  0
LINE
  5
27E
100
AcDbEntity
  8
0
100
AcDbLine
 62
7
  6
BYLAYER
 10
145.6615277501
 20
110.689063063
 11
145.6615277501
 21
109.189063063
  0
LINE
  5
27F
100
AcDbEntity
  8
0
100
AcDbLine
 62
7
  6
BYLAYER
 10
147.6615277501
 20
110.689063063
 11
147.6615277501
 21
113.589063063
  0
LINE
  5
280
100
AcDbEntity
  8
0
100
AcDbLine
 62
7
  6
BYLAYER
 10
134.6615277501
 20
115.689063063
 11
135.6615277501
 21
116.689063063
  0
LINE
  5
281
100
AcDbEntity
  8
0
100
AcDbLine
 62
7
  6
BYLAYER
 10
140.5440320959
 20
173.398694341
 11
139.2615277501
 21
174.6811986868
  0
LINE
  5
282
100
AcDbEntity
  8
0
100
AcDbLine
 62
7
  6
BYLAYER
 10
154.1615277371
 20
60.5663760015
 11
154.1615277592
 21
61.2222191403
  0
LINE
  5
283
100
AcDbEntity
  8
0
100
AcDbLine
 62
7
  6
BYLAYER
 10
155.1615277501
 20
110.689063063
 11
155.1615277501
 21
115.689063063
  0
LINE
  5
284
100
AcDbEntity
  8
0
100
AcDbLine
 62
7
  6
BYLAYER
 10
155.1615277501
 20
115.689063063
 11
156.8069760173
 21
116.639063063
  0
LINE
  5
285
100
AcDbEntity
  8
0
100
AcDbLine
 62
7
  6
BYLAYER
 10
162.9115277501
 20
116.639063063
 11
162.9115277501
 21
65.339063063
  0
LINE
  5
286
100
AcDbEntity
  8
0
100
AcDbLine
 62
7
  6
BYLAYER
 10
163.0115277501
 20
63.339063063
 11
163.0115277501
 21
59.9755940152
  0
LINE
  5
287
100
AcDbEntity
  8
0
100
AcDbLine
 62
7
  6
BYLAYER
 10
163.5115277501
 20
65.339063063
 11
163.5115277501
 21
63.8390630631
  0
LINE
  5
288
100
AcDbEntity
  8
0
100
AcDbLine
 62
7
  6
BYLAYER
 10
165.0115277501
 20
61.9756596573
 11
165.0115277501
 21
65.339063063
  0
LINE
  5
289
100
AcDbEntity
  8
0
100
AcDbLine
 62
7
  6
BYLAYER
 10
165.1615277501
 20
168.639063063
 11
165.1615277501
 21
116.639063063
  0
LINE
  5
28A
100
AcDbEntity
  8
0
100
AcDbLine
 62
7
  6
BYLAYER
 10
165.6615277501
 20
117.839063063
 11
165.6615277501
 21
150.639063063
  0
LINE
  5
28B
100
AcDbEntity
  8
0
100
AcDbLine
 62
7
  6
BYLAYER
 10
165.9115277501
 20
65.339063063
 11
165.9115277501
 21
117.839063063
  0
LINE
  5
28C
100
AcDbEntity
  8
0
100
AcDbLine
 62
7
  6
BYLAYER
 10
71.1615277502
 20
229.139063063
 11
70.2955023464
 21
229.639063063
  0
LINE
  5
28D
100
AcDbEntity
  8
0
100
AcDbLine
 62
7
  6
BYLAYER
 10
168.2906990568
 20
125.739063063
 11
168.2906990568
 21
122.739063063
  0
LINE
  5
28E
100
AcDbEntity
  8
0
100
AcDbLine
 62
7
  6
BYLAYER
 10
169.1634904909
 20
125.739063063
 11
169.1634904909
 21
122.739063063
  0
LINE
  5
28F
100
AcDbEntity
  8
0
100
AcDbLine
 62
7
  6
BYLAYER
 10
170.1615277501
 20
122.739063063
 11
170.1615277501
 21
125.739063063
  0
LINE
  5
290
100
AcDbEntity
  8
0
100
AcDbLine
 62
7
  6
BYLAYER
 10
172.6615277501
 20
226.139063063
 11
172.6615277501
 21
229.139063063
  0
LINE
  5
291
100
AcDbEntity
  8
0
100
AcDbLine
 62
7
  6
BYLAYER
 10
82.8615277501
 20
214.289063063
 11
72.7615277501
 21
214.289063063
  0
LINE
  5
292
100
AcDbEntity
  8
0
100
AcDbLine
 62
7
  6
BYLAYER
 10
125.4615277501
 20
214.289063063
 11
135.5615277501
 21
214.289063063
  0
LINE
  5
293
100
AcDbEntity
  8
0
100
AcDbLine
 62
7
  6
BYLAYER
 10
135.5615277501
 20
216.789063063
 11
125.4615277501
 21
216.789063063
  0
LINE
  5
294
100
AcDbEntity
  8
0
100
AcDbLine
 62
7
  6
BYLAYER
 10
72.7615277501
 20
216.789063063
 11
82.8615277501
 21
216.789063063
  0
LINE
  5
295
100
AcDbEntity
  8
0
100
AcDbLine
 62
7
  6
BYLAYER
 10
185.1615277501
 20
125.739063063
 11
185.1615277501
 21
122.739063063
  0
LINE
  5
296
100
AcDbEntity
  8
0
100
AcDbLine
 62
7
  6
BYLAYER
 10
68.1615277501
 20
225.639063063
 11
36.1615277501
 21
225.639063063
  0
LINE
  5
297
100
AcDbEntity
  8
0
100
AcDbLine
 62
7
  6
BYLAYER
 10
140.1615277501
 20
225.639063063
 11
172.1615277501
 21
225.639063063
  0
LINE
  5
298
100
AcDbEntity
  8
0
100
AcDbLine
 62
7
  6
BYLAYER
 10
74.2615277501
 20
226.939063063
 11
134.0615277501
 21
226.939063063
  0
LINE
  5
299
100
AcDbEntity
  8
0
100
AcDbLine
 62
7
  6
BYLAYER
 10
137.1615277501
 20
229.139063063
 11
71.1615277502
 21
229.139063063
  0
LINE
  5
29A
100
AcDbEntity
  8
0
100
AcDbLine
 62
7
  6
BYLAYER
 10
172.1615277501
 20
229.639063063
 11
138.0275531539
 21
229.639063063
  0
LINE
  5
29B
100
AcDbEntity
  8
0
100
AcDbLine
 62
7
  6
BYLAYER
 10
36.1615277501
 20
229.639063063
 11
70.2955023464
 21
229.639063063
  0
ARC
  5
29C
100
AcDbEntity
  8
0
100
AcDbCircle
 62
7
  6
BYLAYER
 10
45.3115277501
 20
63.339063063
 40
2.0
100
AcDbArc
 50
180.0
 51
270.0
  0
ARC
  5
29D
100
AcDbEntity
  8
0
100
AcDbCircle
 62
7
  6
BYLAYER
 10
45.3115277501
 20
61.9755940152
 40
2.0
100
AcDbArc
 50
180.0
 51
270.0
  0
CIRCLE
  5
29E
100
AcDbEntity
  8
0
100
AcDbCircle
 62
7
  6
BYLAYER
 10
66.6615277501
 20
158.139063063
 40
9.0
  0
ARC
  5
29F
100
AcDbEntity
  8
0
100
AcDbCircle
 62
7
  6
BYLAYER
 10
51.1615277501
 20
168.639063063
 40
8.0
100
AcDbArc
 50
90.0
 51
180.0
  0
CIRCLE
  5
2A0
100
AcDbEntity
  8
0
100
AcDbCircle
 62
7
  6
BYLAYER
 10
66.6615277501
 20
158.139063063
 40
7.875
  0
ARC
  5
2A1
100
AcDbEntity
  8
0
100
AcDbCircle
 62
7
  6
BYLAYER
 10
56.3615277501
 20
144.639063063
 40
4.5
100
AcDbArc
 50
270.0
 51
90.0
  0
ARC
  5
2A2
100
AcDbEntity
  8
0
100
AcDbCircle
 62
7
  6
BYLAYER
 10
54.9615277501
 20
144.639063063
 40
4.5
100
AcDbArc
 50
90.0
 51
270.0
  0
ARC
  5
2A3
100
AcDbEntity
  8
0
100
AcDbCircle
 62
7
  6
BYLAYER
 10
74.2615277501
 20
223.939063063
 40
3.0
100
AcDbArc
 50
90.0
 51
180.0
  0
ARC
  5
2A4
100
AcDbEntity
  8
0
100
AcDbCircle
 62
7
  6
BYLAYER
 10
67.5615277501
 20
223.145488201
 40
1.5
100
AcDbArc
 50
0.0
 51
66.4218215218
  0
ARC
  5
2A5
100
AcDbEntity
  8
0
100
AcDbCircle
 62
7
  6
BYLAYER
 10
72.7615277501
 20
212.789063063
 40
1.5
100
AcDbArc
 50
90.0
 51
180.0
  0
ARC
  5
2A6
100
AcDbEntity
  8
0
100
AcDbCircle
 62
7
  6
BYLAYER
 10
72.7615277501
 20
218.289063063
 40
1.5
100
AcDbArc
 50
180.0
 51
270.0
  0
ARC
  5
2A7
100
AcDbEntity
  8
0
100
AcDbCircle
 62
7
  6
BYLAYER
 10
65.9115277501
 20
177.639063063
 40
1.0
100
AcDbArc
 50
270.0
 51
360.0
  0
ARC
  5
2A8
100
AcDbEntity
  8
0
100
AcDbCircle
 62
7
  6
BYLAYER
 10
36.1615277501
 20
229.139063063
 40
0.5
100
AcDbArc
 50
90.0
 51
180.0
  0
ARC
  5
2A9
100
AcDbEntity
  8
0
100
AcDbCircle
 62
7
  6
BYLAYER
 10
36.1615277501
 20
226.139063063
 40
0.5
100
AcDbArc
 50
180.0
 51
270.0
  0
ARC
  5
2AA
100
AcDbEntity
  8
0
100
AcDbCircle
 62
7
  6
BYLAYER
 10
82.8615277501
 20
214.789063063
 40
0.5
100
AcDbArc
 50
270.0
 51
360.0
  0
ARC
  5
2AB
100
AcDbEntity
  8
0
100
AcDbCircle
 62
7
  6
BYLAYER
 10
82.8615277501
 20
216.289063063
 40
0.5
100
AcDbArc
 50
0.0
 51
90.0
  0
ARC
  5
2AC
100
AcDbEntity
  8
0
100
AcDbCircle
 62
7
  6
BYLAYER
 10
154.1663523465
 20
-13.9064687515
 40
75.1311708929
100
AcDbArc
 50
88.5642194755
 51
90.0036792806
  0
ARC
  5
2AD
100
AcDbEntity
  8
0
100
AcDbCircle
 62
7
  6
BYLAYER
 10
154.1306683574
 20
-11.8292339484
 40
73.0539424527
100
AcDbArc
 50
89.9757971534
 51
91.4498494845
  0
ARC
  5
2AE
100
AcDbEntity
  8
0
100
AcDbCircle
 62
7
  6
BYLAYER
 10
156.3635985943
 20
35.9247638307
 40
25.2446330805
100
AcDbArc
 50
85.1422901009
 51
85.9899356123
  0
ARC
  5
2AF
100
AcDbEntity
  8
0
100
AcDbCircle
 62
7
  6
BYLAYER
 10
151.7945888057
 20
38.0362240161
 40
23.1267957112
100
AcDbArc
 50
94.041138504
 51
94.9792203873
  0
ARC
  5
2B0
100
AcDbEntity
  8
0
100
AcDbCircle
 62
7
  6
BYLAYER
 10
163.0115277501
 20
61.9755940152
 40
2.0
100
AcDbArc
 50
270.0
 51
360.0
  0
ARC
  5
2B1
100
AcDbEntity
  8
0
100
AcDbCircle
 62
7
  6
BYLAYER
 10
163.0115277501
 20
63.339063063
 40
2.0
100
AcDbArc
 50
270.0
 51
360.0
  0
ARC
  5
2B2
100
AcDbEntity
  8
0
100
AcDbCircle
 62
7
  6
BYLAYER
 10
141.6615277501
 20
158.139063063
 40
12.0
100
AcDbArc
 50
327.1842202332
 51
95.7627609185
  0
ARC
  5
2B3
100
AcDbEntity
  8
0
100
AcDbCircle
 62
7
  6
BYLAYER
 10
141.6615277501
 20
158.139063063
 40
12.0
100
AcDbArc
 50
131.7416984722
 51
287.5005112566
  0
ARC
  5
2B4
100
AcDbEntity
  8
0
100
AcDbCircle
 62
7
  6
BYLAYER
 10
157.1615277501
 20
168.639063063
 40
8.0
100
AcDbArc
 50
0.0
 51
90.0
  0
ARC
  5
2B5
100
AcDbEntity
  8
0
100
AcDbCircle
 62
7
  6
BYLAYER
 10
104.1615277501
 20
118.339063063
 40
7.85
100
AcDbArc
 50
192.5070950855
 51
347.4929049145
  0
ARC
  5
2B6
100
AcDbEntity
  8
0
100
AcDbCircle
 62
7
  6
BYLAYER
 10
151.9615277501
 20
144.639063063
 40
7.0
100
AcDbArc
 50
91.7597601582
 51
162.9244347594
  0
ARC
  5
2B7
100
AcDbEntity
  8
0
100
AcDbCircle
 62
7
  6
BYLAYER
 10
153.3615277501
 20
144.639063063
 40
4.5
100
AcDbArc
 50
270.0
 51
90.0
  0
ARC
  5
2B8
100
AcDbEntity
  8
0
100
AcDbCircle
 62
7
  6
BYLAYER
 10
151.9615277501
 20
144.639063063
 40
4.5
100
AcDbArc
 50
90.0
 51
270.0
  0
ARC
  5
2B9
100
AcDbEntity
  8
0
100
AcDbCircle
 62
7
  6
BYLAYER
 10
134.0615277501
 20
223.939063063
 40
3.0
100
AcDbArc
 50
0.0
 51
90.0
  0
ARC
  5
2BA
100
AcDbEntity
  8
0
100
AcDbCircle
 62
7
  6
BYLAYER
 10
140.7615277501
 20
223.145488201
 40
1.5
100
AcDbArc
 50
113.5781784782
 51
180.0
  0
ARC
  5
2BB
100
AcDbEntity
  8
0
100
AcDbCircle
 62
7
  6
BYLAYER
 10
135.5615277501
 20
218.289063063
 40
1.5
100
AcDbArc
 50
270.0
 51
360.0
  0
ARC
  5
2BC
100
AcDbEntity
  8
0
100
AcDbCircle
 62
7
  6
BYLAYER
 10
135.5615277501
 20
212.789063063
 40
1.5
100
AcDbArc
 50
0.0
 51
90.0
  0
ARC
  5
2BD
100
AcDbEntity
  8
0
100
AcDbCircle
 62
7
  6
BYLAYER
 10
133.0064714245
 20
167.839063063
 40
1.0
100
AcDbArc
 50
311.7416984723
 51
90.0
  0
ARC
  5
2BE
100
AcDbEntity
  8
0
100
AcDbCircle
 62
7
  6
BYLAYER
 10
140.3562021889
 20
171.0733633989
 40
1.0
100
AcDbArc
 50
149.9999999997
 51
275.7627609185
  0
ARC
  5
2BF
100
AcDbEntity
  8
0
100
AcDbCircle
 62
7
  6
BYLAYER
 10
142.4115277501
 20
177.639063063
 40
1.0
100
AcDbArc
 50
180.0
 51
270.0
  0
ARC
  5
2C0
100
AcDbEntity
  8
0
100
AcDbCircle
 62
7
  6
BYLAYER
 10
172.1615277501
 20
226.139063063
 40
0.5
100
AcDbArc
 50
270.0
 51
360.0
  0
ARC
  5
2C1
100
AcDbEntity
  8
0
100
AcDbCircle
 62
7
  6
BYLAYER
 10
172.1615277501
 20
229.139063063
 40
0.5
100
AcDbArc
 50
0.0
 51
90.0
  0
ARC
  5
2C2
100
AcDbEntity
  8
0
100
AcDbCircle
 62
7
  6
BYLAYER
 10
125.4615277501
 20
216.289063063
 40
0.5
100
AcDbArc
 50
90.0
 51
180.0
  0
ARC
  5
2C3
100
AcDbEntity
  8
0
100
AcDbCircle
 62
7
  6
BYLAYER
 10
125.4615277501
 20
214.789063063
 40
0.5
100
AcDbArc
 50
180.0
 51
270.0
  0
SPLINE
  5
2C4
100
AcDbEntity
  8
0
100
AcDbSpline
 62
7
  6
BYLAYER
 70
0
 71
3
 72
9
 73
5
 74
0
 42
0.0000001
 43
0.0000001
 44
0.0000000001
 40
0.0
 40
0.0
 40
0.0
 40
0.0
 40
0.4224158548
 40
1.0
 40
1.0
 40
1.0
 40
1.0
 10
49.3985063899
 20
59.9755955177
 30
0.0
 10
50.0691658665
 20
59.9756007909
 30
0.0
 10
51.6568356959
 20
59.9811386139
 30
0.0
 10
53.2445113211
 20
59.9831984861
 30
0.0
 10
54.1615277543
 20
59.9831869139
 30
0.0
  0
SPLINE
  5
2C5
100
AcDbEntity
  8
0
100
AcDbSpline
 62
7
  6
BYLAYER
 70
0
 71
3
 72
9
 73
5
 74
0
 42
0.0000001
 43
0.0000001
 44
0.0000000001
 40
0.0
 40
0.0
 40
0.0
 40
0.0
 40
0.5775826971
 40
1.0
 40
1.0
 40
1.0
 40
1.0
 10
54.1615277543
 20
59.9831869139
 30
0.0
 10
55.078541904
 20
59.9831973975
 30
0.0
 10
56.6662175563
 20
59.9811389718
 30
0.0
 10
58.2538874127
 20
59.9756008242
 30
0.0
 10
58.9245491998
 20
59.9755955249
 30
0.0
  0
SPLINE
  5
2C6
100
AcDbEntity
  8
0
100
AcDbSpline
 62
7
  6
BYLAYER
 70
0
 71
3
 72
19
 73
15
 74
0
 42
0.0000001
 43
0.0000001
 44
0.0000000001
 40
0.0
 40
0.0
 40
0.0
 40
0.0
 40
0.0731367497
 40
0.109107033
 40
0.1444348166
 40
0.2137286723
 40
0.2789732194
 40
0.3393379909
 40
0.3957500824
 40
0.5010569381
 40
0.6056642511
 40
0.7217271608
 40
0.8560115984
 40
1.0
 40
1.0
 40
1.0
 40
1.0
 10
163.0115277501
 20
63.339063063
 30
0.0
 10
163.0083593052
 20
63.2475165327
 30
0.0
 10
163.0135388898
 20
63.1097724055
 30
0.0
 10
163.0543199985
 20
62.9328307541
 30
0.0
 10
163.1223907238
 20
62.7696730522
 30
0.0
 10
163.2350329275
 20
62.5885836353
 30
0.0
 10
163.3450757671
 20
62.3708206269
 30
0.0
 10
163.4710329331
 20
62.1790426496
 30
0.0
 10
163.6829734665
 20
61.9923893728
 30
0.0
 10
164.026374843
 20
61.9055410936
 30
0.0
 10
164.4346322956
 20
62.0257351902
 30
0.0
 10
164.7603049661
 20
62.3497625128
 30
0.0
 10
164.9638673716
 20
62.8083010863
 30
0.0
 10
165.0115277501
 20
63.1587223835
 30
0.0
 10
165.0115277501
 20
63.339063063
 30
0.0
  0
SPLINE
  5
2C7
100
AcDbEntity
  8
0
100
AcDbSpline
 62
7
  6
BYLAYER
 70
0
 71
3
 72
9
 73
5
 74
0
 42
0.0000001
 43
0.0000001
 44
0.0000000001
 40
0.0
 40
0.0
 40
0.0
 40
0.0
 40
0.2763290434
 40
1.0
 40
1.0
 40
1.0
 40
1.0
 10
156.0488746436
 20
61.2011137521
 30
0.0
 10
156.2406124124
 20
61.1961874875
 30
0.0
 10
156.9343871502
 20
61.1752302351
 30
0.0
 10
157.6279328815
 20
61.1428215087
 30
0.0
 10
158.1289987389
 20
61.1075925379
 30
0.0
  0
SPLINE
  5
2C8
100
AcDbEntity
  8
0
100
AcDbSpline
 62
7
  6
BYLAYER
 70
0
 71
3
 72
9
 73
5
 74
0
 42
0.0000001
 43
0.0000001
 44
0.0000000001
 40
0.0
 40
0.0
 40
0.0
 40
0.0
 40
0.5872784055
 40
1.0
 40
1.0
 40
1.0
 40
1.0
 10
158.501351889
 20
61.0787199851
 30
0.0
 10
158.6828743485
 20
61.0631717944
 30
0.0
 10
158.9915449946
 20
61.0326507267
 30
0.0
 10
159.2991307703
 20
60.9891929696
 30
0.0
 10
159.4244852743
 20
60.9631282151
 30
0.0
  0
SPLINE
  5
2C9
100
AcDbEntity
  8
0
100
AcDbSpline
 62
7
  6
BYLAYER
 70
0
 71
3
 72
16
 73
12
 74
0
 42
0.0000001
 43
0.0000001
 44
0.0000000001
 40
0.0
 40
0.0
 40
0.0
 40
0.0
 40
0.3571576592
 40
0.4577641242
 40
0.5149651842
 40
0.5387736643
 40
0.5686298093
 40
0.6087513972
 40
0.6609243511
 40
0.8040115849
 40
1.0
 40
1.0
 40
1.0
 40
1.0
 10
159.4244852743
 20
60.9631282151
 30
0.0
 10
159.4837542462
 20
60.9508045159
 30
0.0
 10
159.5610742576
 20
60.9324818368
 30
0.0
 10
159.6391266056
 20
60.8983650705
 30
0.0
 10
159.6638018887
 20
60.8730577147
 30
0.0
 10
159.6593788737
 20
60.8534156956
 30
0.0
 10
159.6482802506
 20
60.8415374286
 30
0.0
 10
159.6309631324
 20
60.8300774781
 30
0.0
 10
159.5946635668
 20
60.8132499242
 30
0.0
 10
159.5309838057
 20
60.7940327505
 30
0.0
 10
159.4748289444
 20
60.781766495
 30
0.0
 10
159.4422237259
 20
60.7754093913
 30
0.0
  0
SPLINE
  5
2CA
100
AcDbEntity
  8
0
100
AcDbSpline
 62
7
  6
BYLAYER
 70
0
 71
3
 72
12
 73
8
 74
0
 42
0.0000001
 43
0.0000001
 44
0.0000000001
 40
0.0
 40
0.0
 40
0.0
 40
0.0
 40
0.059967738
 40
0.1439357183
 40
0.3751641676
 40
0.6705433607
 40
1.0
 40
1.0
 40
1.0
 40
1.0
 10
159.4422237259
 20
60.7754093913
 30
0.0
 10
159.3384660435
 20
60.7551795515
 30
0.0
 10
159.0866197336
 20
60.7218526864
 30
0.0
 10
158.4279274643
 20
60.6630425514
 30
0.0
 10
157.3523914033
 20
60.6119592486
 30
0.0
 10
155.8438188531
 20
60.5744445639
 30
0.0
 10
154.7422954801
 20
60.5663774264
 30
0.0
 10
154.1615277476
 20
60.5663648511
 30
0.0
  0
SPLINE
  5
2CB
100
AcDbEntity
  8
0
100
AcDbSpline
 62
7
  6
BYLAYER
 70
0
 71
3
 72
12
 73
8
 74
0
 42
0.0000001
 43
0.0000001
 44
0.0000000001
 40
0.0
 40
0.0
 40
0.0
 40
0.0
 40
0.3287629998
 40
0.6237620856
 40
0.8551767932
 40
0.9394982344
 40
1.0
 40
1.0
 40
1.0
 40
1.0
 10
154.1615277476
 20
60.5663648511
 30
0.0
 10
153.5827821756
 20
60.5663783965
 30
0.0
 10
152.4846704283
 20
60.5743973923
 30
0.0
 10
150.9797314222
 20
60.6116615126
 30
0.0
 10
149.9054024844
 20
60.6624697897
 30
0.0
 10
149.2456843715
 20
60.7208619726
 30
0.0
 10
148.9926046737
 20
60.753989751
 30
0.0
 10
148.8879998104
 20
60.7740218201
 30
0.0
  0
SPLINE
  5
2CC
100
AcDbEntity
  8
0
100
AcDbSpline
 62
7
  6
BYLAYER
 70
0
 71
3
 72
16
 73
12
 74
0
 42
0.0000001
 43
0.0000001
 44
0.0000000001
 40
0.0
 40
0.0
 40
0.0
 40
0.0
 40
0.1962766041
 40
0.3394718047
 40
0.3916018771
 40
0.4315939412
 40
0.4612181813
 40
0.4847148215
 40
0.5415074744
 40
0.6421309284
 40
1.0
 40
1.0
 40
1.0
 40
1.0
 10
148.8879998104
 20
60.7740218201
 30
0.0
 10
148.8543290131
 20
60.7804698543
 30
0.0
 10
148.7963475141
 20
60.792913703
 30
0.0
 10
148.7305809226
 20
60.8124211585
 30
0.0
 10
148.6930731823
 20
60.8295186019
 30
0.0
 10
148.6752083767
 20
60.8411570952
 30
0.0
 10
148.6637353676
 20
60.8532099377
 30
0.0
 10
148.6591788672
 20
60.8733055569
 30
0.0
 10
148.6849082946
 20
60.8990387795
 30
0.0
 10
148.7654659009
 20
60.9336256067
 30
0.0
 10
148.8454084872
 20
60.9522721293
 30
0.0
 10
148.9066492029
 20
60.9647910382
 30
0.0
  0
SPLINE
  5
2CD
100
AcDbEntity
  8
0
100
AcDbSpline
 62
7
  6
BYLAYER
 70
0
 71
3
 72
9
 73
5
 74
0
 42
0.0000001
 43
0.0000001
 44
0.0000000001
 40
0.0
 40
0.0
 40
0.0
 40
0.0
 40
0.415835559
 40
1.0
 40
1.0
 40
1.0
 40
1.0
 10
148.9066492029
 20
60.9647910382
 30
0.0
 10
149.0272310605
 20
60.9894405424
 30
0.0
 10
149.320607505
 20
61.0311617481
 30
0.0
 10
149.615071568
 20
61.0606952357
 30
0.0
 10
149.7873114201
 20
61.0757447872
 30
0.0
  0
SPLINE
  5
2CE
100
AcDbEntity
  8
0
100
AcDbSpline
 62
7
  6
BYLAYER
 70
0
 71
3
 72
9
 73
5
 74
0
 42
0.0000001
 43
0.0000001
 44
0.0000000001
 40
0.0
 40
0.0
 40
0.0
 40
0.0
 40
0.2197194467
 40
1.0
 40
1.0
 40
1.0
 40
1.0
 10
150.1647808608
 20
61.1055197559
 30
0.0
 10
150.3196374296
 20
61.1165670801
 30
0.0
 10
151.024839088
 20
61.1610770655
 30
0.0
 10
151.7311082308
 20
61.1872277004
 30
0.0
 10
152.2822613981
 20
61.2013206133
 30
0.0
  0
SPLINE
  5
2CF
100
AcDbEntity
  8
0
100
AcDbSpline
 62
7
  6
BYLAYER
 70
0
 71
3
 72
17
 73
13
 74
0
 42
0.0000001
 43
0.0000001
 44
0.0000000001
 40
0.0
 40
0.0
 40
0.0
 40
0.0
 40
0.1416521831
 40
0.2718255402
 40
0.3357623143
 40
0.3948282824
 40
0.44832769
 40
0.4993503723
 40
0.6042533585
 40
0.7223419774
 40
0.8560529873
 40
1.0
 40
1.0
 40
1.0
 40
1.0
 10
43.3115277501
 20
63.339063063
 30
0.0
 10
43.3115277501
 20
63.1610823927
 30
0.0
 10
43.3542641737
 20
62.8162911579
 30
0.0
 10
43.5392102123
 20
62.4290013791
 30
0.0
 10
43.739730535
 20
62.1802629485
 30
0.0
 10
43.9136011563
 20
62.0389922681
 30
0.0
 10
44.1048180742
 20
61.9559231092
 30
0.0
 10
44.3695397011
 20
61.9255142068
 30
0.0
 10
44.7139425437
 20
62.0282112396
 30
0.0
 10
45.0521081499
 20
62.3442281864
 30
0.0
 10
45.2515426867
 20
62.8105266731
 30
0.0
 10
45.3031975265
 20
63.1583909634
 30
0.0
 10
45.3115277501
 20
63.339063063
 30
0.0
  0
SPLINE
  5
2D0
100
AcDbEntity
  8
0
100
AcDbSpline
 62
7
  6
BYLAYER
 70
0
 71
3
 72
9
 73
5
 74
0
 42
0.0000001
 43
0.0000001
 44
0.0000000001
 40
0.0
 40
0.0
 40
0.0
 40
0.0
 40
0.5002023348
 40
1.0
 40
1.0
 40
1.0
 40
1.0
 10
163.0115277501
 20
63.339063063
 30
0.0
 10
163.1363822655
 20
63.3447790493
 30
0.0
 10
163.3770678156
 20
63.4727504896
 30
0.0
 10
163.5076358471
 20
63.714239547
 30
0.0
 10
163.5115277501
 20
63.8390630631
 30
0.0
  0
SPLINE
  5
2D1
100
AcDbEntity
  8
0
100
AcDbSpline
 62
7
  6
BYLAYER
 70
0
 71
3
 72
9
 73
5
 74
0
 42
0.0000001
 43
0.0000001
 44
0.0000000001
 40
0.0
 40
0.0
 40
0.0
 40
0.0
 40
0.4991555286
 40
1.0
 40
1.0
 40
1.0
 40
1.0
 10
44.8115277502
 20
63.8390630631
 30
0.0
 10
44.8142060556
 20
63.7145877204
 30
0.0
 10
44.9490227296
 20
63.4735230663
 30
0.0
 10
45.1870021426
 20
63.3490498097
 30
0.0
 10
45.3115277501
 20
63.339063063
 30
0.0
  0
ENDSEC
  0
SECTION
  2
OBJECTS
  0
DICTIONARY
  5
C
100
AcDbDictionary
280
0
281
1
  3
ACAD_GROUP
350
D
  3
ACAD_MLINESTYLE
350
17
  3
ACAD_LAYOUT
350
1A
  3
ACAD_PLOTSETTINGS
350
19
  3
ACAD_PLOTSTYLENAME
350
E
  0
DICTIONARY
  5
D
102
{ACAD_REACTORS
330
C
102
}
100
AcDbDictionary
280
0
281
1
  0
ACDBDICTIONARYWDFLT
  5
E
102
{ACAD_REACTORS
330
C
102
}
100
AcDbDictionary
281
1
  3
Normal
350
F
100
AcDbDictionaryWithDefault
340
F
  0
DICTIONARY
  5
17
102
{ACAD_REACTORS
330
C
102
}
100
AcDbDictionary
280
0
281
1
  3
Standard
350
18
  0
DICTIONARY
  5
19
102
{ACAD_REACTORS
330
C
102
}
100
AcDbDictionary
281
1
  0
DICTIONARY
  5
1A
102
{ACAD_REACTORS
330
C
102
}
100
AcDbDictionary
281
1
  3
Model
350
2D2
  3
Layout1
350
2D3
  0
ACDBPLACEHOLDER
  5
F
102
{ACAD_REACTORS
330
E
102
}
  0
MLINESTYLE
  5
18
102
{ACAD_REACTORS
330
17
102
}
100
AcDbMlineStyle
  2
STANDARD
 70
0
  3

 62
256
 51
90.0
 52
90.0
 71
2
 49
0.5
 62
256
  6
BYLAYER
 49
-0.5
 62
256
  6
BYLAYER
  0
LAYOUT
  5
2D2
102
{ACAD_REACTORS
330
1A
102
}
100
AcDbPlotSettings
  1

  2
none_device
  4

  6

 40
0.0
 41
0.0
 42
0.0
 43
0.0
 44
210.0
 45
297.0
 46
0.0
 47
0.0
 48
0.0
 49
0.0
140
0.0
141
0.0
142
1.0
143
1.0
 70
1024
 72
1
 73
0
 74
0
  7

 75
0
147
1.0
148
0.0
149
0.0
100
AcDbLayout
  1
Model
 70
0
 71
0
 10
0.0
 20
0.0
 11
210.0
 21
297.0
 12
0.0
 22
0.0
 32
0.0
 14
0.0
 24
0.0
 34
0.0
 15
0.0
 25
0.0
 35
0.0
146
0.0
 13
0.0
 23
0.0
 33
0.0
 16
1.0
 26
0.0
 36
0.0
 17
0.0
 27
1.0
 37
0.0
 76
0
330
210
345
0
346
0
  0
LAYOUT
  5
2D3
102
{ACAD_REACTORS
330
1A
102
}
100
AcDbPlotSettings
  1

  2
none_device
  4

  6

 40
0.0
 41
0.0
 42
0.0
 43
0.0
 44
210.0
 45
297.0
 46
0.0
 47
0.0
 48
0.0
 49
0.0
140
0.0
141
0.0
142
1.0
143
1.0
 70
0
 72
1
 73
0
 74
0
  7

 75
0
147
1.0
148
0.0
149
0.0
100
AcDbLayout
  1
Layout1
 70
0
 71
1
 10
0.0
 20
0.0
 11
210.0
 21
297.0
 12
0.0
 22
0.0
 32
0.0
 14
0.0
 24
0.0
 34
0.0
 15
0.0
 25
0.0
 35
0.0
146
0.0
 13
0.0
 23
0.0
 33
0.0
 16
1.0
 26
0.0
 36
0.0
 17
0.0
 27
1.0
 37
0.0
 76
0
330
211
345
0
346
0
  0
ENDSEC
  0
EOF
