999
DXF file: C:\Users\sesa63760\Dev\_Creo\CAD\MCADID0005752_3D-CAD\mcadid0005752_3d-simplified_7.dxf
999
Pro/ENGINEER 2019471 by Parametric Technology Corporation
  0
SECTION
  2
HEADER
  9
$ACADVER
  1
AC1024
  9
$DWGCODEPAGE
  3
ANSI_1252
  9
$EXTMAX
 10
65.7312814074
 20
92.9628122762
 30
0.0
  9
$EXTMIN
 10
0.0
 20
0.0
 30
0.0
  9
$LIMMIN
 10
0.0
 20
0.0
  9
$LIMMAX
 10
65.7312814074
 20
92.9628122762
  9
$VIEWCTR
 10
32.8656407037
 20
46.4814061381
  9
$VIEWSIZE
 40
92.9628122762
  9
$CLAYER
  8
0
  9
$LTSCALE
 40
6.0597981336
  9
$CELTYPE
  6
BYLAYER
  9
$DIMSCALE
 40
1.0
  9
$DIMASZ
 40
0.7825152549
  9
$DIMEXO
 40
1.0
  9
$DIMDLI
 40
4.1867696196
  9
$DIMEXE
 40
1.0
  9
$DIMCEN
 40
0.9916033309
  9
$DIMLFAC
 40
1.0
  9
$DIMBLK
  1
_FILLED
  9
$DIMALT
 70
0
  9
$DIMALTF
 40
0.0393700787
  9
$DIMTXT
 40
1.0955213568
  9
$DIMTOL
 70
1
  9
$DIMLIM
 70
0
  9
$DIMTFAC
 40
1.0
  9
$DIMTP
 40
0.01
  9
$DIMTM
 40
0.01
  9
$DIMGAP
 40
0.625
  9
$DIMDSEP
 70
46
  9
$AUNITS
 70
0
  9
$PDMODE
 70
3
  9
$PDSIZE
 40
0.3125
  9
$HANDSEED
  5
479
  9
$TILEMODE
 70
1
  9
$MEASUREMENT
 70
1
  9
$INSUNITS
 70
4
  0
ENDSEC
  0
SECTION
  2
CLASSES
  0
CLASS
  1
ACDBDICTIONARYWDFLT
  2
AcDbDictionaryWithDefault
  3
AutoCAD 2000
 90
0
 91
1
280
0
281
0
  0
CLASS
  1
ACDBPLACEHOLDER
  2
AcDbPlaceHolder
  3
AutoCAD 2000
 90
0
 91
1
280
0
281
0
  0
CLASS
  1
LAYOUT
  2
AcDbLayout
  3
AutoCAD 2000
 90
0
 91
0
280
0
281
0
  0
ENDSEC
  0
SECTION
  2
TABLES
  0
TABLE
  2
VPORT
  5
8
100
AcDbSymbolTable
 70
2
  0
VPORT
  5
1F4
100
AcDbSymbolTableRecord
100
AcDbViewportTableRecord
  2
*ACTIVE
 70
0
 10
0.0
 20
0.0
 11
1.0
 21
1.0
 12
32.8656407037
 22
46.4814061381
 13
0.0
 23
0.0
 14
1.0
 24
1.0
 15
0.0
 25
0.0
 16
0.0
 26
0.0
 36
1.0
 17
0.0
 27
0.0
 37
0.0
 40
92.9628122762
 41
0.7070707071
 42
50.0
 43
0.0
 44
0.0
 50
0.0
 51
0.0
 71
0
 72
100
 73
1
 74
1
 75
0
 76
0
 77
0
 78
0
  0
ENDTAB
  0
TABLE
  2
LTYPE
  5
5
100
AcDbSymbolTable
 70
6
  0
LTYPE
  5
14
100
AcDbSymbolTableRecord
100
AcDbLinetypeTableRecord
  2
BYBLOCK
 70
0
  3

 72
65
 73
0
 40
0.0
  0
LTYPE
  5
15
100
AcDbSymbolTableRecord
100
AcDbLinetypeTableRecord
  2
BYLAYER
 70
0
  3

 72
65
 73
0
 40
0.0
  0
LTYPE
  5
16
100
AcDbSymbolTableRecord
100
AcDbLinetypeTableRecord
  2
CONTINUOUS
 70
64
  3
Solid line
 72
65
 73
0
 40
0.0
  0
LTYPE
  5
1F5
100
AcDbSymbolTableRecord
100
AcDbLinetypeTableRecord
  2
CENTER
 70
64
  3
____ _ ____ _ ____ _ ____ _ ____ _ ____ _ ____
 72
65
 73
4
 40
0.6
 49
0.375
 74
0
 49
-0.075
 74
0
 49
0.075
 74
0
 49
-0.075
 74
0
  0
LTYPE
  5
1F6
100
AcDbSymbolTableRecord
100
AcDbLinetypeTableRecord
  2
HIDDEN
 70
64
  3
- - - - - - - - - - - - - - - - - - - -
 72
65
 73
2
 40
0.2
 49
0.1
 74
0
 49
-0.1
 74
0
  0
LTYPE
  5
1F7
100
AcDbSymbolTableRecord
100
AcDbLinetypeTableRecord
  2
PHANTOM
 70
64
  3
_____ _ _ _____ _ _ _____ _ _ _____
 72
65
 73
6
 40
0.8
 49
0.45
 74
0
 49
-0.05
 74
0
 49
0.1
 74
0
 49
-0.05
 74
0
 49
0.1
 74
0
 49
-0.05
 74
0
  0
LTYPE
  5
1F8
100
AcDbSymbolTableRecord
100
AcDbLinetypeTableRecord
  2
DOT
 70
64
  3
. . . . . . . . . . . . . . . . . . . .
 72
65
 73
2
 40
0.2
 49
0.1
 74
0
 49
-0.1
 74
0
  0
LTYPE
  5
1F9
100
AcDbSymbolTableRecord
100
AcDbLinetypeTableRecord
  2
DASHED
 70
64
  3
- - - - - - - - - - - - - - - - - - - -
 72
65
 73
2
 40
0.2
 49
0.1
 74
0
 49
-0.1
 74
0
  0
ENDTAB
  0
TABLE
  2
LAYER
  5
2
100
AcDbSymbolTable
 70
36
  0
LAYER
  5
10
100
AcDbSymbolTableRecord
100
AcDbLayerTableRecord
  2
0
 70
0
 62
7
  6
CONTINUOUS
370
-3
390
F
  0
LAYER
  5
1FA
100
AcDbSymbolTableRecord
100
AcDbLayerTableRecord
  2
DEFAULT_1
 70
0
 62
7
  6
CENTER
370
-3
390
F
  0
LAYER
  5
1FB
100
AcDbSymbolTableRecord
100
AcDbLayerTableRecord
  2
DEFAULT_2
 70
0
 62
7
  6
HIDDEN
370
-3
390
F
  0
LAYER
  5
1FC
100
AcDbSymbolTableRecord
100
AcDbLayerTableRecord
  2
DEFAULT_3
 70
0
 62
7
  6
PHANTOM
370
-3
390
F
  0
LAYER
  5
1FD
100
AcDbSymbolTableRecord
100
AcDbLayerTableRecord
  2
00_COMPONENTS
 70
0
 62
7
  6
CONTINUOUS
370
-3
390
F
  0
LAYER
  5
1FE
100
AcDbSymbolTableRecord
100
AcDbLayerTableRecord
  2
01_1_DEFAULT_DATUMS
 70
0
 62
7
  6
CONTINUOUS
370
-3
390
F
  0
LAYER
  5
1FF
100
AcDbSymbolTableRecord
100
AcDbLayerTableRecord
  2
01_PLANES
 70
0
 62
7
  6
CONTINUOUS
370
-3
390
F
  0
LAYER
  5
200
100
AcDbSymbolTableRecord
100
AcDbLayerTableRecord
  2
02_COORD_SYS
 70
0
 62
7
  6
CONTINUOUS
370
-3
390
F
  0
LAYER
  5
201
100
AcDbSymbolTableRecord
100
AcDbLayerTableRecord
  2
03_AXES
 70
0
 62
7
  6
CONTINUOUS
370
-3
390
F
  0
LAYER
  5
202
100
AcDbSymbolTableRecord
100
AcDbLayerTableRecord
  2
04_POINTS
 70
0
 62
7
  6
CONTINUOUS
370
-3
390
F
  0
LAYER
  5
203
100
AcDbSymbolTableRecord
100
AcDbLayerTableRecord
  2
05_CURVES
 70
0
 62
7
  6
CONTINUOUS
370
-3
390
F
  0
LAYER
  5
204
100
AcDbSymbolTableRecord
100
AcDbLayerTableRecord
  2
06_SURFS
 70
0
 62
7
  6
CONTINUOUS
370
-3
390
F
  0
LAYER
  5
205
100
AcDbSymbolTableRecord
100
AcDbLayerTableRecord
  2
07_COSMETICS
 70
0
 62
7
  6
CONTINUOUS
370
-3
390
F
  0
LAYER
  5
206
100
AcDbSymbolTableRecord
100
AcDbLayerTableRecord
  2
10_NOTES
 70
0
 62
7
  6
CONTINUOUS
370
-3
390
F
  0
LAYER
  5
207
100
AcDbSymbolTableRecord
100
AcDbLayerTableRecord
  2
11_NOTES_PUB
 70
0
 62
7
  6
CONTINUOUS
370
-3
390
F
  0
LAYER
  5
208
100
AcDbSymbolTableRecord
100
AcDbLayerTableRecord
  2
13452
 70
0
 62
7
  6
CONTINUOUS
370
-3
390
F
  0
LAYER
  5
209
100
AcDbSymbolTableRecord
100
AcDbLayerTableRecord
  2
13_REF_GTOL
 70
0
 62
7
  6
CONTINUOUS
370
-3
390
F
  0
LAYER
  5
20A
100
AcDbSymbolTableRecord
100
AcDbLayerTableRecord
  2
16_MISC
 70
0
 62
7
  6
CONTINUOUS
370
-3
390
F
  0
LAYER
  5
20B
100
AcDbSymbolTableRecord
100
AcDbLayerTableRecord
  2
17_NO_PRINT
 70
0
 62
7
  6
CONTINUOUS
370
-3
390
F
  0
LAYER
  5
20C
100
AcDbSymbolTableRecord
100
AcDbLayerTableRecord
  2
18_DATUM_CAMS_JOINTS
 70
0
 62
7
  6
CONTINUOUS
370
-3
390
F
  0
LAYER
  5
20D
100
AcDbSymbolTableRecord
100
AcDbLayerTableRecord
  2
19_DATUM_FUNCTIONAL
 70
0
 62
7
  6
CONTINUOUS
370
-3
390
F
  0
LAYER
  5
20E
100
AcDbSymbolTableRecord
100
AcDbLayerTableRecord
  2
20_DATUM_KINEMATIC_SCHEME
 70
0
 62
7
  6
CONTINUOUS
370
-3
390
F
  0
LAYER
  5
20F
100
AcDbSymbolTableRecord
100
AcDbLayerTableRecord
  2
INTF_YELLOW
 70
0
 62
7
  6
CONTINUOUS
370
-3
390
F
  0
ENDTAB
  0
TABLE
  2
STYLE
  5
3
100
AcDbSymbolTable
 70
1
  0
STYLE
  5
11
100
AcDbSymbolTableRecord
100
AcDbTextStyleTableRecord
  2
STANDARD
 70
0
 40
0.0
 41
1.0
 50
0.0
 71
0
 42
0.2
  3
ARIAL.TTF
  4

  0
STYLE
  5
210
100
AcDbSymbolTableRecord
100
AcDbTextStyleTableRecord
  2
TEXTSTYLE_1
 70
0
 40
0.0
 41
0.8
 50
0.0
 71
0
 42
0.2
  3
gdt
  4

  0
ENDTAB
  0
TABLE
  2
VIEW
  5
6
100
AcDbSymbolTable
 70
0
  0
ENDTAB
  0
TABLE
  2
UCS
  5
7
100
AcDbSymbolTable
 70
0
  0
ENDTAB
  0
TABLE
  2
APPID
  5
9
100
AcDbSymbolTable
 70
1
  0
APPID
  5
211
100
AcDbSymbolTableRecord
100
AcDbRegAppTableRecord
  2
ACAD
 70
0
  0
ENDTAB
  0
TABLE
  2
BLOCK_RECORD
  5
1
100
AcDbSymbolTable
 70
0
  0
BLOCK_RECORD
  5
212
100
AcDbSymbolTableRecord
100
AcDbBlockTableRecord
  2
*Model_Space
  0
BLOCK_RECORD
  5
213
100
AcDbSymbolTableRecord
100
AcDbBlockTableRecord
  2
*Paper_Space
  0
BLOCK_RECORD
  5
214
100
AcDbSymbolTableRecord
100
AcDbBlockTableRecord
  2
_FILLED
  0
ENDTAB
  0
TABLE
  2
DIMSTYLE
  5
A
100
AcDbSymbolTable
 70
1
100
AcDbDimStyleTable
 71
0
  0
DIMSTYLE
105
215
100
AcDbSymbolTableRecord
100
AcDbDimStyleTableRecord
  2
STANDARD
 70
0
  3

  4

 40
1.0
 41
0.7825152549
 42
1.0
 43
0.38
 44
1.0
 45
0.0
 46
0.0
 47
0.01
 48
0.01
140
1.0955213568
141
0.09
142
0.0
143
25.4
144
1.0
145
0.0
146
1.0
147
0.625
 71
1
 72
0
 73
0
 74
0
 75
0
 76
0
 77
1
 78
8
 79
2
170
0
171
1
172
0
173
0
174
0
175
0
176
0
177
0
178
0
270
2
179
2
271
2
272
2
273
2
274
2
275
0
280
0
281
0
282
0
283
1
284
8
285
0
286
0
287
3
288
0
340
11
278
46
341
214
342
214
343
214
344
214
  0
ENDTAB
  0
ENDSEC
  0
SECTION
  2
BLOCKS
  0
BLOCK
  5
20
100
AcDbEntity
  8
0
100
AcDbBlockBegin
  2
*Model_Space
 70
0
 10
0.0
 20
0.0
 30
0.0
  3
*Model_Space
  1

  0
ENDBLK
  5
21
100
AcDbEntity
  8
0
100
AcDbBlockEnd
  0
BLOCK
  5
1C
100
AcDbEntity
  8
0
100
AcDbBlockBegin
  2
*Paper_Space
 70
0
 10
0.0
 20
0.0
 30
0.0
  3
*Paper_Space
  1

  0
ENDBLK
  5
1D
100
AcDbEntity
  8
0
100
AcDbBlockEnd
  0
BLOCK
  5
216
100
AcDbEntity
  8
0
100
AcDbBlockBegin
  2
_FILLED
 70
64
 10
0.0
 20
0.0
  3
_FILLED
  1

  0
SOLID
  5
217
100
AcDbEntity
  8
0
  6
BYBLOCK
 62
0
100
AcDbTrace
 10
0.0
 20
0.0
 11
-1.0
 21
0.25
 12
-1.0
 22
-0.25
 13
-1.0
 23
-0.25
  0
ENDBLK
  5
218
100
AcDbEntity
  8
0
  6
BYBLOCK
 62
0
100
AcDbBlockEnd
  0
ENDSEC
  0
SECTION
  2
ENTITIES
  0
LWPOLYLINE
  5
219
100
AcDbEntity
  8
0
100
AcDbPolyline
 62
7
  6
BYLAYER
 90
3
 70
0
 10
53.3208163167
 20
11.3198927569
 10
53.7892847813
 20
11.4364125586
 10
54.2943335222
 20
12.091281859
  0
LWPOLYLINE
  5
21A
100
AcDbEntity
  8
0
100
AcDbPolyline
 62
7
  6
BYLAYER
 90
3
 70
0
 10
11.6645238371
 20
12.0912611978
 10
12.1601269839
 20
11.4414832098
 10
12.6380358373
 20
11.3198925501
  0
LINE
  5
21B
100
AcDbEntity
  8
0
100
AcDbLine
 62
7
  6
BYLAYER
 10
12.6380358376
 20
11.3198953622
 11
53.3208163166
 21
11.3198953622
  0
LINE
  5
21C
100
AcDbEntity
  8
0
100
AcDbLine
 62
7
  6
BYLAYER
 10
53.360447766
 20
11.5131709132
 11
12.5984047846
 21
11.5131709132
  0
LINE
  5
21D
100
AcDbEntity
  8
0
100
AcDbLine
 62
7
  6
BYLAYER
 10
14.6350050064
 20
76.9625647336
 11
14.6349342585
 21
76.9624884252
  0
LINE
  5
21E
100
AcDbEntity
  8
0
100
AcDbLine
 62
7
  6
BYLAYER
 10
18.2255156928
 20
75.5486212263
 11
18.434857166
 21
75.6298550176
  0
LINE
  5
21F
100
AcDbEntity
  8
0
100
AcDbLine
 62
7
  6
BYLAYER
 10
14.9794262753
 20
13.9284394445
 11
50.9794262753
 21
13.9284394445
  0
LINE
  5
220
100
AcDbEntity
  8
0
100
AcDbLine
 62
7
  6
BYLAYER
 10
50.9794262753
 20
14.3383424737
 11
14.9794262753
 21
14.3383424737
  0
LINE
  5
221
100
AcDbEntity
  8
0
100
AcDbLine
 62
7
  6
BYLAYER
 10
12.0378957086
 20
73.1996411891
 11
11.6937017801
 21
72.4593908687
  0
LWPOLYLINE
  5
222
100
AcDbEntity
  8
0
100
AcDbPolyline
 62
7
  6
BYLAYER
 90
3
 70
0
 10
18.2251666081
 20
75.5480022456
 10
16.7086830622
 20
73.5914924995
 10
14.7150031836
 20
71.7127311768
  0
LWPOLYLINE
  5
223
100
AcDbEntity
  8
0
100
AcDbPolyline
 62
7
  6
BYLAYER
 90
4
 70
0
 10
13.4543073592
 20
70.477822296
 10
12.092128517
 20
68.783647162
 10
10.5709718852
 20
66.2084435426
 10
9.4884803916
 20
63.5857499726
  0
LINE
  5
224
100
AcDbEntity
  8
0
100
AcDbLine
 62
7
  6
BYLAYER
 10
14.7150480757
 20
71.7126802963
 11
13.4543658914
 21
70.4777683948
  0
LINE
  5
225
100
AcDbEntity
  8
0
100
AcDbLine
 62
7
  6
BYLAYER
 10
34.8985366753
 20
15.3262409665
 11
35.4512406753
 21
15.4514374775
  0
LINE
  5
226
100
AcDbEntity
  8
0
100
AcDbLine
 62
7
  6
BYLAYER
 10
38.9119622753
 20
15.058089574
 11
38.6184518753
 21
15.058089574
  0
LINE
  5
227
100
AcDbEntity
  8
0
100
AcDbLine
 62
7
  6
BYLAYER
 10
37.0465862753
 20
15.058089574
 11
36.7530758753
 21
15.058089574
  0
LINE
  5
228
100
AcDbEntity
  8
0
100
AcDbLine
 62
7
  6
BYLAYER
 10
30.0966950753
 20
15.058089574
 11
29.8022806753
 21
15.058089574
  0
LINE
  5
229
100
AcDbEntity
  8
0
100
AcDbLine
 62
7
  6
BYLAYER
 10
29.0468278753
 20
15.0583853138
 11
27.7368662753
 21
15.0583853138
  0
LINE
  5
22A
100
AcDbEntity
  8
0
100
AcDbLine
 62
7
  6
BYLAYER
 10
24.3375558753
 20
15.0882788037
 11
23.5572678753
 21
15.0882788037
  0
LINE
  5
22B
100
AcDbEntity
  8
0
100
AcDbLine
 62
7
  6
BYLAYER
 10
28.0583734753
 20
15.1222168672
 11
29.0468278753
 21
15.1222168672
  0
LINE
  5
22C
100
AcDbEntity
  8
0
100
AcDbLine
 62
7
  6
BYLAYER
 10
24.1930582753
 20
15.2005508567
 11
23.6922822753
 21
15.2005508567
  0
LINE
  5
22D
100
AcDbEntity
  8
0
100
AcDbLine
 62
7
  6
BYLAYER
 10
25.7753078753
 20
15.2040039508
 11
26.4034214753
 21
15.2040039508
  0
LINE
  5
22E
100
AcDbEntity
  8
0
100
AcDbLine
 62
7
  6
BYLAYER
 10
32.1914614753
 20
15.2116005482
 11
31.1443030753
 21
15.2116005482
  0
LINE
  5
22F
100
AcDbEntity
  8
0
100
AcDbLine
 62
7
  6
BYLAYER
 10
31.1501734753
 20
15.2544181465
 11
31.8988534753
 21
15.2544181465
  0
LINE
  5
230
100
AcDbEntity
  8
0
100
AcDbLine
 62
7
  6
BYLAYER
 10
23.0808758753
 20
15.2659610872
 11
23.7613702753
 21
15.2659610872
  0
LINE
  5
231
100
AcDbEntity
  8
0
100
AcDbLine
 62
7
  6
BYLAYER
 10
26.6048150753
 20
15.2746427629
 11
25.8710374753
 21
15.2746427629
  0
LINE
  5
232
100
AcDbEntity
  8
0
100
AcDbLine
 62
7
  6
BYLAYER
 10
28.9845142753
 20
15.2758267708
 11
28.0583734753
 21
15.2758267708
  0
LINE
  5
233
100
AcDbEntity
  8
0
100
AcDbLine
 62
7
  6
BYLAYER
 10
35.9226646753
 20
15.3262409665
 11
35.4512406753
 21
15.3262409665
  0
LINE
  5
234
100
AcDbEntity
  8
0
100
AcDbLine
 62
7
  6
BYLAYER
 10
35.1577302753
 20
15.3262409665
 11
34.8985366753
 21
15.3262409665
  0
LINE
  5
235
100
AcDbEntity
  8
0
100
AcDbLine
 62
7
  6
BYLAYER
 10
23.8724534753
 20
15.3368959887
 11
23.1802182753
 21
15.3368959887
  0
LINE
  5
236
100
AcDbEntity
  8
0
100
AcDbLine
 62
7
  6
BYLAYER
 10
28.0583734753
 20
15.3397569041
 11
28.9845142753
 21
15.3397569041
  0
LINE
  5
237
100
AcDbEntity
  8
0
100
AcDbLine
 62
7
  6
BYLAYER
 10
25.9441894753
 20
15.341729901
 11
26.7470550753
 21
15.341729901
  0
LINE
  5
238
100
AcDbEntity
  8
0
100
AcDbLine
 62
7
  6
BYLAYER
 10
38.9119622753
 20
15.3508417409
 11
38.6184518753
 21
15.3508417409
  0
LINE
  5
239
100
AcDbEntity
  8
0
100
AcDbLine
 62
7
  6
BYLAYER
 10
37.0465862753
 20
15.3508417409
 11
36.7530758753
 21
15.3508417409
  0
LINE
  5
23A
100
AcDbEntity
  8
0
100
AcDbLine
 62
7
  6
BYLAYER
 10
30.0966950753
 20
15.3508417409
 11
29.8022806753
 21
15.3508417409
  0
LINE
  5
23B
100
AcDbEntity
  8
0
100
AcDbLine
 62
7
  6
BYLAYER
 10
28.0583734753
 20
15.3511374807
 11
27.7368662753
 21
15.3511374807
  0
LINE
  5
23C
100
AcDbEntity
  8
0
100
AcDbLine
 62
7
  6
BYLAYER
 10
35.4512406753
 20
15.3840542501
 11
35.9226646753
 21
15.3840542501
  0
LINE
  5
23D
100
AcDbEntity
  8
0
100
AcDbLine
 62
7
  6
BYLAYER
 10
36.7530758753
 20
15.3840542501
 11
37.0465862753
 21
15.3840542501
  0
LINE
  5
23E
100
AcDbEntity
  8
0
100
AcDbLine
 62
7
  6
BYLAYER
 10
38.6184518753
 20
15.3840542501
 11
38.9119622753
 21
15.3840542501
  0
LINE
  5
23F
100
AcDbEntity
  8
0
100
AcDbLine
 62
7
  6
BYLAYER
 10
23.3278774753
 20
15.4036870374
 11
23.9117382753
 21
15.4036870374
  0
LINE
  5
240
100
AcDbEntity
  8
0
100
AcDbLine
 62
7
  6
BYLAYER
 10
26.8459462753
 20
15.4124676427
 11
26.0335974753
 21
15.4124676427
  0
LINE
  5
241
100
AcDbEntity
  8
0
100
AcDbLine
 62
7
  6
BYLAYER
 10
24.0255302753
 20
15.474523359
 11
23.5369478753
 21
15.474523359
  0
LINE
  5
242
100
AcDbEntity
  8
0
100
AcDbLine
 62
7
  6
BYLAYER
 10
25.7640198753
 20
15.4748190988
 11
26.2467318753
 21
15.4748190988
  0
LINE
  5
243
100
AcDbEntity
  8
0
100
AcDbLine
 62
7
  6
BYLAYER
 10
29.0183798753
 20
15.4887300553
 11
28.0583734753
 21
15.4887300553
  0
LINE
  5
244
100
AcDbEntity
  8
0
100
AcDbLine
 62
7
  6
BYLAYER
 10
24.1930582753
 20
15.4933030235
 11
24.0255302753
 21
15.4933030235
  0
LINE
  5
245
100
AcDbEntity
  8
0
100
AcDbLine
 62
7
  6
BYLAYER
 10
27.7368662753
 20
15.5525612591
 11
29.0183798753
 21
15.5525612591
  0
LINE
  5
246
100
AcDbEntity
  8
0
100
AcDbLine
 62
7
  6
BYLAYER
 10
29.8022806753
 20
15.5525612591
 11
30.0966950753
 21
15.5525612591
  0
LINE
  5
247
100
AcDbEntity
  8
0
100
AcDbLine
 62
7
  6
BYLAYER
 10
26.3492358753
 20
15.5781137363
 11
25.5499814753
 21
15.5781137363
  0
LINE
  5
248
100
AcDbEntity
  8
0
100
AcDbLine
 62
7
  6
BYLAYER
 10
48.9678294753
 20
15.6492457976
 11
42.4794262753
 21
15.6492457976
  0
LINE
  5
249
100
AcDbEntity
  8
0
100
AcDbLine
 62
7
  6
BYLAYER
 10
32.7771286753
 20
15.6522056425
 11
31.9512342753
 21
15.6522056425
  0
LINE
  5
24A
100
AcDbEntity
  8
0
100
AcDbLine
 62
7
  6
BYLAYER
 10
35.8987318753
 20
15.6524028024
 11
35.0732886753
 21
15.6524028024
  0
LINE
  5
24B
100
AcDbEntity
  8
0
100
AcDbLine
 62
7
  6
BYLAYER
 10
40.2250854753
 20
15.6530935611
 11
39.3987398753
 21
15.6530935611
  0
LINE
  5
24C
100
AcDbEntity
  8
0
100
AcDbLine
 62
7
  6
BYLAYER
 10
28.5618582753
 20
15.6536853902
 11
27.7364134753
 21
15.6536853902
  0
LINE
  5
24D
100
AcDbEntity
  8
0
100
AcDbLine
 62
7
  6
BYLAYER
 10
23.7266006753
 20
15.6538828997
 11
22.9007062753
 21
15.6538828997
  0
LINE
  5
24E
100
AcDbEntity
  8
0
100
AcDbLine
 62
7
  6
BYLAYER
 10
38.9896294753
 20
15.9087155143
 11
37.1030310753
 21
15.9087155143
  0
LINE
  5
24F
100
AcDbEntity
  8
0
100
AcDbLine
 62
7
  6
BYLAYER
 10
31.6319830753
 20
15.9087155143
 11
29.7444822753
 21
15.9087155143
  0
LINE
  5
250
100
AcDbEntity
  8
0
100
AcDbLine
 62
7
  6
BYLAYER
 10
48.9678294753
 20
15.9419979645
 11
42.4794262753
 21
15.9419979645
  0
LINE
  5
251
100
AcDbEntity
  8
0
100
AcDbLine
 62
7
  6
BYLAYER
 10
32.7771286753
 20
15.9449578094
 11
31.9512342753
 21
15.9449578094
  0
LINE
  5
252
100
AcDbEntity
  8
0
100
AcDbLine
 62
7
  6
BYLAYER
 10
35.8987318753
 20
15.9451549692
 11
35.0732886753
 21
15.9451549692
  0
LINE
  5
253
100
AcDbEntity
  8
0
100
AcDbLine
 62
7
  6
BYLAYER
 10
40.2250854753
 20
15.9458457279
 11
39.3987398753
 21
15.9458457279
  0
LINE
  5
254
100
AcDbEntity
  8
0
100
AcDbLine
 62
7
  6
BYLAYER
 10
28.5618582753
 20
15.9464375571
 11
27.7364134753
 21
15.9464375571
  0
LINE
  5
255
100
AcDbEntity
  8
0
100
AcDbLine
 62
7
  6
BYLAYER
 10
23.7266006753
 20
15.9466350665
 11
22.9007062753
 21
15.9466350665
  0
LINE
  5
256
100
AcDbEntity
  8
0
100
AcDbLine
 62
7
  6
BYLAYER
 10
29.7620918753
 20
16.0039199556
 11
30.9022694753
 21
16.0039199556
  0
LINE
  5
257
100
AcDbEntity
  8
0
100
AcDbLine
 62
7
  6
BYLAYER
 10
37.1197382753
 20
16.0039199556
 11
38.2621734753
 21
16.0039199556
  0
LINE
  5
258
100
AcDbEntity
  8
0
100
AcDbLine
 62
7
  6
BYLAYER
 10
25.9220630753
 20
16.2269846635
 11
26.7479590753
 21
16.2269846635
  0
LINE
  5
259
100
AcDbEntity
  8
0
100
AcDbLine
 62
7
  6
BYLAYER
 10
31.9512342753
 20
16.2269846635
 11
32.7771286753
 21
16.2269846635
  0
LINE
  5
25A
100
AcDbEntity
  8
0
100
AcDbLine
 62
7
  6
BYLAYER
 10
42.4794262753
 20
16.2274782623
 11
48.9678294753
 21
16.2274782623
  0
LINE
  5
25B
100
AcDbEntity
  8
0
100
AcDbLine
 62
7
  6
BYLAYER
 10
39.3987398753
 20
16.2275768422
 11
40.2250854753
 21
16.2275768422
  0
LINE
  5
25C
100
AcDbEntity
  8
0
100
AcDbLine
 62
7
  6
BYLAYER
 10
22.9007062753
 20
16.5011543257
 11
23.7266006753
 21
16.5011543257
  0
LINE
  5
25D
100
AcDbEntity
  8
0
100
AcDbLine
 62
7
  6
BYLAYER
 10
35.0732886753
 20
16.5011543257
 11
35.8987318753
 21
16.5011543257
  0
LINE
  5
25E
100
AcDbEntity
  8
0
100
AcDbLine
 62
7
  6
BYLAYER
 10
14.9794262753
 20
16.6151556619
 11
50.9794262753
 21
16.6151556619
  0
LINE
  5
25F
100
AcDbEntity
  8
0
100
AcDbLine
 62
7
  6
BYLAYER
 10
6.9794262753
 20
46.3357499726
 11
6.9794262753
 21
43.8257499726
  0
LINE
  5
260
100
AcDbEntity
  8
0
100
AcDbLine
 62
7
  6
BYLAYER
 10
6.9794393191
 20
46.3357719127
 11
6.9945782493
 21
47.0113602118
  0
LINE
  5
261
100
AcDbEntity
  8
0
100
AcDbLine
 62
7
  6
BYLAYER
 10
9.8494262753
 20
66.251523514
 11
10.9146130546
 21
70.2268546941
  0
LINE
  5
262
100
AcDbEntity
  8
0
100
AcDbLine
 62
7
  6
BYLAYER
 10
11.2397885611
 20
69.8949448835
 11
10.2357966059
 21
66.1479958963
  0
LINE
  5
263
100
AcDbEntity
  8
0
100
AcDbLine
 62
7
  6
BYLAYER
 10
10.9195263014
 20
70.2396991161
 11
10.9356003184
 21
70.2974450639
  0
LINE
  5
264
100
AcDbEntity
  8
0
100
AcDbLine
 62
7
  6
BYLAYER
 10
10.9657340069
 20
70.4158457228
 11
10.9121827333
 21
70.2275184268
  0
LINE
  5
265
100
AcDbEntity
  8
0
100
AcDbLine
 62
7
  6
BYLAYER
 10
18.2253909598
 20
75.5484100026
 11
18.2255156928
 21
75.5486212263
  0
LINE
  5
266
100
AcDbEntity
  8
0
100
AcDbLine
 62
7
  6
BYLAYER
 10
12.5984000393
 20
11.5131709132
 11
12.6380248888
 21
11.3198917061
  0
LWPOLYLINE
  5
267
100
AcDbEntity
  8
0
100
AcDbPolyline
 62
7
  6
BYLAYER
 90
3
 70
0
 10
7.1321943502
 20
48.9984628546
 10
7.0913421712
 20
48.5139347707
 10
7.0634487579
 20
48.1161770414
  0
LWPOLYLINE
  5
268
100
AcDbEntity
  8
0
100
AcDbPolyline
 62
7
  6
BYLAYER
 90
3
 70
0
 10
7.2733448862
 20
50.4458196247
 10
7.2157709442
 20
49.8862970961
 10
7.1321943502
 20
48.9984628546
  0
LINE
  5
269
100
AcDbEntity
  8
0
100
AcDbLine
 62
7
  6
BYLAYER
 10
14.9794262753
 20
76.5448982191
 11
14.9794262753
 21
71.9619125438
  0
LINE
  5
26A
100
AcDbEntity
  8
0
100
AcDbLine
 62
7
  6
BYLAYER
 10
14.9794262753
 20
16.6151556619
 11
14.9794262753
 21
13.9284394445
  0
LINE
  5
26B
100
AcDbEntity
  8
0
100
AcDbLine
 62
7
  6
BYLAYER
 10
15.062413077
 20
45.3949307429
 11
15.062413077
 21
46.3357499726
  0
LINE
  5
26C
100
AcDbEntity
  8
0
100
AcDbLine
 62
7
  6
BYLAYER
 10
15.062413077
 20
43.8257499726
 11
15.062548691
 21
44.8268106772
  0
LINE
  5
26D
100
AcDbEntity
  8
0
100
AcDbLine
 62
7
  6
BYLAYER
 10
22.5057229702
 20
75.6063075273
 11
21.4405361908
 21
71.630976347
  0
LINE
  5
26E
100
AcDbEntity
  8
0
100
AcDbLine
 62
7
  6
BYLAYER
 10
31.9146582753
 20
16.3525758438
 11
31.8945489247
 21
16.3777411959
  0
LINE
  5
26F
100
AcDbEntity
  8
0
100
AcDbLine
 62
7
  6
BYLAYER
 10
32.8155110753
 20
16.4685974299
 11
32.8353421016
 21
16.4436111667
  0
LINE
  5
270
100
AcDbEntity
  8
0
100
AcDbLine
 62
7
  6
BYLAYER
 10
15.9794262753
 20
40.7556229536
 11
15.9794262753
 21
45.0857495611
  0
LINE
  5
271
100
AcDbEntity
  8
0
100
AcDbLine
 62
7
  6
BYLAYER
 10
17.0589318753
 20
15.906545008
 11
17.0589318753
 21
15.7237323732
  0
LINE
  5
272
100
AcDbEntity
  8
0
100
AcDbLine
 62
7
  6
BYLAYER
 10
17.9746854753
 20
16.4891626962
 11
17.9746854753
 21
16.2864752042
  0
LINE
  5
273
100
AcDbEntity
  8
0
100
AcDbLine
 62
7
  6
BYLAYER
 10
18.4637206753
 20
15.7973310303
 11
18.4637206753
 21
15.6415506203
  0
LINE
  5
274
100
AcDbEntity
  8
0
100
AcDbLine
 62
7
  6
BYLAYER
 10
18.5495158753
 20
16.5118093479
 11
18.5495158753
 21
16.3562264474
  0
LWPOLYLINE
  5
275
100
AcDbEntity
  8
0
100
AcDbPolyline
 62
7
  6
BYLAYER
 90
3
 70
0
 10
18.9794382135
 20
77.6663324912
 10
18.9611004699
 20
77.4106232418
 10
18.2253909598
 20
75.5484100026
  0
LINE
  5
276
100
AcDbEntity
  8
0
100
AcDbLine
 62
7
  6
BYLAYER
 10
54.5965207699
 20
70.3355639457
 11
54.9807521092
 21
70.4463981919
  0
LINE
  5
277
100
AcDbEntity
  8
0
100
AcDbLine
 62
7
  6
BYLAYER
 10
18.9635926753
 20
16.1683186066
 11
18.9635926753
 21
15.8755664398
  0
LINE
  5
278
100
AcDbEntity
  8
0
100
AcDbLine
 62
7
  6
BYLAYER
 10
18.9794262753
 20
40.7556229536
 11
18.9794262753
 21
45.0857495613
  0
LINE
  5
279
100
AcDbEntity
  8
0
100
AcDbLine
 62
7
  6
BYLAYER
 10
19.7818118753
 20
16.2803587041
 11
19.7818118753
 21
16.4457087083
  0
LINE
  5
27A
100
AcDbEntity
  8
0
100
AcDbLine
 62
7
  6
BYLAYER
 10
19.9588214753
 20
15.9381154054
 11
19.9588214753
 21
15.8991455705
  0
LINE
  5
27B
100
AcDbEntity
  8
0
100
AcDbLine
 62
7
  6
BYLAYER
 10
21.0317174753
 20
16.2322487399
 11
21.0317174753
 21
15.9394965731
  0
LINE
  5
27C
100
AcDbEntity
  8
0
100
AcDbLine
 62
7
  6
BYLAYER
 10
38.6017430753
 20
15.4601191533
 11
38.5957117779
 21
15.4689011751
  0
LINE
  5
27D
100
AcDbEntity
  8
0
100
AcDbLine
 62
7
  6
BYLAYER
 10
38.9218966753
 20
15.5012594945
 11
38.9278669726
 21
15.492313308
  0
LINE
  5
27E
100
AcDbEntity
  8
0
100
AcDbLine
 62
7
  6
BYLAYER
 10
21.6706678753
 20
15.7704959653
 11
21.6706678753
 21
15.6418463601
  0
LINE
  5
27F
100
AcDbEntity
  8
0
100
AcDbLine
 62
7
  6
BYLAYER
 10
21.8467750753
 20
16.2376396857
 11
21.8467750753
 21
16.1050440867
  0
LINE
  5
280
100
AcDbEntity
  8
0
100
AcDbLine
 62
7
  6
BYLAYER
 10
22.5195926753
 20
16.0661728318
 11
22.5195926753
 21
16.2004460375
  0
LINE
  5
281
100
AcDbEntity
  8
0
100
AcDbLine
 62
7
  6
BYLAYER
 10
22.5597814753
 20
15.6804215257
 11
22.5597814753
 21
15.8103537187
  0
LINE
  5
282
100
AcDbEntity
  8
0
100
AcDbLine
 62
7
  6
BYLAYER
 10
22.9007062753
 20
16.5011543257
 11
22.9007062753
 21
15.6538828997
  0
LINE
  5
283
100
AcDbEntity
  8
0
100
AcDbLine
 62
7
  6
BYLAYER
 10
23.3314902753
 20
15.2856290198
 11
23.3314902753
 21
14.9928768529
  0
LINE
  5
284
100
AcDbEntity
  8
0
100
AcDbLine
 62
7
  6
BYLAYER
 10
23.5572678753
 20
15.2659610872
 11
23.5572678753
 21
15.0882788037
  0
LINE
  5
285
100
AcDbEntity
  8
0
100
AcDbLine
 62
7
  6
BYLAYER
 10
23.6922822753
 20
15.2005508566
 11
23.6922822753
 21
15.2659610872
  0
LINE
  5
286
100
AcDbEntity
  8
0
100
AcDbLine
 62
7
  6
BYLAYER
 10
23.7266006753
 20
15.6538828997
 11
23.7266006753
 21
16.5011543257
  0
LINE
  5
287
100
AcDbEntity
  8
0
100
AcDbLine
 62
7
  6
BYLAYER
 10
23.8724534753
 20
15.4036870374
 11
23.8724534753
 21
15.3368959887
  0
LINE
  5
288
100
AcDbEntity
  8
0
100
AcDbLine
 62
7
  6
BYLAYER
 10
24.0255302753
 20
15.5673601341
 11
24.0255302753
 21
15.474523359
  0
LINE
  5
289
100
AcDbEntity
  8
0
100
AcDbLine
 62
7
  6
BYLAYER
 10
24.1930582753
 20
15.4933030235
 11
24.1930582753
 21
15.2005508567
  0
LINE
  5
28A
100
AcDbEntity
  8
0
100
AcDbLine
 62
7
  6
BYLAYER
 10
24.2788534753
 20
16.2277568149
 11
24.2788534753
 21
16.1053398265
  0
LINE
  5
28B
100
AcDbEntity
  8
0
100
AcDbLine
 62
7
  6
BYLAYER
 10
24.3488438753
 20
15.5188555007
 11
24.3488438753
 21
15.2261033338
  0
LINE
  5
28C
100
AcDbEntity
  8
0
100
AcDbLine
 62
7
  6
BYLAYER
 10
24.5570118753
 20
15.4168086553
 11
24.5570118753
 21
15.6589408781
  0
LINE
  5
28D
100
AcDbEntity
  8
0
100
AcDbLine
 62
7
  6
BYLAYER
 10
50.9793749217
 20
76.5456829257
 11
51.2630997864
 21
76.8219891279
  0
LINE
  5
28E
100
AcDbEntity
  8
0
100
AcDbLine
 62
7
  6
BYLAYER
 10
24.7060246753
 20
16.2376396857
 11
24.7060246753
 21
15.7775993135
  0
LINE
  5
28F
100
AcDbEntity
  8
0
100
AcDbLine
 62
7
  6
BYLAYER
 10
25.5319190753
 20
15.8349193478
 11
25.5319190753
 21
16.0179294921
  0
LINE
  5
290
100
AcDbEntity
  8
0
100
AcDbLine
 62
7
  6
BYLAYER
 10
25.5499814753
 20
15.5781137363
 11
25.5499814753
 21
15.7279054906
  0
LINE
  5
291
100
AcDbEntity
  8
0
100
AcDbLine
 62
7
  6
BYLAYER
 10
25.7753078753
 20
15.459724484
 11
25.7753078753
 21
15.2040039508
  0
LINE
  5
292
100
AcDbEntity
  8
0
100
AcDbLine
 62
7
  6
BYLAYER
 10
25.8710374753
 20
15.2746427629
 11
25.8710374753
 21
15.459724484
  0
LINE
  5
293
100
AcDbEntity
  8
0
100
AcDbLine
 62
7
  6
BYLAYER
 10
25.9220630753
 20
16.2269846635
 11
25.9220630753
 21
15.8363994451
  0
LINE
  5
294
100
AcDbEntity
  8
0
100
AcDbLine
 62
7
  6
BYLAYER
 10
25.9441894753
 20
15.4967561176
 11
25.9441894753
 21
15.341729901
  0
LINE
  5
295
100
AcDbEntity
  8
0
100
AcDbLine
 62
7
  6
BYLAYER
 10
25.9992790753
 20
15.2040039508
 11
25.9992790753
 21
15.0999203243
  0
LINE
  5
296
100
AcDbEntity
  8
0
100
AcDbLine
 62
7
  6
BYLAYER
 10
26.0335974753
 20
15.4124676427
 11
26.0335974753
 21
15.4748190988
  0
LINE
  5
297
100
AcDbEntity
  8
0
100
AcDbLine
 62
7
  6
BYLAYER
 10
26.3492358753
 20
15.6721345192
 11
26.3492358753
 21
15.5781137363
  0
LINE
  5
298
100
AcDbEntity
  8
0
100
AcDbLine
 62
7
  6
BYLAYER
 10
26.3691387541
 20
78.5710313468
 11
26.3691387541
 21
82.0857499726
  0
LINE
  5
299
100
AcDbEntity
  8
0
100
AcDbLine
 62
7
  6
BYLAYER
 10
26.6048150753
 20
15.341729901
 11
26.6048150753
 21
15.2746427629
  0
LINE
  5
29A
100
AcDbEntity
  8
0
100
AcDbLine
 62
7
  6
BYLAYER
 10
26.7479590753
 20
15.7541187627
 11
26.7479590753
 21
16.2269846635
  0
LINE
  5
29B
100
AcDbEntity
  8
0
100
AcDbLine
 62
7
  6
BYLAYER
 10
26.8459462753
 20
15.5429293803
 11
26.8459462753
 21
15.4124676427
  0
LINE
  5
29C
100
AcDbEntity
  8
0
100
AcDbLine
 62
7
  6
BYLAYER
 10
27.3241430753
 20
16.2285154822
 11
27.3241430753
 21
16.1173763661
  0
LINE
  5
29D
100
AcDbEntity
  8
0
100
AcDbLine
 62
7
  6
BYLAYER
 10
27.7364134753
 20
16.2376396857
 11
27.7364134753
 21
15.6536853902
  0
LINE
  5
29E
100
AcDbEntity
  8
0
100
AcDbLine
 62
7
  6
BYLAYER
 10
27.7368662753
 20
15.5525612591
 11
27.7368662753
 21
15.0583853138
  0
LINE
  5
29F
100
AcDbEntity
  8
0
100
AcDbLine
 62
7
  6
BYLAYER
 10
28.0583734753
 20
15.1222168672
 11
28.0583734753
 21
15.5525612591
  0
LINE
  5
2A0
100
AcDbEntity
  8
0
100
AcDbLine
 62
7
  6
BYLAYER
 10
28.5618582753
 20
15.6536853902
 11
28.5618582753
 21
16.0175348228
  0
LINE
  5
2A1
100
AcDbEntity
  8
0
100
AcDbLine
 62
7
  6
BYLAYER
 10
28.9845142753
 20
15.2758267708
 11
28.9845142753
 21
15.3397569041
  0
LINE
  5
2A2
100
AcDbEntity
  8
0
100
AcDbLine
 62
7
  6
BYLAYER
 10
29.0183798753
 20
15.4887300553
 11
29.0183798753
 21
15.5525612591
  0
LINE
  5
2A3
100
AcDbEntity
  8
0
100
AcDbLine
 62
7
  6
BYLAYER
 10
29.0468278753
 20
15.0583853138
 11
29.0468278753
 21
15.1222168672
  0
LINE
  5
2A4
100
AcDbEntity
  8
0
100
AcDbLine
 62
7
  6
BYLAYER
 10
29.7439224343
 20
16.1950714145
 11
29.7439224343
 21
15.9023192477
  0
LINE
  5
2A5
100
AcDbEntity
  8
0
100
AcDbLine
 62
7
  6
BYLAYER
 10
29.7620918753
 20
16.1950714145
 11
29.7620918753
 21
16.0039199556
  0
LINE
  5
2A6
100
AcDbEntity
  8
0
100
AcDbLine
 62
7
  6
BYLAYER
 10
29.8022806753
 20
15.5525612591
 11
29.8022806753
 21
15.058089574
  0
LINE
  5
2A7
100
AcDbEntity
  8
0
100
AcDbLine
 62
7
  6
BYLAYER
 10
30.0966950753
 20
15.058089574
 11
30.0966950753
 21
15.5525612591
  0
LINE
  5
2A8
100
AcDbEntity
  8
0
100
AcDbLine
 62
7
  6
BYLAYER
 10
30.3328582753
 20
16.2376396857
 11
30.3328582753
 21
16.1299058053
  0
LINE
  5
2A9
100
AcDbEntity
  8
0
100
AcDbLine
 62
7
  6
BYLAYER
 10
30.4132358753
 20
15.7493834303
 11
30.4132358753
 21
15.6418463601
  0
LINE
  5
2AA
100
AcDbEntity
  8
0
100
AcDbLine
 62
7
  6
BYLAYER
 10
51.2088313083
 20
71.6729841118
 11
51.2438494562
 21
71.7127312781
  0
LINE
  5
2AB
100
AcDbEntity
  8
0
100
AcDbLine
 62
7
  6
BYLAYER
 10
52.5022515963
 20
70.4801813577
 11
52.4731754049
 21
70.4533606825
  0
LINE
  5
2AC
100
AcDbEntity
  8
0
100
AcDbLine
 62
7
  6
BYLAYER
 10
58.9794262753
 20
43.8257499726
 11
50.0589396929
 21
43.8257499726
  0
LINE
  5
2AD
100
AcDbEntity
  8
0
100
AcDbLine
 62
7
  6
BYLAYER
 10
46.9794262753
 20
43.8257499726
 11
44.7116261117
 21
43.8257499726
  0
LINE
  5
2AE
100
AcDbEntity
  8
0
100
AcDbLine
 62
7
  6
BYLAYER
 10
21.2469517737
 20
43.8257499726
 11
18.9794262753
 21
43.8257499726
  0
LINE
  5
2AF
100
AcDbEntity
  8
0
100
AcDbLine
 62
7
  6
BYLAYER
 10
15.8999885215
 20
43.8257499726
 11
6.9794262753
 21
43.8257499726
  0
LINE
  5
2B0
100
AcDbEntity
  8
0
100
AcDbLine
 62
7
  6
BYLAYER
 10
30.9022694753
 20
16.0039199556
 11
30.9022694753
 21
16.1879318206
  0
LINE
  5
2B1
100
AcDbEntity
  8
0
100
AcDbLine
 62
7
  6
BYLAYER
 10
31.1501734753
 20
15.3556224881
 11
31.1443030753
 21
15.2116005482
  0
LINE
  5
2B2
100
AcDbEntity
  8
0
100
AcDbLine
 62
7
  6
BYLAYER
 10
31.5516070753
 20
15.3903682597
 11
31.5516070753
 21
15.3351201517
  0
LINE
  5
2B3
100
AcDbEntity
  8
0
100
AcDbLine
 62
7
  6
BYLAYER
 10
31.5701206753
 20
15.113436262
 11
31.5701206753
 21
15.0519727243
  0
LINE
  5
2B4
100
AcDbEntity
  8
0
100
AcDbLine
 62
7
  6
BYLAYER
 10
31.5859254753
 20
15.7181087727
 11
31.5859254753
 21
15.8302825954
  0
LINE
  5
2B5
100
AcDbEntity
  8
0
100
AcDbLine
 62
7
  6
BYLAYER
 10
31.8988534753
 20
15.2544181465
 11
31.8988534753
 21
15.3513840446
  0
LINE
  5
2B6
100
AcDbEntity
  8
0
100
AcDbLine
 62
7
  6
BYLAYER
 10
31.9146582753
 20
16.3953017712
 11
31.9146582753
 21
16.3525758439
  0
LINE
  5
2B7
100
AcDbEntity
  8
0
100
AcDbLine
 62
7
  6
BYLAYER
 10
31.9512342753
 20
16.2269846635
 11
31.9512342753
 21
15.6522056426
  0
LINE
  5
2B8
100
AcDbEntity
  8
0
100
AcDbLine
 62
7
  6
BYLAYER
 10
32.1657222753
 20
15.0903503805
 11
32.1657222753
 21
15.1528007661
  0
LINE
  5
2B9
100
AcDbEntity
  8
0
100
AcDbLine
 62
7
  6
BYLAYER
 10
32.1914614753
 20
15.248321917
 11
32.1914614753
 21
15.2116005482
  0
LINE
  5
2BA
100
AcDbEntity
  8
0
100
AcDbLine
 62
7
  6
BYLAYER
 10
32.5048406753
 20
16.5003558912
 11
32.5048406753
 21
16.3297860517
  0
LINE
  5
2BB
100
AcDbEntity
  8
0
100
AcDbLine
 62
7
  6
BYLAYER
 10
32.7771286753
 20
15.6522056425
 11
32.7771286753
 21
16.2269846635
  0
LINE
  5
2BC
100
AcDbEntity
  8
0
100
AcDbLine
 62
7
  6
BYLAYER
 10
33.2453910753
 20
15.3525941033
 11
33.2453910753
 21
15.2202825735
  0
LINE
  5
2BD
100
AcDbEntity
  8
0
100
AcDbLine
 62
7
  6
BYLAYER
 10
16.9087046551
 20
46.5852308605
 11
16.8032020081
 21
46.5833539505
  0
LINE
  5
2BE
100
AcDbEntity
  8
0
100
AcDbLine
 62
7
  6
BYLAYER
 10
6.9794262753
 20
45.0857499726
 11
15.0212267099
 21
45.0857499726
  0
LINE
  5
2BF
100
AcDbEntity
  8
0
100
AcDbLine
 62
7
  6
BYLAYER
 10
18.9794262753
 20
45.0857499726
 11
21.1793982246
 21
45.0857499726
  0
LINE
  5
2C0
100
AcDbEntity
  8
0
100
AcDbLine
 62
7
  6
BYLAYER
 10
44.7794835724
 20
45.0857499726
 11
46.9794262753
 21
45.0857499726
  0
LINE
  5
2C1
100
AcDbEntity
  8
0
100
AcDbLine
 62
7
  6
BYLAYER
 10
50.937625841
 20
45.0857499726
 11
58.9794262753
 21
45.0857499726
  0
LINE
  5
2C2
100
AcDbEntity
  8
0
100
AcDbLine
 62
7
  6
BYLAYER
 10
6.9794262753
 20
46.3357499726
 11
15.062413077
 21
46.3357499726
  0
LINE
  5
2C3
100
AcDbEntity
  8
0
100
AcDbLine
 62
7
  6
BYLAYER
 10
50.8964394736
 20
46.3357499726
 11
58.9794262753
 21
46.3357499726
  0
LINE
  5
2C4
100
AcDbEntity
  8
0
100
AcDbLine
 62
7
  6
BYLAYER
 10
49.0501467804
 20
46.5857499726
 11
48.4794262753
 21
46.5857499726
  0
LINE
  5
2C5
100
AcDbEntity
  8
0
100
AcDbLine
 62
7
  6
BYLAYER
 10
17.4794262753
 20
46.5857499726
 11
16.9087057702
 21
46.5857499726
  0
LINE
  5
2C6
100
AcDbEntity
  8
0
100
AcDbLine
 62
7
  6
BYLAYER
 10
49.155990298
 20
46.5833858777
 11
49.0501655724
 21
46.5840918851
  0
LINE
  5
2C7
100
AcDbEntity
  8
0
100
AcDbLine
 62
7
  6
BYLAYER
 10
33.7005590753
 20
15.3903682597
 11
33.7005590753
 21
15.3312723882
  0
LINE
  5
2C8
100
AcDbEntity
  8
0
100
AcDbLine
 62
7
  6
BYLAYER
 10
33.7005590753
 20
15.1123511836
 11
33.7005590753
 21
15.0519727243
  0
LINE
  5
2C9
100
AcDbEntity
  8
0
100
AcDbLine
 62
7
  6
BYLAYER
 10
33.9475606753
 20
16.229288895
 11
33.9475606753
 21
15.9365367282
  0
LINE
  5
2CA
100
AcDbEntity
  8
0
100
AcDbLine
 62
7
  6
BYLAYER
 10
34.1114758753
 20
15.2986165629
 11
34.1114758753
 21
15.3677756274
  0
LINE
  5
2CB
100
AcDbEntity
  8
0
100
AcDbLine
 62
7
  6
BYLAYER
 10
34.1444390753
 20
15.0706190132
 11
34.1444390753
 21
15.1340558973
  0
LINE
  5
2CC
100
AcDbEntity
  8
0
100
AcDbLine
 62
7
  6
BYLAYER
 10
34.3408662753
 20
15.7620114494
 11
34.3408662753
 21
15.6415506203
  0
LINE
  5
2CD
100
AcDbEntity
  8
0
100
AcDbLine
 62
7
  6
BYLAYER
 10
34.6090902753
 20
16.2376396857
 11
34.6090902753
 21
16.1173763661
  0
LINE
  5
2CE
100
AcDbEntity
  8
0
100
AcDbLine
 62
7
  6
BYLAYER
 10
35.0732886753
 20
15.6524028024
 11
35.0732886753
 21
16.5011543257
  0
LINE
  5
2CF
100
AcDbEntity
  8
0
100
AcDbLine
 62
7
  6
BYLAYER
 10
35.1577302753
 20
15.3849525633
 11
35.1577302753
 21
15.1540833539
  0
LINE
  5
2D0
100
AcDbEntity
  8
0
100
AcDbLine
 62
7
  6
BYLAYER
 10
35.4512406753
 20
15.1590161957
 11
35.4512406753
 21
15.4514374775
  0
LINE
  5
2D1
100
AcDbEntity
  8
0
100
AcDbLine
 62
7
  6
BYLAYER
 10
35.6395398753
 20
15.109687428
 11
35.6395398753
 21
15.0519727243
  0
LINE
  5
2D2
100
AcDbEntity
  8
0
100
AcDbLine
 62
7
  6
BYLAYER
 10
35.8987318753
 20
15.6524028024
 11
35.8987318753
 21
16.5011543257
  0
LINE
  5
2D3
100
AcDbEntity
  8
0
100
AcDbLine
 62
7
  6
BYLAYER
 10
35.9226646753
 20
15.3262409665
 11
35.9226646753
 21
15.3840542501
  0
LINE
  5
2D4
100
AcDbEntity
  8
0
100
AcDbLine
 62
7
  6
BYLAYER
 10
35.9980742753
 20
15.0736774381
 11
35.9980742753
 21
15.1338583879
  0
LINE
  5
2D5
100
AcDbEntity
  8
0
100
AcDbLine
 62
7
  6
BYLAYER
 10
14.7150480798
 20
71.7126802913
 11
14.7500526091
 21
71.6729485649
  0
LINE
  5
2D6
100
AcDbEntity
  8
0
100
AcDbLine
 62
7
  6
BYLAYER
 10
36.7530758753
 20
15.3840542501
 11
36.7530758753
 21
15.058089574
  0
LINE
  5
2D7
100
AcDbEntity
  8
0
100
AcDbLine
 62
7
  6
BYLAYER
 10
37.0465862753
 20
15.058089574
 11
37.0465862753
 21
15.3840542501
  0
LINE
  5
2D8
100
AcDbEntity
  8
0
100
AcDbLine
 62
7
  6
BYLAYER
 10
37.102474753
 20
16.1950997657
 11
37.102474753
 21
15.9023475988
  0
LINE
  5
2D9
100
AcDbEntity
  8
0
100
AcDbLine
 62
7
  6
BYLAYER
 10
37.1197382753
 20
16.1950997657
 11
37.1197382753
 21
16.0039199556
  0
LINE
  5
2DA
100
AcDbEntity
  8
0
100
AcDbLine
 62
7
  6
BYLAYER
 10
37.4078310753
 20
15.3903682597
 11
37.4078310753
 21
15.3288057925
  0
LINE
  5
2DB
100
AcDbEntity
  8
0
100
AcDbLine
 62
7
  6
BYLAYER
 10
37.6832790753
 20
15.3903682597
 11
37.6832790753
 21
15.2960517369
  0
LINE
  5
2DC
100
AcDbEntity
  8
0
100
AcDbLine
 62
7
  6
BYLAYER
 10
37.6891494753
 20
16.2376396857
 11
37.6891494753
 21
16.1299058053
  0
LINE
  5
2DD
100
AcDbEntity
  8
0
100
AcDbLine
 62
7
  6
BYLAYER
 10
37.7704294753
 20
15.7493834303
 11
37.7704294753
 21
15.6418463601
  0
LINE
  5
2DE
100
AcDbEntity
  8
0
100
AcDbLine
 62
7
  6
BYLAYER
 10
38.2621734753
 20
16.0039199556
 11
38.2621734753
 21
16.1877170918
  0
LINE
  5
2DF
100
AcDbEntity
  8
0
100
AcDbLine
 62
7
  6
BYLAYER
 10
38.6184518753
 20
15.3840542501
 11
38.6184518753
 21
15.058089574
  0
LINE
  5
2E0
100
AcDbEntity
  8
0
100
AcDbLine
 62
7
  6
BYLAYER
 10
38.8117174753
 20
15.5093493411
 11
38.8117174753
 21
15.4520293067
  0
LINE
  5
2E1
100
AcDbEntity
  8
0
100
AcDbLine
 62
7
  6
BYLAYER
 10
38.9119622753
 20
15.058089574
 11
38.9119622753
 21
15.3840542501
  0
LINE
  5
2E2
100
AcDbEntity
  8
0
100
AcDbLine
 62
7
  6
BYLAYER
 10
38.9449254753
 20
15.7181087727
 11
38.9449254753
 21
15.8302825954
  0
LINE
  5
2E3
100
AcDbEntity
  8
0
100
AcDbLine
 62
7
  6
BYLAYER
 10
23.0357280527
 20
15.1790040823
 11
23.0808758753
 21
15.2659610872
  0
LINE
  5
2E4
100
AcDbEntity
  8
0
100
AcDbLine
 62
7
  6
BYLAYER
 10
13.4834016314
 20
70.4509946545
 11
13.4543658914
 21
70.4777683948
  0
LINE
  5
2E5
100
AcDbEntity
  8
0
100
AcDbLine
 62
7
  6
BYLAYER
 10
39.3987398753
 20
16.2275768422
 11
39.3987398753
 21
15.6530935611
  0
LINE
  5
2E6
100
AcDbEntity
  8
0
100
AcDbLine
 62
7
  6
BYLAYER
 10
39.9848582753
 20
15.3527191367
 11
39.9848582753
 21
15.2202825735
  0
LINE
  5
2E7
100
AcDbEntity
  8
0
100
AcDbLine
 62
7
  6
BYLAYER
 10
40.2250854753
 20
15.6530935611
 11
40.2250854753
 21
16.2275768422
  0
LINE
  5
2E8
100
AcDbEntity
  8
0
100
AcDbLine
 62
7
  6
BYLAYER
 10
40.4386710753
 20
15.3903682597
 11
40.4386710753
 21
15.3312723882
  0
LINE
  5
2E9
100
AcDbEntity
  8
0
100
AcDbLine
 62
7
  6
BYLAYER
 10
40.4386710753
 20
15.1123511836
 11
40.4386710753
 21
15.0519727243
  0
LINE
  5
2EA
100
AcDbEntity
  8
0
100
AcDbLine
 62
7
  6
BYLAYER
 10
40.8504902753
 20
15.2986165629
 11
40.8504902753
 21
15.3677756274
  0
LINE
  5
2EB
100
AcDbEntity
  8
0
100
AcDbLine
 62
7
  6
BYLAYER
 10
40.8848086753
 20
15.0706190132
 11
40.8848086753
 21
15.1340558973
  0
LINE
  5
2EC
100
AcDbEntity
  8
0
100
AcDbLine
 62
7
  6
BYLAYER
 10
40.9037734753
 20
16.2381332845
 11
40.9037734753
 21
16.0686394275
  0
LINE
  5
2ED
100
AcDbEntity
  8
0
100
AcDbLine
 62
7
  6
BYLAYER
 10
41.3941638753
 20
16.2171254389
 11
41.3941638753
 21
16.0263150784
  0
LINE
  5
2EE
100
AcDbEntity
  8
0
100
AcDbLine
 62
7
  6
BYLAYER
 10
39.5895708013
 20
78.5710313468
 11
39.5897497237
 21
82.0857499726
  0
LINE
  5
2EF
100
AcDbEntity
  8
0
100
AcDbLine
 62
7
  6
BYLAYER
 10
26.8801573498
 20
15.4863561063
 11
26.8459462753
 21
15.4124676427
  0
LINE
  5
2F0
100
AcDbEntity
  8
0
100
AcDbLine
 62
7
  6
BYLAYER
 10
14.9798084373
 20
76.5453598535
 11
14.695748001
 21
76.8219923582
  0
LINE
  5
2F1
100
AcDbEntity
  8
0
100
AcDbLine
 62
7
  6
BYLAYER
 10
42.4794262753
 20
16.2274782623
 11
42.4794262753
 21
15.6492457976
  0
LINE
  5
2F2
100
AcDbEntity
  8
0
100
AcDbLine
 62
7
  6
BYLAYER
 10
31.6570207534
 20
15.9612964185
 11
31.6319830753
 21
15.9087155143
  0
LINE
  5
2F3
100
AcDbEntity
  8
0
100
AcDbLine
 62
7
  6
BYLAYER
 10
46.9794262753
 20
40.7556229536
 11
46.9794262753
 21
45.0857499726
  0
LINE
  5
2F4
100
AcDbEntity
  8
0
100
AcDbLine
 62
7
  6
BYLAYER
 10
56.1094262753
 20
66.251523514
 11
55.7230559448
 21
66.147995896
  0
LINE
  5
2F5
100
AcDbEntity
  8
0
100
AcDbLine
 62
7
  6
BYLAYER
 10
10.2357966058
 20
66.147995896
 11
9.8494262753
 21
66.251523514
  0
LINE
  5
2F6
100
AcDbEntity
  8
0
100
AcDbLine
 62
7
  6
BYLAYER
 10
48.9678294753
 20
15.6492457976
 11
48.9678294753
 21
16.2274782623
  0
LINE
  5
2F7
100
AcDbEntity
  8
0
100
AcDbLine
 62
7
  6
BYLAYER
 10
49.9794262753
 20
40.7556229536
 11
49.9794262753
 21
45.0857499726
  0
LINE
  5
2F8
100
AcDbEntity
  8
0
100
AcDbLine
 62
7
  6
BYLAYER
 10
50.8964394736
 20
43.8257499726
 11
50.8964394736
 21
44.8268572688
  0
LINE
  5
2F9
100
AcDbEntity
  8
0
100
AcDbLine
 62
7
  6
BYLAYER
 10
50.8964394736
 20
45.3961740655
 11
50.8964394736
 21
46.3357499726
  0
LINE
  5
2FA
100
AcDbEntity
  8
0
100
AcDbLine
 62
7
  6
BYLAYER
 10
32.2167892256
 20
15.248321917
 11
32.1914614753
 21
15.2116005482
  0
LINE
  5
2FB
100
AcDbEntity
  8
0
100
AcDbLine
 62
7
  6
BYLAYER
 10
26.2467318753
 20
15.4748190988
 11
26.3492358753
 21
15.5781137363
  0
LINE
  5
2FC
100
AcDbEntity
  8
0
100
AcDbLine
 62
7
  6
BYLAYER
 10
24.4917841349
 20
15.6498048692
 11
24.3488438753
 21
15.5188555007
  0
LINE
  5
2FD
100
AcDbEntity
  8
0
100
AcDbLine
 62
7
  6
BYLAYER
 10
24.5570118753
 20
15.4168086553
 11
24.3488438753
 21
15.2261033338
  0
LINE
  5
2FE
100
AcDbEntity
  8
0
100
AcDbLine
 62
7
  6
BYLAYER
 10
54.7190639895
 20
69.8949448835
 11
55.10543432
 21
69.9984725015
  0
LINE
  5
2FF
100
AcDbEntity
  8
0
100
AcDbLine
 62
7
  6
BYLAYER
 10
9.2486608228
 20
63.5857499726
 11
9.4929628697
 21
63.5857499726
  0
LINE
  5
300
100
AcDbEntity
  8
0
100
AcDbLine
 62
7
  6
BYLAYER
 10
56.465887327
 20
63.5857499726
 11
56.7101608632
 21
63.5857499726
  0
LINE
  5
301
100
AcDbEntity
  8
0
100
AcDbLine
 62
7
  6
BYLAYER
 10
10.8534182306
 20
69.9984725015
 11
11.2397885611
 21
69.8949448835
  0
LINE
  5
302
100
AcDbEntity
  8
0
100
AcDbLine
 62
7
  6
BYLAYER
 10
10.9780812138
 20
70.4465133699
 11
11.3620149209
 21
70.3357630125
  0
LINE
  5
303
100
AcDbEntity
  8
0
100
AcDbLine
 62
7
  6
BYLAYER
 10
44.5183163598
 20
71.6309763471
 11
43.4531295805
 21
75.6063075272
  0
LINE
  5
304
100
AcDbEntity
  8
0
100
AcDbLine
 62
7
  6
BYLAYER
 10
50.9794262753
 20
13.9284394445
 11
50.9794262753
 21
16.6151556619
  0
LINE
  5
305
100
AcDbEntity
  8
0
100
AcDbLine
 62
7
  6
BYLAYER
 10
50.9794262753
 20
71.9615605749
 11
50.9794262753
 21
76.5450667874
  0
LINE
  5
306
100
AcDbEntity
  8
0
100
AcDbLine
 62
7
  6
BYLAYER
 10
39.0145112654
 20
15.9611359235
 11
38.9896294753
 21
15.9087155143
  0
LINE
  5
307
100
AcDbEntity
  8
0
100
AcDbLine
 62
7
  6
BYLAYER
 10
23.6922822753
 20
15.2005508567
 11
23.5572678753
 21
15.0882788037
  0
LINE
  5
308
100
AcDbEntity
  8
0
100
AcDbLine
 62
7
  6
BYLAYER
 10
25.3910342753
 20
15.2413951085
 11
25.6547430753
 21
15.459724484
  0
LINE
  5
309
100
AcDbEntity
  8
0
100
AcDbLine
 62
7
  6
BYLAYER
 10
26.0335974753
 20
15.4124676427
 11
25.9441894753
 21
15.341729901
  0
LINE
  5
30A
100
AcDbEntity
  8
0
100
AcDbLine
 62
7
  6
BYLAYER
 10
25.8710374753
 20
15.2746427629
 11
25.7753078753
 21
15.2040039508
  0
LINE
  5
30B
100
AcDbEntity
  8
0
100
AcDbLine
 62
7
  6
BYLAYER
 10
23.7613702753
 20
15.2659610872
 11
23.8724534753
 21
15.3368959887
  0
LINE
  5
30C
100
AcDbEntity
  8
0
100
AcDbLine
 62
7
  6
BYLAYER
 10
23.9117382753
 20
15.4036870374
 11
24.0255302753
 21
15.474523359
  0
LWPOLYLINE
  5
30D
100
AcDbEntity
  8
0
100
AcDbPolyline
 62
7
  6
BYLAYER
 90
4
 70
0
 10
58.8422871589
 20
48.8131557846
 10
58.8270930618
 20
48.9935221967
 10
58.7436616087
 20
49.880487253
 10
58.6856084712
 20
50.4448621002
  0
LINE
  5
30E
100
AcDbEntity
  8
0
100
AcDbLine
 62
7
  6
BYLAYER
 10
58.9794262753
 20
43.8257499726
 11
58.9794262753
 21
46.3357499726
  0
LWPOLYLINE
  5
30F
100
AcDbEntity
  8
0
100
AcDbPolyline
 62
7
  6
BYLAYER
 90
3
 70
0
 10
47.7334385127
 20
75.5484490793
 10
46.9989135402
 20
77.4020686771
 10
46.9794124437
 20
77.6672418968
  0
LINE
  5
310
100
AcDbEntity
  8
0
100
AcDbLine
 62
7
  6
BYLAYER
 10
53.3209614793
 20
11.3204056867
 11
53.3604507805
 21
11.5131709301
  0
LINE
  5
311
100
AcDbEntity
  8
0
100
AcDbLine
 62
7
  6
BYLAYER
 10
47.7337592436
 20
75.5478763182
 11
47.7336817514
 21
75.5480094415
  0
LWPOLYLINE
  5
312
100
AcDbEntity
  8
0
100
AcDbPolyline
 62
7
  6
BYLAYER
 90
4
 70
0
 10
56.4703694746
 20
63.5857499726
 10
55.405072509
 20
66.1734595055
 10
53.8886391267
 20
68.7524709218
 10
52.5022515963
 20
70.4801813577
  0
LINE
  5
313
100
AcDbEntity
  8
0
100
AcDbLine
 62
7
  6
BYLAYER
 10
55.7230559448
 20
66.147995896
 11
54.7190639891
 21
69.8949448851
  0
LINE
  5
314
100
AcDbEntity
  8
0
100
AcDbLine
 62
7
  6
BYLAYER
 10
56.1094262753
 20
66.251523514
 11
55.0442394959
 21
70.2268546941
  0
LINE
  5
315
100
AcDbEntity
  8
0
100
AcDbLine
 62
7
  6
BYLAYER
 10
41.6097302753
 20
16.1776283706
 11
41.3941638753
 21
16.0263150784
  0
LINE
  5
316
100
AcDbEntity
  8
0
100
AcDbLine
 62
7
  6
BYLAYER
 10
37.8390662753
 20
15.3525824327
 11
37.6832790753
 21
15.2960517369
  0
LINE
  5
317
100
AcDbEntity
  8
0
100
AcDbLine
 62
7
  6
BYLAYER
 10
26.3694262753
 20
78.5710313468
 11
39.5894262753
 21
78.5710313468
  0
LINE
  5
318
100
AcDbEntity
  8
0
100
AcDbLine
 62
7
  6
BYLAYER
 10
47.7336817514
 20
75.5480094415
 11
47.5240065861
 21
75.6298492725
  0
LWPOLYLINE
  5
319
100
AcDbEntity
  8
0
100
AcDbPolyline
 62
7
  6
BYLAYER
 90
3
 70
0
 10
51.2438494562
 20
71.7127312781
 10
49.274151301
 20
73.5662700075
 10
47.7336817514
 20
75.5480094415
  0
LWPOLYLINE
  5
31A
100
AcDbEntity
  8
0
100
AcDbPolyline
 62
7
  6
BYLAYER
 90
4
 70
0
 10
52.502347029
 20
70.4802690288
 10
52.183551774
 20
70.8169805421
 10
51.5599230814
 20
71.4268072925
 10
51.2438495514
 20
71.7127313861
  0
LINE
  5
31B
100
AcDbEntity
  8
0
100
AcDbLine
 62
7
  6
BYLAYER
 10
53.9223977168
 20
73.196737166
 11
54.2629224568
 21
72.4645131257
  0
LINE
  5
31C
100
AcDbEntity
  8
0
100
AcDbLine
 62
7
  6
BYLAYER
 10
39.5894262748
 20
82.0857499726
 11
26.3694262758
 21
82.0857499726
  0
ARC
  5
31D
100
AcDbEntity
  8
0
100
AcDbCircle
 62
7
  6
BYLAYER
 10
-1203.7334801801
 20
55.5005938605
 40
1254.6842380735
100
AcDbArc
 50
358.3832596208
 51
359.4668547558
  0
ARC
  5
31E
100
AcDbEntity
  8
0
100
AcDbCircle
 62
7
  6
BYLAYER
 10
-114.214518083
 20
31.2989212679
 40
173.9616516391
100
AcDbArc
 50
8.6949986096
 51
9.1425276247
  0
ARC
  5
31F
100
AcDbEntity
  8
0
100
AcDbCircle
 62
7
  6
BYLAYER
 10
-91.9365554627
 20
34.9667237213
 40
151.3837260323
100
AcDbArc
 50
9.4018215011
 51
10.0154921943
  0
ARC
  5
320
100
AcDbEntity
  8
0
100
AcDbCircle
 62
7
  6
BYLAYER
 10
-54.0419005446
 20
41.6297306141
 40
112.9077052614
100
AcDbArc
 50
10.2371394113
 51
10.6934065046
  0
ARC
  5
321
100
AcDbEntity
  8
0
100
AcDbCircle
 62
7
  6
BYLAYER
 10
-131.6476313527
 20
55.7557499725
 40
190.9999999998
100
AcDbArc
 50
346.7849358889
 51
356.4189325402
  0
ARC
  5
322
100
AcDbEntity
  8
0
100
AcDbCircle
 62
7
  6
BYLAYER
 10
-131.647506059
 20
54.7798820072
 40
189.9998717563
100
AcDbArc
 50
346.8371428055
 51
348.4833784099
  0
ARC
  5
323
100
AcDbEntity
  8
0
100
AcDbCircle
 62
7
  6
BYLAYER
 10
24.1419173451
 20
25.8220682034
 40
10.8958863654
100
AcDbArc
 50
271.0752521565
 51
274.5903613634
  0
ARC
  5
324
100
AcDbEntity
  8
0
100
AcDbCircle
 62
7
  6
BYLAYER
 10
21.6401272378
 20
5.8214989165
 40
10.4161414543
100
AcDbArc
 50
85.156582545
 51
90.0207802334
  0
ARC
  5
325
100
AcDbEntity
  8
0
100
AcDbCircle
 62
7
  6
BYLAYER
 10
25.822184862
 20
5.7102918867
 40
10.128992664
100
AcDbArc
 50
93.1574463942
 51
96.3265329078
  0
ARC
  5
326
100
AcDbEntity
  8
0
100
AcDbCircle
 62
7
  6
BYLAYER
 10
25.8151677169
 20
6.0998930175
 40
10.0319053892
100
AcDbArc
 50
92.5499407421
 51
94.73650151
  0
ARC
  5
327
100
AcDbEntity
  8
0
100
AcDbCircle
 62
7
  6
BYLAYER
 10
21.682393004
 20
25.6374106431
 40
9.99557116
100
AcDbArc
 50
269.9327901797
 51
275.03577392
  0
ARC
  5
328
100
AcDbEntity
  8
0
100
AcDbCircle
 62
7
  6
BYLAYER
 10
25.672533948
 20
5.8313270685
 40
9.9054298773
100
AcDbArc
 50
94.5102600776
 51
95.4369875919
  0
ARC
  5
329
100
AcDbEntity
  8
0
100
AcDbCircle
 62
7
  6
BYLAYER
 10
25.7908927223
 20
6.3300896278
 40
9.8004918058
100
AcDbArc
 50
94.7061948869
 51
96.3553961455
  0
ARC
  5
32A
100
AcDbEntity
  8
0
100
AcDbCircle
 62
7
  6
BYLAYER
 10
25.7812803414
 20
6.5157635758
 40
9.3224913701
100
AcDbArc
 50
91.5327504001
 51
93.1790981208
  0
ARC
  5
32B
100
AcDbEntity
  8
0
100
AcDbCircle
 62
7
  6
BYLAYER
 10
24.1879795102
 20
23.7220769738
 40
8.7954030491
100
AcDbArc
 50
269.115965509
 51
271.0319550613
  0
ARC
  5
32C
100
AcDbEntity
  8
0
100
AcDbCircle
 62
7
  6
BYLAYER
 10
25.7124390704
 20
6.9608257365
 40
8.7786747542
100
AcDbArc
 50
89.7165297956
 51
90.4439750753
  0
ARC
  5
32D
100
AcDbEntity
  8
0
100
AcDbCircle
 62
7
  6
BYLAYER
 10
25.5485153204
 20
7.6965427035
 40
8.0409554283
100
AcDbArc
 50
101.1375538425
 51
101.8073711946
  0
ARC
  5
32E
100
AcDbEntity
  8
0
100
AcDbCircle
 62
7
  6
BYLAYER
 10
25.7166213895
 20
7.7819467425
 40
7.9575431067
100
AcDbArc
 50
88.9703591099
 51
89.7173923621
  0
ARC
  5
32F
100
AcDbEntity
  8
0
100
AcDbCircle
 62
7
  6
BYLAYER
 10
24.3976653788
 20
22.7502580087
 40
7.8161904479
100
AcDbArc
 50
280.4800503708
 51
281.8242164454
  0
ARC
  5
330
100
AcDbEntity
  8
0
100
AcDbCircle
 62
7
  6
BYLAYER
 10
18.6208081379
 20
23.9768437432
 40
7.7016574108
100
AcDbArc
 50
263.9230635252
 51
265.1667104359
  0
ARC
  5
331
100
AcDbEntity
  8
0
100
AcDbCircle
 62
7
  6
BYLAYER
 10
25.4440669085
 20
8.2231593404
 40
7.5040811986
100
AcDbArc
 50
100.8555503002
 51
101.1317716269
  0
ARC
  5
332
100
AcDbEntity
  8
0
100
AcDbCircle
 62
7
  6
BYLAYER
 10
24.5399354853
 20
22.3010106013
 40
7.0607156035
100
AcDbArc
 50
277.9839372395
 51
279.488384175
  0
ARC
  5
333
100
AcDbEntity
  8
0
100
AcDbCircle
 62
7
  6
BYLAYER
 10
24.5451406261
 20
21.9704211346
 40
7.0225385548
100
AcDbArc
 50
277.4397162702
 51
280.4542022
  0
ARC
  5
334
100
AcDbEntity
  8
0
100
AcDbCircle
 62
7
  6
BYLAYER
 10
24.5503341236
 20
22.2331715473
 40
6.9920905231
100
AcDbArc
 50
279.4959781731
 51
280.1464689352
  0
ARC
  5
335
100
AcDbEntity
  8
0
100
AcDbCircle
 62
7
  6
BYLAYER
 10
30.6107426936
 20
21.3276475559
 40
5.5782647
100
AcDbArc
 50
270.0260025218
 51
273.3112622264
  0
ARC
  5
336
100
AcDbEntity
  8
0
100
AcDbCircle
 62
7
  6
BYLAYER
 10
27.6041758961
 20
11.1046494788
 40
5.1329902074
100
AcDbArc
 50
88.5342301222
 51
90.0007592661
  0
ARC
  5
337
100
AcDbEntity
  8
0
100
AcDbCircle
 62
7
  6
BYLAYER
 10
24.5690978921
 20
11.1852814283
 40
5.0523582585
100
AcDbArc
 50
88.429199427
 51
89.9987981081
  0
ARC
  5
338
100
AcDbEntity
  8
0
100
AcDbCircle
 62
7
  6
BYLAYER
 10
31.5720580264
 20
19.8500040029
 40
4.7980316697
100
AcDbArc
 50
269.9768650869
 51
272.3585776638
  0
ARC
  5
339
100
AcDbEntity
  8
0
100
AcDbCircle
 62
7
  6
BYLAYER
 10
25.068726802
 20
19.5519724021
 40
4.5482628812
100
AcDbArc
 50
281.8057972896
 51
285.3756411849
  0
ARC
  5
33A
100
AcDbEntity
  8
0
100
AcDbCircle
 62
7
  6
BYLAYER
 10
25.0801440202
 20
19.5061923193
 40
4.5010985306
100
AcDbArc
 50
286.1593634967
 51
287.0969765544
  0
ARC
  5
33B
100
AcDbEntity
  8
0
100
AcDbCircle
 62
7
  6
BYLAYER
 10
25.0898846368
 20
19.4728727832
 40
4.4663844956
100
AcDbArc
 50
285.3829841434
 51
286.1583036407
  0
ARC
  5
33C
100
AcDbEntity
  8
0
100
AcDbCircle
 62
7
  6
BYLAYER
 10
24.7989453145
 20
11.2650606617
 40
4.3945663878
100
AcDbArc
 50
101.7615732383
 51
106.6887371945
  0
ARC
  5
33D
100
AcDbEntity
  8
0
100
AcDbCircle
 62
7
  6
BYLAYER
 10
25.9541305243
 20
12.2342490411
 40
3.4973197314
100
AcDbArc
 50
83.2660324812
 51
84.3890231845
  0
ARC
  5
33E
100
AcDbEntity
  8
0
100
AcDbCircle
 62
7
  6
BYLAYER
 10
25.9984044887
 20
12.6149216487
 40
3.1140817954
100
AcDbArc
 50
82.7604850872
 51
83.2537244675
  0
ARC
  5
33F
100
AcDbEntity
  8
0
100
AcDbCircle
 62
7
  6
BYLAYER
 10
31.6932730961
 20
18.1115832199
 40
2.9962646471
100
AcDbArc
 50
275.8333284352
 51
279.072225248
  0
ARC
  5
340
100
AcDbEntity
  8
0
100
AcDbCircle
 62
7
  6
BYLAYER
 10
31.3843063194
 20
13.7462360132
 40
1.6349909725
100
AcDbArc
 50
98.3728899254
 51
99.4900981897
  0
ARC
  5
341
100
AcDbEntity
  8
0
100
AcDbCircle
 62
7
  6
BYLAYER
 10
-46.1045523308
 20
43.1300296973
 40
104.8298100055
100
AcDbArc
 50
10.6926183162
 51
11.252475478
  0
ARC
  5
342
100
AcDbEntity
  8
0
100
AcDbCircle
 62
7
  6
BYLAYER
 10
31.5097896153
 20
63.6760636231
 40
24.0280009448
100
AcDbArc
 50
14.9999422719
 51
16.1016715105
  0
ARC
  5
343
100
AcDbEntity
  8
0
100
AcDbCircle
 62
7
  6
BYLAYER
 10
31.9187449357
 20
63.7856798067
 40
24.0046108915
100
AcDbArc
 50
14.9999814378
 51
16.1096636772
  0
ARC
  5
344
100
AcDbEntity
  8
0
100
AcDbCircle
 62
7
  6
BYLAYER
 10
27.6650539051
 20
57.7598950804
 40
19.0526884403
100
AcDbArc
 50
146.5829074546
 51
150.4138194617
  0
ARC
  5
345
100
AcDbEntity
  8
0
100
AcDbCircle
 62
7
  6
BYLAYER
 10
25.9124139002
 20
58.8390508158
 40
17.0094353376
100
AcDbArc
 50
134.9304552949
 51
136.9463327573
  0
ARC
  5
346
100
AcDbEntity
  8
0
100
AcDbCircle
 62
7
  6
BYLAYER
 10
25.8122786751
 20
58.946101044
 40
16.8629279299
100
AcDbArc
 50
132.9522345482
 51
134.946464816
  0
ARC
  5
347
100
AcDbEntity
  8
0
100
AcDbCircle
 62
7
  6
BYLAYER
 10
25.5653735859
 20
59.2063758747
 40
16.5041891288
100
AcDbArc
 50
130.9431327125
 51
132.9405456611
  0
ARC
  5
348
100
AcDbEntity
  8
0
100
AcDbCircle
 62
7
  6
BYLAYER
 10
26.3694078302
 20
66.0857780654
 40
15.9999777574
100
AcDbArc
 50
89.9999339474
 51
165.0000800773
  0
ARC
  5
349
100
AcDbEntity
  8
0
100
AcDbCircle
 62
7
  6
BYLAYER
 10
25.5350471018
 20
66.2376013347
 40
14.7531619784
100
AcDbArc
 50
135.6819392276
 51
163.8564969895
  0
ARC
  5
34A
100
AcDbEntity
  8
0
100
AcDbCircle
 62
7
  6
BYLAYER
 10
11.567528793
 20
79.7188175616
 40
7.9924765384
100
AcDbArc
 50
327.940164888
 51
329.2283924506
  0
ARC
  5
34B
100
AcDbEntity
  8
0
100
AcDbCircle
 62
7
  6
BYLAYER
 10
16.5106150183
 20
68.7275889382
 40
5.7934123276
100
AcDbArc
 50
162.7407554846
 51
164.999722442
  0
ARC
  5
34C
100
AcDbEntity
  8
0
100
AcDbCircle
 62
7
  6
BYLAYER
 10
26.3705804231
 20
74.5702095328
 40
4.0009710063
100
AcDbArc
 50
90.0165285958
 51
164.9928705447
  0
ARC
  5
34D
100
AcDbEntity
  8
0
100
AcDbCircle
 62
7
  6
BYLAYER
 10
16.8010283408
 20
45.5467826922
 40
1.9426701546
100
AcDbArc
 50
242.259135599
 51
244.9179082583
  0
ARC
  5
34E
100
AcDbEntity
  8
0
100
AcDbCircle
 62
7
  6
BYLAYER
 10
17.2902844617
 20
45.0855071344
 40
1.7127819922
100
AcDbArc
 50
175.7216354785
 51
184.2641171861
  0
ARC
  5
34F
100
AcDbEntity
  8
0
100
AcDbCircle
 62
7
  6
BYLAYER
 10
17.4794262753
 20
45.0857499726
 40
1.5
100
AcDbArc
 50
359.9999842892
 51
180.0
  0
ARC
  5
350
100
AcDbEntity
  8
0
100
AcDbCircle
 62
7
  6
BYLAYER
 10
32.9689373332
 20
190.100701394
 40
133.1377881616
100
AcDbArc
 50
263.1830392844
 51
270.0045139109
  0
ARC
  5
351
100
AcDbEntity
  8
0
100
AcDbCircle
 62
7
  6
BYLAYER
 10
32.9794262694
 20
-482.7995971427
 40
503.2043218663
100
AcDbArc
 50
88.0102216196
 51
91.9897783791
  0
ARC
  5
352
100
AcDbEntity
  8
0
100
AcDbCircle
 62
7
  6
BYLAYER
 10
32.9794262758
 20
-467.7957322112
 40
485.8281906695
100
AcDbArc
 50
87.9909030765
 51
92.0090969223
  0
ARC
  5
353
100
AcDbEntity
  8
0
100
AcDbCircle
 62
7
  6
BYLAYER
 10
34.383467343
 20
10.5619396897
 40
5.6757016711
100
AcDbArc
 50
89.9559807515
 51
95.0059231403
  0
ARC
  5
354
100
AcDbEntity
  8
0
100
AcDbCircle
 62
7
  6
BYLAYER
 10
37.9675077244
 20
21.36601521
 40
5.6166323407
100
AcDbArc
 50
270.0256103596
 51
273.2954456327
  0
ARC
  5
355
100
AcDbEntity
  8
0
100
AcDbCircle
 62
7
  6
BYLAYER
 10
40.4441414129
 20
20.2676324431
 40
5.2156625875
100
AcDbArc
 50
269.93990652
 51
274.8466536584
  0
ARC
  5
356
100
AcDbEntity
  8
0
100
AcDbCircle
 62
7
  6
BYLAYER
 10
33.7060558381
 20
20.2137862514
 40
5.1618164538
100
AcDbArc
 50
269.9389863296
 51
274.8718900545
  0
ARC
  5
357
100
AcDbEntity
  8
0
100
AcDbCircle
 62
7
  6
BYLAYER
 10
34.342759115
 20
20.6858950209
 40
5.0443447557
100
AcDbArc
 50
264.8176014597
 51
269.978500334
  0
ARC
  5
358
100
AcDbEntity
  8
0
100
AcDbCircle
 62
7
  6
BYLAYER
 10
34.3441897265
 20
20.6042587513
 40
4.9627092438
100
AcDbArc
 50
269.9616298809
 51
272.7797871797
  0
ARC
  5
359
100
AcDbEntity
  8
0
100
AcDbCircle
 62
7
  6
BYLAYER
 10
34.3721152161
 20
20.0799891839
 40
4.4377029518
100
AcDbArc
 50
272.747936508
 51
275.9643695903
  0
ARC
  5
35A
100
AcDbEntity
  8
0
100
AcDbCircle
 62
7
  6
BYLAYER
 10
34.4222649925
 20
19.6209941083
 40
3.975982089
100
AcDbArc
 50
275.9328952295
 51
279.4239933863
  0
ARC
  5
35B
100
AcDbEntity
  8
0
100
AcDbCircle
 62
7
  6
BYLAYER
 10
34.6109998948
 20
12.7697579198
 40
3.347618991
100
AcDbArc
 50
87.3491924318
 51
90.0326838694
  0
ARC
  5
35C
100
AcDbEntity
  8
0
100
AcDbCircle
 62
7
  6
BYLAYER
 10
34.6266841864
 20
13.0807784249
 40
3.0362061842
100
AcDbArc
 50
84.4401430923
 51
87.3734070933
  0
ARC
  5
35D
100
AcDbEntity
  8
0
100
AcDbCircle
 62
7
  6
BYLAYER
 10
34.654545052
 20
13.3544745962
 40
2.7610985595
100
AcDbArc
 50
81.2769579884
 51
84.4653054333
  0
CIRCLE
  5
35E
100
AcDbEntity
  8
0
100
AcDbCircle
 62
7
  6
BYLAYER
 10
32.9794262753
 20
45.0857499726
 40
11.8
  0
CIRCLE
  5
35F
100
AcDbEntity
  8
0
100
AcDbCircle
 62
7
  6
BYLAYER
 10
32.9794262753
 20
45.0857499726
 40
11.7617107977
  0
ARC
  5
360
100
AcDbEntity
  8
0
100
AcDbCircle
 62
7
  6
BYLAYER
 10
32.9794262753
 20
45.0857499726
 40
10.325
100
AcDbArc
 50
0.0
 51
359.7760407464
  0
CIRCLE
  5
361
100
AcDbEntity
  8
0
100
AcDbCircle
 62
7
  6
BYLAYER
 10
32.9794262753
 20
45.0857499726
 40
10.15
  0
CIRCLE
  5
362
100
AcDbEntity
  8
0
100
AcDbCircle
 62
7
  6
BYLAYER
 10
32.9794262753
 20
45.0857499726
 40
9.15
  0
CIRCLE
  5
363
100
AcDbEntity
  8
0
100
AcDbCircle
 62
7
  6
BYLAYER
 10
32.9794262753
 20
45.0857499726
 40
8.25
  0
CIRCLE
  5
364
100
AcDbEntity
  8
0
100
AcDbCircle
 62
7
  6
BYLAYER
 10
32.9794262753
 20
45.0857499726
 40
7.15
  0
CIRCLE
  5
365
100
AcDbEntity
  8
0
100
AcDbCircle
 62
7
  6
BYLAYER
 10
32.9794262753
 20
45.0857499726
 40
5.65
  0
ARC
  5
366
100
AcDbEntity
  8
0
100
AcDbCircle
 62
7
  6
BYLAYER
 10
48.6685680171
 20
45.0855071332
 40
1.7127820641
100
AcDbArc
 50
355.7358900262
 51
4.2783774255
  0
ARC
  5
367
100
AcDbEntity
  8
0
100
AcDbCircle
 62
7
  6
BYLAYER
 10
48.4794262753
 20
45.0857499726
 40
1.5
100
AcDbArc
 50
0.0
 51
180.0
  0
ARC
  5
368
100
AcDbEntity
  8
0
100
AcDbCircle
 62
7
  6
BYLAYER
 10
115.1928648251
 20
39.0812216579
 40
108.5162656187
100
AcDbArc
 50
173.8073538879
 51
173.9882261616
  0
ARC
  5
369
100
AcDbEntity
  8
0
100
AcDbCircle
 62
7
  6
BYLAYER
 10
34.6597317356
 20
63.6195851562
 40
24.2461105748
100
AcDbArc
 50
163.9091490463
 51
164.999988891
  0
ARC
  5
36A
100
AcDbEntity
  8
0
100
AcDbCircle
 62
7
  6
BYLAYER
 10
34.0439876119
 20
63.7845957693
 40
24.0086394916
100
AcDbArc
 50
164.4031312522
 51
164.6930287958
  0
ARC
  5
36B
100
AcDbEntity
  8
0
100
AcDbCircle
 62
7
  6
BYLAYER
 10
34.0379655188
 20
63.7862875939
 40
24.0023842549
100
AcDbArc
 50
163.8900613217
 51
164.2600706514
  0
ARC
  5
36C
100
AcDbEntity
  8
0
100
AcDbCircle
 62
7
  6
BYLAYER
 10
37.6836487738
 20
57.4046032232
 40
19.7586649627
100
AcDbArc
 50
28.4014939577
 51
30.2838294174
  0
ARC
  5
36D
100
AcDbEntity
  8
0
100
AcDbCircle
 62
7
  6
BYLAYER
 10
39.7214904589
 20
58.5221815784
 40
17.4632330991
100
AcDbArc
 50
43.0961683535
 51
45.0560019811
  0
ARC
  5
36E
100
AcDbEntity
  8
0
100
AcDbCircle
 62
7
  6
BYLAYER
 10
40.154023705
 20
58.9557142858
 40
16.8508315925
100
AcDbArc
 50
45.0556342411
 51
47.0476137029
  0
ARC
  5
36F
100
AcDbEntity
  8
0
100
AcDbCircle
 62
7
  6
BYLAYER
 10
40.570279673
 20
59.4028576117
 40
16.2399255567
100
AcDbArc
 50
47.04756784
 51
49.0737749635
  0
ARC
  5
370
100
AcDbEntity
  8
0
100
AcDbCircle
 62
7
  6
BYLAYER
 10
39.5895101291
 20
66.0858570198
 40
15.9998838451
100
AcDbArc
 50
14.999707443
 51
90.0003002831
  0
ARC
  5
371
100
AcDbEntity
  8
0
100
AcDbCircle
 62
7
  6
BYLAYER
 10
40.4206820386
 20
66.2360303409
 40
14.7566084228
100
AcDbArc
 50
16.1475992839
 51
44.3144206429
  0
ARC
  5
372
100
AcDbEntity
  8
0
100
AcDbCircle
 62
7
  6
BYLAYER
 10
54.3913071256
 20
79.718803226
 40
7.9924547725
100
AcDbArc
 50
210.77096045
 51
212.0597237968
  0
ARC
  5
373
100
AcDbEntity
  8
0
100
AcDbCircle
 62
7
  6
BYLAYER
 10
49.4467687162
 20
68.7271174438
 40
5.7949527184
100
AcDbArc
 50
15.0004938941
 51
17.2588220163
  0
ARC
  5
374
100
AcDbEntity
  8
0
100
AcDbCircle
 62
7
  6
BYLAYER
 10
39.5882723342
 20
74.5702098429
 40
4.0009705934
100
AcDbArc
 50
15.0071260116
 51
89.9834743612
  0
ARC
  5
375
100
AcDbEntity
  8
0
100
AcDbCircle
 62
7
  6
BYLAYER
 10
49.1582019066
 20
45.5460646095
 40
1.9418611076
100
AcDbArc
 50
295.0823796843
 51
297.7517615892
  0
ARC
  5
376
100
AcDbEntity
  8
0
100
AcDbCircle
 62
7
  6
BYLAYER
 10
182.6293651259
 20
30.8968030474
 40
176.4500162817
100
AcDbArc
 50
172.0684273658
 51
172.3026395502
  0
ARC
  5
377
100
AcDbEntity
  8
0
100
AcDbCircle
 62
7
  6
BYLAYER
 10
180.1706891894
 20
31.3004087772
 40
173.9587735481
100
AcDbArc
 50
170.942716855
 51
171.2104088054
  0
ARC
  5
378
100
AcDbEntity
  8
0
100
AcDbCircle
 62
7
  6
BYLAYER
 10
141.9451782543
 20
36.0797269504
 40
135.4365567123
100
AcDbArc
 50
173.1617419078
 51
173.3345060766
  0
ARC
  5
379
100
AcDbEntity
  8
0
100
AcDbCircle
 62
7
  6
BYLAYER
 10
122.0902022972
 20
41.2347832623
 40
115.0340856901
100
AcDbArc
 50
169.1014302722
 51
170.0178427623
  0
ARC
  5
37A
100
AcDbEntity
  8
0
100
AcDbCircle
 62
7
  6
BYLAYER
 10
197.6064839035
 20
55.7557499726
 40
191.0
100
AcDbArc
 50
183.5810674599
 51
193.2144596869
  0
ARC
  5
37B
100
AcDbEntity
  8
0
100
AcDbCircle
 62
7
  6
BYLAYER
 10
197.4916637142
 20
54.754791131
 40
189.8824765919
100
AcDbArc
 50
191.516112661
 51
193.1633661236
  0
ARC
  5
37C
100
AcDbEntity
  8
0
100
AcDbCircle
 62
7
  6
BYLAYER
 10
33.0230080779
 20
189.5447676124
 40
132.5818611306
100
AcDbArc
 50
269.98116595
 51
276.8312775881
  0
ARC
  5
37D
100
AcDbEntity
  8
0
100
AcDbCircle
 62
7
  6
BYLAYER
 10
32.9794264236
 20
173.9044563706
 40
108.4558489397
100
AcDbArc
 50
263.3267448562
 51
276.6732533182
  0
ARC
  5
37E
100
AcDbEntity
  8
0
100
AcDbCircle
 62
7
  6
BYLAYER
 10
1269.6923327801
 20
55.5005938589
 40
1254.6842381229
100
AcDbArc
 50
180.5331452441
 51
181.616740379
  0
SPLINE
  5
37F
100
AcDbEntity
  8
0
100
AcDbSpline
 62
7
  6
BYLAYER
 70
0
 71
3
 72
11
 73
7
 74
0
 42
0.0000001
 43
0.0000001
 44
0.0000000001
 40
0.0
 40
0.0
 40
0.0
 40
0.0
 40
0.3009877678
 40
0.6124538359
 40
0.8916311122
 40
1.0
 40
1.0
 40
1.0
 40
1.0
 10
9.2487486239
 20
63.5857263313
 30
0.0
 10
9.124569722
 20
62.9617777017
 30
0.0
 10
8.88396463
 20
61.6901822096
 30
0.0
 10
8.5643847644
 20
59.8330449029
 30
0.0
 10
8.3301173395
 20
58.374510101
 30
0.0
 10
8.2059247611
 20
57.5649758787
 30
0.0
 10
8.1716370085
 20
57.3385402199
 30
0.0
  0
LINE
  5
380
100
AcDbEntity
  8
0
100
AcDbLine
 62
7
  6
BYLAYER
 10
9.2487521544
 20
63.5857440708
 11
9.2581434755
 21
63.6328729793
  0
SPLINE
  5
381
100
AcDbEntity
  8
0
100
AcDbSpline
 62
7
  6
BYLAYER
 70
0
 71
3
 72
9
 73
5
 74
0
 42
0.0000001
 43
0.0000001
 44
0.0000000001
 40
0.0
 40
0.0
 40
0.0
 40
0.0
 40
0.0771222095
 40
1.0
 40
1.0
 40
1.0
 40
1.0
 10
9.2581434755
 20
63.6328729793
 30
0.0
 10
9.2716492866
 20
63.7005656197
 30
0.0
 10
9.447680589
 20
64.5781494909
 30
0.0
 10
9.6356803516
 20
65.4538128669
 30
0.0
 10
9.8494262753
 20
66.251523514
 30
0.0
  0
SPLINE
  5
382
100
AcDbEntity
  8
0
100
AcDbSpline
 62
7
  6
BYLAYER
 70
0
 71
3
 72
20
 73
16
 74
0
 42
0.0000001
 43
0.0000001
 44
0.0000000001
 40
0.0
 40
0.0
 40
0.0
 40
0.0
 40
0.1189213542
 40
0.2138634912
 40
0.2871327636
 40
0.3446530862
 40
0.388364265
 40
0.4270320361
 40
0.4706202565
 40
0.5277882528
 40
0.6008146945
 40
0.690060506
 40
0.7963681898
 40
0.9202535869
 40
1.0
 40
1.0
 40
1.0
 40
1.0
 10
6.9794262753
 20
46.3357499959
 30
0.0
 10
6.9794262761
 20
46.774704464
 30
0.0
 10
7.0185716885
 20
47.5638187856
 30
0.0
 10
7.0977790127
 20
48.6205852539
 30
0.0
 10
7.172582708
 20
49.4504760441
 30
0.0
 10
7.236108899
 20
50.0914401276
 30
0.0
 10
7.2898923134
 20
50.6050211888
 30
0.0
 10
7.3402644694
 20
51.067246944
 30
0.0
 10
7.3979687127
 20
51.5786353481
 30
0.0
 10
7.4726430982
 20
52.2157311946
 30
0.0
 10
7.571177419
 20
53.0197029601
 30
0.0
 10
7.6976293285
 20
54.0029756359
 30
0.0
 10
7.8555452747
 20
55.1714534908
 30
0.0
 10
8.0168904693
 20
56.3040567889
 30
0.0
 10
8.1275669287
 20
57.0475022606
 30
0.0
 10
8.1716370085
 20
57.3385402199
 30
0.0
  0
SPLINE
  5
383
100
AcDbEntity
  8
0
100
AcDbSpline
 62
7
  6
BYLAYER
 70
0
 71
3
 72
9
 73
5
 74
0
 42
0.0000001
 43
0.0000001
 44
0.0000000001
 40
0.0
 40
0.0
 40
0.0
 40
0.0
 40
0.9223948638
 40
1.0
 40
1.0
 40
1.0
 40
1.0
 10
9.8317915176
 20
66.1853440319
 30
0.0
 10
9.626095623
 20
65.4091316826
 30
0.0
 10
9.4434942759
 20
64.557181707
 30
0.0
 10
9.2722206747
 20
63.7034140473
 30
0.0
 10
9.2589961774
 20
63.6371463348
 30
0.0
  0
SPLINE
  5
384
100
AcDbEntity
  8
0
100
AcDbSpline
 62
7
  6
BYLAYER
 70
0
 71
3
 72
12
 73
8
 74
0
 42
0.0000001
 43
0.0000001
 44
0.0000000001
 40
0.0
 40
0.0
 40
0.0
 40
0.0
 40
0.1396186208
 40
0.2333899695
 40
0.3474797348
 40
0.6366345873
 40
1.0
 40
1.0
 40
1.0
 40
1.0
 10
29.7439224343
 20
15.9023211769
 30
0.0
 10
29.7439217741
 20
15.8899952675
 30
0.0
 10
29.7564617569
 20
15.8702151907
 30
0.0
 10
29.7814075084
 20
15.8528508746
 30
0.0
 10
29.8207926086
 20
15.832913777
 30
0.0
 10
29.8856122115
 20
15.8126717344
 30
0.0
 10
29.9420011364
 20
15.8007079266
 30
0.0
 10
29.9735689909
 20
15.7950048412
 30
0.0
  0
SPLINE
  5
385
100
AcDbEntity
  8
0
100
AcDbSpline
 62
7
  6
BYLAYER
 70
0
 71
3
 72
9
 73
5
 74
0
 42
0.0000001
 43
0.0000001
 44
0.0000000001
 40
0.0
 40
0.0
 40
0.0
 40
0.0
 40
0.4703062517
 40
1.0
 40
1.0
 40
1.0
 40
1.0
 10
29.9735689909
 20
15.7950048412
 30
0.0
 10
30.0725897294
 20
15.777115639
 30
0.0
 10
30.2860484231
 20
15.7561960774
 30
0.0
 10
30.4999444019
 20
15.7493834303
 30
0.0
 10
30.6132742753
 20
15.7493834303
 30
0.0
  0
SPLINE
  5
386
100
AcDbEntity
  8
0
100
AcDbSpline
 62
7
  6
BYLAYER
 70
0
 71
3
 72
13
 73
9
 74
0
 42
0.0000001
 43
0.0000001
 44
0.0000000001
 40
0.0
 40
0.0
 40
0.0
 40
0.0
 40
0.0500948217
 40
0.1236171294
 40
0.2238016613
 40
0.3481018036
 40
0.6523436068
 40
1.0
 40
1.0
 40
1.0
 40
1.0
 10
31.894140852
 20
16.3777411969
 30
0.0
 10
31.8941411537
 20
16.3837357744
 30
0.0
 10
31.9022669985
 20
16.3977848191
 30
0.0
 10
31.9242561182
 20
16.4130565304
 30
0.0
 10
31.956376501
 20
16.4289065226
 30
0.0
 10
32.0158991855
 20
16.4504966328
 30
0.0
 10
32.1061594495
 20
16.4732623874
 30
0.0
 10
32.183161646
 20
16.4861845899
 30
0.0
 10
32.2244246753
 20
16.491485802
 30
0.0
  0
SPLINE
  5
387
100
AcDbEntity
  8
0
100
AcDbSpline
 62
7
  6
BYLAYER
 70
0
 71
3
 72
12
 73
8
 74
0
 42
0.0000001
 43
0.0000001
 44
0.0000000001
 40
0.0
 40
0.0
 40
0.0
 40
0.0
 40
0.1396379378
 40
0.2334171719
 40
0.3475075003
 40
0.6366480359
 40
1.0
 40
1.0
 40
1.0
 40
1.0
 10
37.102474753
 20
15.9023494838
 30
0.0
 10
37.102474108
 20
15.8900543612
 30
0.0
 10
37.1149739085
 20
15.8703233751
 30
0.0
 10
37.1398426352
 20
15.852984314
 30
0.0
 10
37.1791082467
 20
15.8330700589
 30
0.0
 10
37.2437388965
 20
15.8128314024
 30
0.0
 10
37.2999684833
 20
15.8008596386
 30
0.0
 10
37.3314481025
 20
15.7951504385
 30
0.0
  0
SPLINE
  5
388
100
AcDbEntity
  8
0
100
AcDbSpline
 62
7
  6
BYLAYER
 70
0
 71
3
 72
9
 73
5
 74
0
 42
0.0000001
 43
0.0000001
 44
0.0000000001
 40
0.0
 40
0.0
 40
0.0
 40
0.0
 40
0.4701898839
 40
1.0
 40
1.0
 40
1.0
 40
1.0
 10
37.3314481025
 20
15.7951504385
 30
0.0
 10
37.4302596824
 20
15.7772297932
 30
0.0
 10
37.6433377129
 20
15.7562347486
 30
0.0
 10
37.8568610509
 20
15.7493834303
 30
0.0
 10
37.9700182753
 20
15.7493834303
 30
0.0
  0
SPLINE
  5
389
100
AcDbEntity
  8
0
100
AcDbSpline
 62
7
  6
BYLAYER
 70
0
 71
3
 72
11
 73
7
 74
0
 42
0.0000001
 43
0.0000001
 44
0.0000000001
 40
0.0
 40
0.0
 40
0.0
 40
0.0
 40
0.1205747224
 40
0.3459133688
 40
0.6515172047
 40
1.0
 40
1.0
 40
1.0
 40
1.0
 10
38.5946926134
 20
15.4689012049
 30
0.0
 10
38.5946957622
 20
15.4740379484
 30
0.0
 10
38.6092864737
 20
15.4845319566
 30
0.0
 10
38.6336883406
 20
15.4933324249
 30
0.0
 10
38.6707754726
 20
15.5029910484
 30
0.0
 10
38.698101508
 20
15.5074549884
 30
0.0
 10
38.7128262753
 20
15.5093493411
 30
0.0
  0
SPLINE
  5
38A
100
AcDbEntity
  8
0
100
AcDbSpline
 62
7
  6
BYLAYER
 70
0
 71
3
 72
23
 73
19
 74
0
 42
0.0000001
 43
0.0000001
 44
0.0000000001
 40
0.0
 40
0.0
 40
0.0
 40
0.0
 40
0.0567852091
 40
0.1145323847
 40
0.1739739671
 40
0.2355458766
 40
0.2993068335
 40
0.3650010163
 40
0.4321218941
 40
0.4999974503
 40
0.5678732095
 40
0.6349946651
 40
0.7006896989
 40
0.764451639
 40
0.826024544
 40
0.8854668568
 40
0.9432146847
 40
1.0
 40
1.0
 40
1.0
 40
1.0
 10
46.9794262753
 20
40.7556229536
 30
0.0
 10
46.9794262753
 20
39.9849814038
 30
0.0
 10
46.7996392824
 20
38.4250128011
 30
0.0
 10
46.0029409492
 20
36.1826778337
 30
0.0
 10
44.7064813449
 20
34.1103601765
 30
0.0
 10
42.958476868
 20
32.289275249
 30
0.0
 10
40.8241360765
 20
30.7908467993
 30
0.0
 10
38.3852568817
 20
29.6750732157
 30
0.0
 10
35.736059655
 20
28.9870145502
 30
0.0
 10
32.9795293737
 20
28.7545096098
 30
0.0
 10
30.2229884536
 20
28.9869819616
 30
0.0
 10
27.5737614163
 20
29.675015264
 30
0.0
 10
25.1348409
 20
30.7907777352
 30
0.0
 10
23.0004533814
 20
32.2892077978
 30
0.0
 10
21.2524130259
 20
34.1103097794
 30
0.0
 10
19.9559219986
 20
36.1826467183
 30
0.0
 10
19.159216327
 20
38.4250014483
 30
0.0
 10
18.9794262753
 20
39.9849799617
 30
0.0
 10
18.9794262753
 20
40.7556229536
 30
0.0
  0
SPLINE
  5
38B
100
AcDbEntity
  8
0
100
AcDbSpline
 62
7
  6
BYLAYER
 70
0
 71
3
 72
27
 73
23
 74
0
 42
0.0000001
 43
0.0000001
 44
0.0000000001
 40
0.0
 40
0.0
 40
0.0
 40
0.0
 40
0.0589077478
 40
0.0885855036
 40
0.1184565412
 40
0.1789252619
 40
0.2407113667
 40
0.272173949
 40
0.3039851805
 40
0.368487958
 40
0.4339791261
 40
0.5000026925
 40
0.5660260668
 40
0.6315166816
 40
0.6960185975
 40
0.7278293229
 40
0.7592913918
 40
0.8210764396
 40
0.8815443025
 40
0.9114149578
 40
0.9410924319
 40
1.0
 40
1.0
 40
1.0
 40
1.0
 10
49.9794262753
 20
40.7556229536
 30
0.0
 10
49.9794262753
 20
39.7710982278
 30
0.0
 10
49.8104527728
 20
38.2837940484
 30
0.0
 10
49.2618783191
 20
36.3786253751
 30
0.0
 10
48.4985081335
 20
34.5196683427
 30
0.0
 10
47.1543474787
 20
32.3377384641
 30
0.0
 10
45.3760080596
 20
30.4588186532
 30
0.0
 10
43.7329835688
 20
29.1625576862
 30
0.0
 10
41.93662572
 20
28.0025696775
 30
0.0
 10
39.468740257
 20
26.8580197708
 30
0.0
 10
36.2848944288
 20
26.0203795043
 30
0.0
 10
32.9792922457
 20
25.7378686303
 30
0.0
 10
29.6737025688
 20
26.0204218277
 30
0.0
 10
26.4898951808
 20
26.8580980599
 30
0.0
 10
24.0220481618
 20
28.0026565023
 30
0.0
 10
22.2257381201
 20
29.1626598928
 30
0.0
 10
20.5827442518
 20
30.4589029071
 30
0.0
 10
18.8044506996
 20
32.3378111505
 30
0.0
 10
17.4603228631
 20
34.5197141182
 30
0.0
 10
16.6969652501
 20
36.3786487755
 30
0.0
 10
16.1483986343
 20
38.2838049754
 30
0.0
 10
15.9794262753
 20
39.7711012315
 30
0.0
 10
15.9794262753
 20
40.7556229536
 30
0.0
  0
SPLINE
  5
38C
100
AcDbEntity
  8
0
100
AcDbSpline
 62
7
  6
BYLAYER
 70
0
 71
3
 72
9
 73
5
 74
0
 42
0.0000001
 43
0.0000001
 44
0.0000000001
 40
0.0
 40
0.0
 40
0.0
 40
0.0
 40
0.0607579743
 40
1.0
 40
1.0
 40
1.0
 40
1.0
 10
56.6907865946
 20
63.6825403693
 30
0.0
 10
56.680558121
 20
63.7336723047
 30
0.0
 10
56.5115493056
 20
64.5751324261
 30
0.0
 10
56.3315361516
 20
65.4148267582
 30
0.0
 10
56.1248234857
 20
66.1937816984
 30
0.0
  0
SPLINE
  5
38D
100
AcDbEntity
  8
0
100
AcDbSpline
 62
7
  6
BYLAYER
 70
0
 71
3
 72
20
 73
16
 74
0
 42
0.0000001
 43
0.0000001
 44
0.0000000001
 40
0.0
 40
0.0
 40
0.0
 40
0.0
 40
0.0797464607
 40
0.2036318513
 40
0.3099395296
 40
0.3991853366
 40
0.4722117745
 40
0.5293797678
 40
0.5729679859
 40
0.611635755
 40
0.6553469315
 40
0.7128672512
 40
0.7861365197
 40
0.8810786518
 40
1.0
 40
1.0
 40
1.0
 40
1.0
 10
57.7872154563
 20
57.3385407868
 30
0.0
 10
57.8312855656
 20
57.0475026386
 30
0.0
 10
57.9419620543
 20
56.3040569781
 30
0.0
 10
58.1033072759
 20
55.1714534908
 30
0.0
 10
58.2612232221
 20
54.0029756359
 30
0.0
 10
58.3876751316
 20
53.0197029601
 30
0.0
 10
58.4862094524
 20
52.2157311946
 30
0.0
 10
58.5608838379
 20
51.5786353481
 30
0.0
 10
58.6185880812
 20
51.067246944
 30
0.0
 10
58.6689602372
 20
50.6050211888
 30
0.0
 10
58.7227436516
 20
50.0914401276
 30
0.0
 10
58.7862698426
 20
49.4504760441
 30
0.0
 10
58.8610735379
 20
48.6205852539
 30
0.0
 10
58.9402808622
 20
47.5638187849
 30
0.0
 10
58.9794262746
 20
46.7747044627
 30
0.0
 10
58.9794262753
 20
46.3357499939
 30
0.0
  0
SPLINE
  5
38E
100
AcDbEntity
  8
0
100
AcDbSpline
 62
7
  6
BYLAYER
 70
0
 71
3
 72
9
 73
5
 74
0
 42
0.0000001
 43
0.0000001
 44
0.0000000001
 40
0.0
 40
0.0
 40
0.0
 40
0.0
 40
0.9228779767
 40
1.0
 40
1.0
 40
1.0
 40
1.0
 10
56.1094262753
 20
66.251523514
 30
0.0
 10
56.323172199
 20
65.4538128669
 30
0.0
 10
56.5111719236
 20
64.5781496675
 30
0.0
 10
56.687203193
 20
63.7005659738
 30
0.0
 10
56.7007089691
 20
63.6328735104
 30
0.0
  0
LINE
  5
38F
100
AcDbEntity
  8
0
100
AcDbLine
 62
7
  6
BYLAYER
 10
56.7007089691
 20
63.6328735104
 11
56.7101000045
 21
63.585746039
  0
SPLINE
  5
390
100
AcDbEntity
  8
0
100
AcDbSpline
 62
7
  6
BYLAYER
 70
0
 71
3
 72
11
 73
7
 74
0
 42
0.0000001
 43
0.0000001
 44
0.0000000001
 40
0.0
 40
0.0
 40
0.0
 40
0.0
 40
0.1083686698
 40
0.3875456173
 40
0.6990113185
 40
1.0
 40
1.0
 40
1.0
 40
1.0
 10
57.7872154563
 20
57.3385407868
 30
0.0
 10
57.7529277316
 20
57.5649762565
 30
0.0
 10
57.6287351808
 20
58.3745102897
 30
0.0
 10
57.3944677862
 20
59.8330449029
 30
0.0
 10
57.0748874661
 20
61.690184851
 30
0.0
 10
56.8342818322
 20
62.9617829677
 30
0.0
 10
56.7101023571
 20
63.585734218
 30
0.0
  0
SPLINE
  5
391
100
AcDbEntity
  8
0
100
AcDbSpline
 62
7
  6
BYLAYER
 70
0
 71
3
 72
9
 73
5
 74
0
 42
0.0000001
 43
0.0000001
 44
0.0000000001
 40
0.0
 40
0.0
 40
0.0
 40
0.0
 40
0.254513006
 40
1.0
 40
1.0
 40
1.0
 40
1.0
 10
18.4637206753
 20
16.5118093479
 30
0.0
 10
18.5757123088
 20
16.5118093479
 30
0.0
 10
19.0157117786
 20
16.5064701033
 30
0.0
 10
19.455505783
 20
16.4793101751
 30
0.0
 10
19.7818118753
 20
16.4457087083
 30
0.0
  0
SPLINE
  5
392
100
AcDbEntity
  8
0
100
AcDbSpline
 62
7
  6
BYLAYER
 70
0
 71
3
 72
15
 73
11
 74
0
 42
0.0000001
 43
0.0000001
 44
0.0000000001
 40
0.0
 40
0.0
 40
0.0
 40
0.0
 40
0.0452927076
 40
0.0770958322
 40
0.115958166
 40
0.2143614563
 40
0.3378071804
 40
0.4821450376
 40
0.643214054
 40
1.0
 40
1.0
 40
1.0
 40
1.0
 10
16.9794582753
 20
16.2679278448
 30
0.0
 10
16.9794582753
 20
16.2836842073
 30
0.0
 10
16.9965741373
 20
16.3088135369
 30
0.0
 10
17.0283016335
 20
16.3327614778
 30
0.0
 10
17.0797943742
 20
16.362023221
 30
0.0
 10
17.1647938474
 20
16.3942827346
 30
0.0
 10
17.2879248054
 20
16.4275215112
 30
0.0
 10
17.4346456559
 20
16.4551953109
 30
0.0
 10
17.6632166069
 20
16.4845288622
 30
0.0
 10
17.843147373
 20
16.4963450828
 30
0.0
 10
17.9671421857
 20
16.5018777507
 30
0.0
  0
SPLINE
  5
393
100
AcDbEntity
  8
0
100
AcDbSpline
 62
7
  6
BYLAYER
 70
0
 71
3
 72
9
 73
5
 74
0
 42
0.0000001
 43
0.0000001
 44
0.0000000001
 40
0.0
 40
0.0
 40
0.0
 40
0.0
 40
0.7518932332
 40
1.0
 40
1.0
 40
1.0
 40
1.0
 10
17.9671421857
 20
16.5018777507
 30
0.0
 10
18.0915064371
 20
16.5074269029
 30
0.0
 10
18.2570802097
 20
16.5111324528
 30
0.0
 10
18.4226426182
 20
16.5118093479
 30
0.0
 10
18.4637206753
 20
16.5118093479
 30
0.0
  0
SPLINE
  5
394
100
AcDbEntity
  8
0
100
AcDbSpline
 62
7
  6
BYLAYER
 70
0
 71
3
 72
13
 73
9
 74
0
 42
0.0000001
 43
0.0000001
 44
0.0000000001
 40
0.0
 40
0.0
 40
0.0
 40
0.0
 40
0.3016105663
 40
0.6085073749
 40
0.7515982548
 40
0.8714732471
 40
0.9564337137
 40
1.0
 40
1.0
 40
1.0
 40
1.0
 10
18.3887622753
 20
15.7973310303
 30
0.0
 10
18.4479916797
 20
15.7973310303
 30
0.0
 10
18.5674227744
 20
15.7971285238
 30
0.0
 10
18.7152130653
 20
15.8076271694
 30
0.0
 10
18.8254485614
 20
15.8227291025
 30
0.0
 10
18.8938780044
 20
15.8374152934
 30
0.0
 10
18.9373452661
 20
15.8499579855
 30
0.0
 10
18.9635926753
 20
15.8670110194
 30
0.0
 10
18.9635926753
 20
15.8755664398
 30
0.0
  0
SPLINE
  5
395
100
AcDbEntity
  8
0
100
AcDbSpline
 62
7
  6
BYLAYER
 70
0
 71
3
 72
9
 73
5
 74
0
 42
0.0000001
 43
0.0000001
 44
0.0000000001
 40
0.0
 40
0.0
 40
0.0
 40
0.0
 40
0.228439876
 40
1.0
 40
1.0
 40
1.0
 40
1.0
 10
17.0589318753
 20
15.906545008
 30
0.0
 10
17.1594340073
 20
15.8913261273
 30
0.0
 10
17.6001766445
 20
15.8306472755
 30
0.0
 10
18.045444561
 20
15.7973310303
 30
0.0
 10
18.3887622753
 20
15.7973310303
 30
0.0
  0
SPLINE
  5
396
100
AcDbEntity
  8
0
100
AcDbSpline
 62
7
  6
BYLAYER
 70
0
 71
3
 72
16
 73
12
 74
0
 42
0.0000001
 43
0.0000001
 44
0.0000000001
 40
0.0
 40
0.0
 40
0.0
 40
0.0
 40
0.0378709212
 40
0.0716689866
 40
0.1153498156
 40
0.1680053667
 40
0.2285324135
 40
0.3684329763
 40
0.5252625258
 40
0.6890306353
 40
1.0
 40
1.0
 40
1.0
 40
1.0
 10
17.9746854753
 20
16.2864752042
 30
0.0
 10
17.9746854753
 20
16.2707808433
 30
0.0
 10
18.00857041
 20
16.2515945519
 30
0.0
 10
18.0513119144
 20
16.2389087344
 30
0.0
 10
18.1051720745
 20
16.2272969224
 30
0.0
 10
18.1690848814
 20
16.2176554454
 30
0.0
 10
18.2734204058
 20
16.2053510686
 30
0.0
 10
18.4209055723
 20
16.1931668258
 30
0.0
 10
18.6113577308
 20
16.1805236638
 30
0.0
 10
18.8725417851
 20
16.1639658571
 30
0.0
 10
19.0687138775
 20
16.1478939652
 30
0.0
 10
19.1967531259
 20
16.1332755259
 30
0.0
  0
SPLINE
  5
397
100
AcDbEntity
  8
0
100
AcDbSpline
 62
7
  6
BYLAYER
 70
0
 71
3
 72
11
 73
7
 74
0
 42
0.0000001
 43
0.0000001
 44
0.0000000001
 40
0.0
 40
0.0
 40
0.0
 40
0.0
 40
0.3320538279
 40
0.6133130994
 40
0.8375414301
 40
1.0
 40
1.0
 40
1.0
 40
1.0
 10
19.1967531259
 20
16.1332755259
 30
0.0
 10
19.276519055
 20
16.1241685262
 30
0.0
 10
19.4235396883
 20
16.1046591173
 30
0.0
 10
19.6229128793
 20
16.0678991422
 30
0.0
 10
19.7790123578
 20
16.0267852806
 30
0.0
 10
19.866799323
 20
15.992110007
 30
0.0
 10
19.9003758474
 20
15.9717266564
 30
0.0
  0
SPLINE
  5
398
100
AcDbEntity
  8
0
100
AcDbSpline
 62
7
  6
BYLAYER
 70
0
 71
3
 72
9
 73
5
 74
0
 42
0.0000001
 43
0.0000001
 44
0.0000000001
 40
0.0
 40
0.0
 40
0.0
 40
0.0
 40
0.3236102555
 40
1.0
 40
1.0
 40
1.0
 40
1.0
 10
19.9003758474
 20
15.9717266564
 30
0.0
 10
19.9091358791
 20
15.9664086909
 30
0.0
 10
19.9348564924
 20
15.9493712051
 30
0.0
 10
19.9588214753
 20
15.9205650294
 30
0.0
 10
19.9588214753
 20
15.8991455705
 30
0.0
  0
SPLINE
  5
399
100
AcDbEntity
  8
0
100
AcDbSpline
 62
7
  6
BYLAYER
 70
0
 71
3
 72
9
 73
5
 74
0
 42
0.0000001
 43
0.0000001
 44
0.0000000001
 40
0.0
 40
0.0
 40
0.0
 40
0.0
 40
0.2563137649
 40
1.0
 40
1.0
 40
1.0
 40
1.0
 10
21.8183270753
 20
15.7704959653
 30
0.0
 10
21.8817801692
 20
15.7704959653
 30
0.0
 10
22.1293628978
 20
15.7755446349
 30
0.0
 10
22.3762571273
 20
15.7957164304
 30
0.0
 10
22.5597814753
 20
15.8103537187
 30
0.0
  0
SPLINE
  5
39A
100
AcDbEntity
  8
0
100
AcDbSpline
 62
7
  6
BYLAYER
 70
0
 71
3
 72
13
 73
9
 74
0
 42
0.0000001
 43
0.0000001
 44
0.0000000001
 40
0.0
 40
0.0
 40
0.0
 40
0.0
 40
0.1033991606
 40
0.1934809471
 40
0.3131751331
 40
0.4622041528
 40
0.6329217535
 40
1.0
 40
1.0
 40
1.0
 40
1.0
 10
21.0317174753
 20
15.9394965731
 30
0.0
 10
21.0317174753
 20
15.9108651539
 30
0.0
 10
21.0839503185
 20
15.869603942
 30
0.0
 10
21.1606720996
 20
15.8385226238
 30
0.0
 10
21.2583376222
 20
15.8125520294
 30
0.0
 10
21.3781958152
 20
15.7939991697
 30
0.0
 10
21.5677317775
 20
15.7753971581
 30
0.0
 10
21.7166824286
 20
15.7704959653
 30
0.0
 10
21.8183270753
 20
15.7704959653
 30
0.0
  0
SPLINE
  5
39B
100
AcDbEntity
  8
0
100
AcDbSpline
 62
7
  6
BYLAYER
 70
0
 71
3
 72
14
 73
10
 74
0
 42
0.0000001
 43
0.0000001
 44
0.0000000001
 40
0.0
 40
0.0
 40
0.0
 40
0.0
 40
0.1130252202
 40
0.2032296547
 40
0.3180357477
 40
0.4571053378
 40
0.6194463871
 40
0.8020060884
 40
1.0
 40
1.0
 40
1.0
 40
1.0
 10
20.1489254753
 20
15.9381154054
 30
0.0
 10
20.1489254753
 20
15.9734021681
 30
0.0
 10
20.2034342235
 20
16.0265947651
 30
0.0
 10
20.2883610407
 20
16.0712696311
 30
0.0
 10
20.3900168597
 20
16.1100844347
 30
0.0
 10
20.5151988081
 20
16.1439749897
 30
0.0
 10
20.6637281105
 20
16.1729567734
 30
0.0
 10
20.8316275549
 20
16.1962544716
 30
0.0
 10
20.9498966989
 20
16.2079653183
 30
0.0
 10
21.0114971978
 20
16.2131009317
 30
0.0
  0
SPLINE
  5
39C
100
AcDbEntity
  8
0
100
AcDbSpline
 62
7
  6
BYLAYER
 70
0
 71
3
 72
9
 73
5
 74
0
 42
0.0000001
 43
0.0000001
 44
0.0000000001
 40
0.0
 40
0.0
 40
0.0
 40
0.0
 40
0.2448833486
 40
1.0
 40
1.0
 40
1.0
 40
1.0
 10
21.0114971978
 20
16.2131009317
 30
0.0
 10
21.0623736724
 20
16.2173424868
 30
0.0
 10
21.2703517138
 20
16.2319704495
 30
0.0
 10
21.4789236916
 20
16.2376396857
 30
0.0
 10
21.6363494753
 20
16.2376396857
 30
0.0
  0
SPLINE
  5
39D
100
AcDbEntity
  8
0
100
AcDbSpline
 62
7
  6
BYLAYER
 70
0
 71
3
 72
13
 73
9
 74
0
 42
0.0000001
 43
0.0000001
 44
0.0000000001
 40
0.0
 40
0.0
 40
0.0
 40
0.0
 40
0.3863800872
 40
0.5555886368
 40
0.6971342801
 40
0.8095055981
 40
0.8949301863
 40
1.0
 40
1.0
 40
1.0
 40
1.0
 10
24.7075941859
 20
16.2357410855
 30
0.0
 10
24.8216280186
 20
16.2326162385
 30
0.0
 10
24.9855798618
 20
16.2231177362
 30
0.0
 10
25.1898112156
 20
16.1955346515
 30
0.0
 10
25.3118199032
 20
16.1693910044
 30
0.0
 10
25.4077556284
 20
16.1364113039
 30
0.0
 10
25.4853130786
 20
16.0972987448
 30
0.0
 10
25.5319190753
 20
16.0489507886
 30
0.0
 10
25.5319190753
 20
16.017929492
 30
0.0
  0
SPLINE
  5
39E
100
AcDbEntity
  8
0
100
AcDbSpline
 62
7
  6
BYLAYER
 70
0
 71
3
 72
9
 73
5
 74
0
 42
0.0000001
 43
0.0000001
 44
0.0000000001
 40
0.0
 40
0.0
 40
0.0
 40
0.0
 40
0.2295396141
 40
1.0
 40
1.0
 40
1.0
 40
1.0
 10
23.7266006753
 20
16.141448746
 30
0.0
 10
23.7894732328
 20
16.1579161281
 30
0.0
 10
24.066324889
 20
16.2184632068
 30
0.0
 10
24.351050736
 20
16.2376396857
 30
0.0
 10
24.5692038753
 20
16.2376396857
 30
0.0
  0
SPLINE
  5
39F
100
AcDbEntity
  8
0
100
AcDbSpline
 62
7
  6
BYLAYER
 70
0
 71
3
 72
11
 73
7
 74
0
 42
0.0000001
 43
0.0000001
 44
0.0000000001
 40
0.0
 40
0.0
 40
0.0
 40
0.0
 40
0.3780195615
 40
0.6564437558
 40
0.8535361308
 40
1.0
 40
1.0
 40
1.0
 40
1.0
 10
26.5822374753
 20
15.6721345192
 30
0.0
 10
26.6279680669
 20
15.6621272187
 30
0.0
 10
26.7068073054
 20
15.6409314616
 30
0.0
 10
26.8033365789
 20
15.596656273
 30
0.0
 10
26.8643692342
 20
15.5469586583
 30
0.0
 10
26.8809048516
 20
15.5044937283
 30
0.0
 10
26.8809051057
 20
15.4863561068
 30
0.0
  0
SPLINE
  5
3A0
100
AcDbEntity
  8
0
100
AcDbSpline
 62
7
  6
BYLAYER
 70
0
 71
3
 72
9
 73
5
 74
0
 42
0.0000001
 43
0.0000001
 44
0.0000000001
 40
0.0
 40
0.0
 40
0.0
 40
0.0
 40
0.2259275451
 40
1.0
 40
1.0
 40
1.0
 40
1.0
 10
24.0307963652
 20
15.5929558781
 30
0.0
 10
24.0833318355
 20
15.6030296789
 30
0.0
 10
24.3163447104
 20
15.6451104224
 30
0.0
 10
24.5515344654
 20
15.6748124119
 30
0.0
 10
24.7339847209
 20
15.6921924667
 30
0.0
  0
SPLINE
  5
3A1
100
AcDbEntity
  8
0
100
AcDbSpline
 62
7
  6
BYLAYER
 70
0
 71
3
 72
9
 73
5
 74
0
 42
0.0000001
 43
0.0000001
 44
0.0000000001
 40
0.0
 40
0.0
 40
0.0
 40
0.0
 40
0.2440554847
 40
1.0
 40
1.0
 40
1.0
 40
1.0
 10
24.893594571
 20
15.7060824832
 30
0.0
 10
24.9545511872
 20
15.710903399
 30
0.0
 10
25.2044820111
 20
15.7284521436
 30
0.0
 10
25.4550225132
 20
15.7377878123
 30
0.0
 10
25.6444153204
 20
15.7392369372
 30
0.0
  0
SPLINE
  5
3A2
100
AcDbEntity
  8
0
100
AcDbSpline
 62
7
  6
BYLAYER
 70
0
 71
3
 72
9
 73
5
 74
0
 42
0.0000001
 43
0.0000001
 44
0.0000000001
 40
0.0
 40
0.0
 40
0.0
 40
0.0
 40
0.2631493163
 40
1.0
 40
1.0
 40
1.0
 40
1.0
 10
25.859615705
 20
15.7382049661
 30
0.0
 10
25.8979542988
 20
15.7375115947
 30
0.0
 10
26.0436139761
 20
15.7337469308
 30
0.0
 10
26.189222796
 20
15.7253382104
 30
0.0
 10
26.296075943
 20
15.7148120177
 30
0.0
  0
SPLINE
  5
3A3
100
AcDbEntity
  8
0
100
AcDbSpline
 62
7
  6
BYLAYER
 70
0
 71
3
 72
9
 73
5
 74
0
 42
0.0000001
 43
0.0000001
 44
0.0000000001
 40
0.0
 40
0.0
 40
0.0
 40
0.0
 40
0.2655742562
 40
1.0
 40
1.0
 40
1.0
 40
1.0
 10
26.3908330759
 20
15.7041780694
 30
0.0
 10
26.407878707
 20
15.7020119003
 30
0.0
 10
26.4719864568
 20
15.6932996413
 30
0.0
 10
26.5358117175
 20
15.6822619132
 30
0.0
 10
26.5822374753
 20
15.6721345192
 30
0.0
  0
SPLINE
  5
3A4
100
AcDbEntity
  8
0
100
AcDbSpline
 62
7
  6
BYLAYER
 70
0
 71
3
 72
9
 73
5
 74
0
 42
0.0000001
 43
0.0000001
 44
0.0000000001
 40
0.0
 40
0.0
 40
0.0
 40
0.0
 40
0.2266871994
 40
1.0
 40
1.0
 40
1.0
 40
1.0
 10
23.1802182753
 20
15.3368959887
 30
0.0
 10
23.1908624453
 20
15.3429639207
 30
0.0
 10
23.2388748224
 20
15.3678754996
 30
0.0
 10
23.2890653862
 20
15.3881754766
 30
0.0
 10
23.3278774753
 20
15.4036870374
 30
0.0
  0
SPLINE
  5
3A5
100
AcDbEntity
  8
0
100
AcDbSpline
 62
7
  6
BYLAYER
 70
0
 71
3
 72
9
 73
5
 74
0
 42
0.0000001
 43
0.0000001
 44
0.0000000001
 40
0.0
 40
0.0
 40
0.0
 40
0.0
 40
0.2617802629
 40
1.0
 40
1.0
 40
1.0
 40
1.0
 10
31.5443814753
 20
15.3903682597
 30
0.0
 10
31.5783418627
 20
15.3903682597
 30
0.0
 10
31.7080416115
 20
15.3877495012
 30
0.0
 10
31.8376842489
 20
15.3764123258
 30
0.0
 10
31.9322889992
 20
15.3615297172
 30
0.0
  0
SPLINE
  5
3A6
100
AcDbEntity
  8
0
100
AcDbSpline
 62
7
  6
BYLAYER
 70
0
 71
3
 72
9
 73
5
 74
0
 42
0.0000001
 43
0.0000001
 44
0.0000000001
 40
0.0
 40
0.0
 40
0.0
 40
0.0
 40
0.2711390706
 40
1.0
 40
1.0
 40
1.0
 40
1.0
 10
31.9322889992
 20
15.3615297172
 30
0.0
 10
31.9453550349
 20
15.3594742528
 30
0.0
 10
31.99345592
 20
15.3513789501
 30
0.0
 10
32.0412605853
 20
15.3412516468
 30
0.0
 10
32.0755764982
 20
15.3319457119
 30
0.0
  0
SPLINE
  5
3A7
100
AcDbEntity
  8
0
100
AcDbSpline
 62
7
  6
BYLAYER
 70
0
 71
3
 72
10
 73
6
 74
0
 42
0.0000001
 43
0.0000001
 44
0.0000000001
 40
0.0
 40
0.0
 40
0.0
 40
0.0
 40
0.3641351293
 40
0.653515058
 40
1.0
 40
1.0
 40
1.0
 40
1.0
 10
32.0755764982
 20
15.3319457119
 30
0.0
 10
32.0954375389
 20
15.3265597106
 30
0.0
 10
32.1314814087
 20
15.3153004196
 30
0.0
 10
32.1808236075
 20
15.2945090419
 30
0.0
 10
32.2172872374
 20
15.2679028371
 30
0.0
 10
32.2172876837
 20
15.2483219175
 30
0.0
  0
SPLINE
  5
3A8
100
AcDbEntity
  8
0
100
AcDbSpline
 62
7
  6
BYLAYER
 70
0
 71
3
 72
11
 73
7
 74
0
 42
0.0000001
 43
0.0000001
 44
0.0000000001
 40
0.0
 40
0.0
 40
0.0
 40
0.0
 40
0.3139971101
 40
0.4451219803
 40
0.6021469245
 40
1.0
 40
1.0
 40
1.0
 40
1.0
 10
30.8507926753
 20
15.2254125752
 30
0.0
 10
30.8507926753
 20
15.2576087241
 30
0.0
 10
30.8971434854
 20
15.2932887911
 30
0.0
 10
30.9515637004
 20
15.3177313795
 30
0.0
 10
31.0188070025
 20
15.3408166841
 30
0.0
 10
31.0744992954
 20
15.3521140374
 30
0.0
 10
31.1147336606
 20
15.3588506794
 30
0.0
  0
SPLINE
  5
3A9
100
AcDbEntity
  8
0
100
AcDbSpline
 62
7
  6
BYLAYER
 70
0
 71
3
 72
9
 73
5
 74
0
 42
0.0000001
 43
0.0000001
 44
0.0000000001
 40
0.0
 40
0.0
 40
0.0
 40
0.0
 40
0.4822517437
 40
1.0
 40
1.0
 40
1.0
 40
1.0
 10
31.1462272266
 20
15.3638001775
 30
0.0
 10
31.2097254435
 20
15.3731630945
 30
0.0
 10
31.3423671604
 20
15.3859399126
 30
0.0
 10
31.47547231
 20
15.3903682597
 30
0.0
 10
31.5443814753
 20
15.3903682597
 30
0.0
  0
SPLINE
  5
3AA
100
AcDbEntity
  8
0
100
AcDbSpline
 62
7
  6
BYLAYER
 70
0
 71
3
 72
9
 73
5
 74
0
 42
0.0000001
 43
0.0000001
 44
0.0000000001
 40
0.0
 40
0.0
 40
0.0
 40
0.0
 40
0.2567477259
 40
1.0
 40
1.0
 40
1.0
 40
1.0
 10
31.6446278753
 20
15.113436262
 30
0.0
 10
31.6748970243
 20
15.113436262
 30
0.0
 10
31.7927843532
 20
15.1148221344
 30
0.0
 10
31.9106289085
 20
15.1219076475
 30
0.0
 10
31.997798433
 20
15.1308339592
 30
0.0
  0
SPLINE
  5
3AB
100
AcDbEntity
  8
0
100
AcDbSpline
 62
7
  6
BYLAYER
 70
0
 71
3
 72
9
 73
5
 74
0
 42
0.0000001
 43
0.0000001
 44
0.0000000001
 40
0.0
 40
0.0
 40
0.0
 40
0.0
 40
0.2331447029
 40
1.0
 40
1.0
 40
1.0
 40
1.0
 10
31.1443030753
 20
15.2116005482
 30
0.0
 10
31.1534906217
 20
15.2061045171
 30
0.0
 10
31.1937936508
 20
15.1840274805
 30
0.0
 10
31.2370927306
 20
15.1677296139
 30
0.0
 10
31.2708350731
 20
15.1576565259
 30
0.0
  0
SPLINE
  5
3AC
100
AcDbEntity
  8
0
100
AcDbSpline
 62
7
  6
BYLAYER
 70
0
 71
3
 72
9
 73
5
 74
0
 42
0.0000001
 43
0.0000001
 44
0.0000000001
 40
0.0
 40
0.0
 40
0.0
 40
0.0
 40
0.2320621598
 40
1.0
 40
1.0
 40
1.0
 40
1.0
 10
31.2708350731
 20
15.1576565259
 30
0.0
 10
31.28334444
 20
15.1539221096
 30
0.0
 10
31.3376765029
 20
15.1392594096
 30
0.0
 10
31.3933466368
 20
15.1298859001
 30
0.0
 10
31.4362404407
 20
15.1247422037
 30
0.0
  0
SPLINE
  5
3AD
100
AcDbEntity
  8
0
100
AcDbSpline
 62
7
  6
BYLAYER
 70
0
 71
3
 72
9
 73
5
 74
0
 42
0.0000001
 43
0.0000001
 44
0.0000000001
 40
0.0
 40
0.0
 40
0.0
 40
0.0
 40
0.2329495401
 40
1.0
 40
1.0
 40
1.0
 40
1.0
 10
31.4362404407
 20
15.1247422037
 30
0.0
 10
31.452335773
 20
15.1228120997
 30
0.0
 10
31.5215813556
 20
15.1157956339
 30
0.0
 10
31.5912498648
 20
15.113436262
 30
0.0
 10
31.6446278753
 20
15.113436262
 30
0.0
  0
SPLINE
  5
3AE
100
AcDbEntity
  8
0
100
AcDbSpline
 62
7
  6
BYLAYER
 70
0
 71
3
 72
9
 73
5
 74
0
 42
0.0000001
 43
0.0000001
 44
0.0000000001
 40
0.0
 40
0.0
 40
0.0
 40
0.0
 40
0.254928591
 40
1.0
 40
1.0
 40
1.0
 40
1.0
 10
33.6806918753
 20
15.3903682597
 30
0.0
 10
33.7173583849
 20
15.3903682597
 30
0.0
 10
33.8611801696
 20
15.3885484853
 30
0.0
 10
34.0049309558
 20
15.3792779487
 30
0.0
 10
34.1114758753
 20
15.3677756274
 30
0.0
  0
SPLINE
  5
3AF
100
AcDbEntity
  8
0
100
AcDbSpline
 62
7
  6
BYLAYER
 70
0
 71
3
 72
12
 73
8
 74
0
 42
0.0000001
 43
0.0000001
 44
0.0000000001
 40
0.0
 40
0.0
 40
0.0
 40
0.0
 40
0.1283095321
 40
0.2125194606
 40
0.3166084162
 40
0.5994071656
 40
1.0
 40
1.0
 40
1.0
 40
1.0
 10
32.9473654753
 20
15.2142643037
 30
0.0
 10
32.9473654753
 20
15.2289542301
 30
0.0
 10
32.9581121556
 20
15.2532117001
 30
0.0
 10
32.9843540066
 20
15.2782353734
 30
0.0
 10
33.0298615649
 20
15.3078085569
 30
0.0
 10
33.1154724534
 20
15.3386896346
 30
0.0
 10
33.1924091831
 20
15.3534655419
 30
0.0
 10
33.2377377661
 20
15.3604475213
 30
0.0
  0
SPLINE
  5
3B0
100
AcDbEntity
  8
0
100
AcDbSpline
 62
7
  6
BYLAYER
 70
0
 71
3
 72
9
 73
5
 74
0
 42
0.0000001
 43
0.0000001
 44
0.0000000001
 40
0.0
 40
0.0
 40
0.0
 40
0.0
 40
0.480143716
 40
1.0
 40
1.0
 40
1.0
 40
1.0
 10
33.2377377661
 20
15.3604475213
 30
0.0
 10
33.3080103731
 20
15.3712716386
 30
0.0
 10
33.4556236617
 20
15.3854854413
 30
0.0
 10
33.603709759
 20
15.3903682597
 30
0.0
 10
33.6806918753
 20
15.3903682597
 30
0.0
  0
SPLINE
  5
3B1
100
AcDbEntity
  8
0
100
AcDbSpline
 62
7
  6
BYLAYER
 70
0
 71
3
 72
9
 73
5
 74
0
 42
0.0000001
 43
0.0000001
 44
0.0000000001
 40
0.0
 40
0.0
 40
0.0
 40
0.0
 40
0.2554104454
 40
1.0
 40
1.0
 40
1.0
 40
1.0
 10
33.7497798753
 20
15.1123511836
 30
0.0
 10
33.7834406209
 20
15.1123511836
 30
0.0
 10
33.915222344
 20
15.1140937585
 30
0.0
 10
34.0469354212
 20
15.1229859393
 30
0.0
 10
34.1444390753
 20
15.1340558973
 30
0.0
  0
SPLINE
  5
3B2
100
AcDbEntity
  8
0
100
AcDbSpline
 62
7
  6
BYLAYER
 70
0
 71
3
 72
12
 73
8
 74
0
 42
0.0000001
 43
0.0000001
 44
0.0000000001
 40
0.0
 40
0.0
 40
0.0
 40
0.0
 40
0.0432712949
 40
0.1167619471
 40
0.3503731991
 40
0.6618388296
 40
1.0
 40
1.0
 40
1.0
 40
1.0
 10
33.2453910753
 20
15.2202825735
 30
0.0
 10
33.2453910753
 20
15.2126751756
 30
0.0
 10
33.2611593703
 20
15.1950763361
 30
0.0
 10
33.3157571
 20
15.1696098792
 30
0.0
 10
33.4227628429
 20
15.141486393
 30
0.0
 10
33.5759047151
 20
15.1190557417
 30
0.0
 10
33.6903287639
 20
15.1123511836
 30
0.0
 10
33.7497798753
 20
15.1123511836
 30
0.0
  0
SPLINE
  5
3B3
100
AcDbEntity
  8
0
100
AcDbSpline
 62
7
  6
BYLAYER
 70
0
 71
3
 72
9
 73
5
 74
0
 42
0.0000001
 43
0.0000001
 44
0.0000000001
 40
0.0
 40
0.0
 40
0.0
 40
0.0
 40
0.2591862008
 40
1.0
 40
1.0
 40
1.0
 40
1.0
 10
35.6630198753
 20
15.109687428
 30
0.0
 10
35.6920574379
 20
15.109687428
 30
0.0
 10
35.8040743084
 20
15.1115800294
 30
0.0
 10
35.9160252503
 20
15.1213564129
 30
0.0
 10
35.9980742753
 20
15.1338583879
 30
0.0
  0
SPLINE
  5
3B4
100
AcDbEntity
  8
0
100
AcDbSpline
 62
7
  6
BYLAYER
 70
0
 71
3
 72
11
 73
7
 74
0
 42
0.0000001
 43
0.0000001
 44
0.0000000001
 40
0.0
 40
0.0
 40
0.0
 40
0.0
 40
0.1173007514
 40
0.3315942044
 40
0.6334229533
 40
1.0
 40
1.0
 40
1.0
 40
1.0
 10
35.4512406753
 20
15.1590161957
 30
0.0
 10
35.4512406753
 20
15.1541929822
 30
0.0
 10
35.4635329111
 20
15.1436062592
 30
0.0
 10
35.4865991796
 20
15.134501967
 30
0.0
 10
35.5221074457
 20
15.1243151076
 30
0.0
 10
35.5490304605
 20
15.1194527991
 30
0.0
 10
35.5639358999
 20
15.1172112523
 30
0.0
  0
SPLINE
  5
3B5
100
AcDbEntity
  8
0
100
AcDbSpline
 62
7
  6
BYLAYER
 70
0
 71
3
 72
9
 73
5
 74
0
 42
0.0000001
 43
0.0000001
 44
0.0000000001
 40
0.0
 40
0.0
 40
0.0
 40
0.0
 40
0.2413109026
 40
1.0
 40
1.0
 40
1.0
 40
1.0
 10
35.5639358999
 20
15.1172112523
 30
0.0
 10
35.5718438411
 20
15.1160220207
 30
0.0
 10
35.6047017648
 20
15.1117056545
 30
0.0
 10
35.6378774879
 20
15.109687428
 30
0.0
 10
35.6630198753
 20
15.109687428
 30
0.0
  0
SPLINE
  5
3B6
100
AcDbEntity
  8
0
100
AcDbSpline
 62
7
  6
BYLAYER
 70
0
 71
3
 72
9
 73
5
 74
0
 42
0.0000001
 43
0.0000001
 44
0.0000000001
 40
0.0
 40
0.0
 40
0.0
 40
0.0
 40
0.269257525
 40
1.0
 40
1.0
 40
1.0
 40
1.0
 10
37.4836918753
 20
15.3903682597
 30
0.0
 10
37.5158065897
 20
15.3903682597
 30
0.0
 10
37.6350122275
 20
15.3875883141
 30
0.0
 10
37.7543068353
 20
15.3728831787
 30
0.0
 10
37.8390662753
 20
15.3525824327
 30
0.0
  0
SPLINE
  5
3B7
100
AcDbEntity
  8
0
100
AcDbSpline
 62
7
  6
BYLAYER
 70
0
 71
3
 72
9
 73
5
 74
0
 42
0.0000001
 43
0.0000001
 44
0.0000000001
 40
0.0
 40
0.0
 40
0.0
 40
0.0
 40
0.2070703152
 40
1.0
 40
1.0
 40
1.0
 40
1.0
 10
37.0465862753
 20
15.3085811761
 30
0.0
 10
37.0557707295
 20
15.3121628394
 30
0.0
 10
37.1003651346
 20
15.3288360058
 30
0.0
 10
37.1460057281
 20
15.3427255669
 30
0.0
 10
37.1825790474
 20
15.3520751674
 30
0.0
  0
SPLINE
  5
3B8
100
AcDbEntity
  8
0
100
AcDbSpline
 62
7
  6
BYLAYER
 70
0
 71
3
 72
9
 73
5
 74
0
 42
0.0000001
 43
0.0000001
 44
0.0000000001
 40
0.0
 40
0.0
 40
0.0
 40
0.0
 40
0.2200720066
 40
1.0
 40
1.0
 40
1.0
 40
1.0
 10
37.1825790474
 20
15.3520751674
 30
0.0
 10
37.2041805582
 20
15.357597376
 30
0.0
 10
37.3029796671
 20
15.3800400088
 30
0.0
 10
37.4046749098
 20
15.3903682596
 30
0.0
 10
37.4836918753
 20
15.3903682596
 30
0.0
  0
SPLINE
  5
3B9
100
AcDbEntity
  8
0
100
AcDbSpline
 62
7
  6
BYLAYER
 70
0
 71
3
 72
9
 73
5
 74
0
 42
0.0000001
 43
0.0000001
 44
0.0000000001
 40
0.0
 40
0.0
 40
0.0
 40
0.0
 40
0.2549184588
 40
1.0
 40
1.0
 40
1.0
 40
1.0
 10
40.4192550753
 20
15.3903682597
 30
0.0
 10
40.4559584037
 20
15.3903682597
 30
0.0
 10
40.5999303538
 20
15.3885483606
 30
0.0
 10
40.7438313199
 20
15.3792775184
 30
0.0
 10
40.8504902753
 20
15.3677756274
 30
0.0
  0
SPLINE
  5
3BA
100
AcDbEntity
  8
0
100
AcDbSpline
 62
7
  6
BYLAYER
 70
0
 71
3
 72
12
 73
8
 74
0
 42
0.0000001
 43
0.0000001
 44
0.0000000001
 40
0.0
 40
0.0
 40
0.0
 40
0.0
 40
0.1280115186
 40
0.2122674071
 40
0.3164937652
 40
0.5995894571
 40
1.0
 40
1.0
 40
1.0
 40
1.0
 10
39.6845734753
 20
15.2142643037
 30
0.0
 10
39.6845734753
 20
15.2290053965
 30
0.0
 10
39.6955089756
 20
15.2533469079
 30
0.0
 10
39.7220062837
 20
15.2783725673
 30
0.0
 10
39.7679331818
 20
15.3079817813
 30
0.0
 10
39.8541226828
 20
15.3388634191
 30
0.0
 10
39.9315349009
 20
15.3536481873
 30
0.0
 10
39.9771126337
 20
15.3606277549
 30
0.0
  0
SPLINE
  5
3BB
100
AcDbEntity
  8
0
100
AcDbSpline
 62
7
  6
BYLAYER
 70
0
 71
3
 72
9
 73
5
 74
0
 42
0.0000001
 43
0.0000001
 44
0.0000000001
 40
0.0
 40
0.0
 40
0.0
 40
0.0
 40
0.4803743245
 40
1.0
 40
1.0
 40
1.0
 40
1.0
 10
39.9771126337
 20
15.3606277549
 30
0.0
 10
40.0472978042
 20
15.3713755941
 30
0.0
 10
40.1946384372
 20
15.3855141377
 30
0.0
 10
40.3424500582
 20
15.3903682597
 30
0.0
 10
40.4192550753
 20
15.3903682597
 30
0.0
  0
SPLINE
  5
3BC
100
AcDbEntity
  8
0
100
AcDbSpline
 62
7
  6
BYLAYER
 70
0
 71
3
 72
9
 73
5
 74
0
 42
0.0000001
 43
0.0000001
 44
0.0000000001
 40
0.0
 40
0.0
 40
0.0
 40
0.0
 40
0.2553621688
 40
1.0
 40
1.0
 40
1.0
 40
1.0
 10
40.4883430753
 20
15.1123511836
 30
0.0
 10
40.5221509405
 20
15.1123511836
 30
0.0
 10
40.6545337702
 20
15.1140943257
 30
0.0
 10
40.7868479781
 20
15.122987915
 30
0.0
 10
40.8848086753
 20
15.1340558973
 30
0.0
  0
SPLINE
  5
3BD
100
AcDbEntity
  8
0
100
AcDbSpline
 62
7
  6
BYLAYER
 70
0
 71
3
 72
12
 73
8
 74
0
 42
0.0000001
 43
0.0000001
 44
0.0000000001
 40
0.0
 40
0.0
 40
0.0
 40
0.0
 40
0.043291539
 40
0.1167649514
 40
0.3502920131
 40
0.6617151224
 40
1.0
 40
1.0
 40
1.0
 40
1.0
 10
39.9848582753
 20
15.2202825735
 30
0.0
 10
39.9848582753
 20
15.212684268
 30
0.0
 10
40.0005757844
 20
15.195101397
 30
0.0
 10
40.0550546583
 20
15.1696288387
 30
0.0
 10
40.1618386719
 20
15.1415020816
 30
0.0
 10
40.3147209885
 20
15.1190556531
 30
0.0
 10
40.4289690754
 20
15.1123511836
 30
0.0
 10
40.4883430753
 20
15.1123511836
 30
0.0
  0
SPLINE
  5
3BE
100
AcDbEntity
  8
0
100
AcDbSpline
 62
7
  6
BYLAYER
 70
0
 71
3
 72
12
 73
8
 74
0
 42
0.0000001
 43
0.0000001
 44
0.0000000001
 40
0.0
 40
0.0
 40
0.0
 40
0.0
 40
0.2612553217
 40
0.5620057411
 40
0.8310517211
 40
0.9319371681
 40
1.0
 40
1.0
 40
1.0
 40
1.0
 10
38.7128262753
 20
15.5093493411
 30
0.0
 10
38.7310045251
 20
15.5117323483
 30
0.0
 10
38.7704535936
 20
15.5141417142
 30
0.0
 10
38.8287244978
 20
15.5143580885
 30
0.0
 10
38.8759203926
 20
15.5118544303
 30
0.0
 10
38.9061519344
 20
15.5069531392
 30
0.0
 10
38.9177941359
 20
15.5037054641
 30
0.0
 10
38.9218966753
 20
15.5012594945
 30
0.0
  0
SPLINE
  5
3BF
100
AcDbEntity
  8
0
100
AcDbSpline
 62
7
  6
BYLAYER
 70
0
 71
3
 72
9
 73
5
 74
0
 42
0.0000001
 43
0.0000001
 44
0.0000000001
 40
0.0
 40
0.0
 40
0.0
 40
0.0
 40
0.2716198803
 40
1.0
 40
1.0
 40
1.0
 40
1.0
 10
41.0749142753
 20
16.2381332845
 30
0.0
 10
41.1237138964
 20
16.2381332845
 30
0.0
 10
41.3032501985
 20
16.2337418895
 30
0.0
 10
41.483045882
 20
16.2104290156
 30
0.0
 10
41.6097302753
 20
16.1776283706
 30
0.0
  0
SPLINE
  5
3C0
100
AcDbEntity
  8
0
100
AcDbSpline
 62
7
  6
BYLAYER
 70
0
 71
3
 72
11
 73
7
 74
0
 42
0.0000001
 43
0.0000001
 44
0.0000000001
 40
0.0
 40
0.0
 40
0.0
 40
0.0
 40
0.1662836812
 40
0.3955320436
 40
0.676451928
 40
1.0
 40
1.0
 40
1.0
 40
1.0
 10
40.2250854753
 20
16.0625225778
 30
0.0
 10
40.2681989069
 20
16.0846420305
 30
0.0
 10
40.3753051083
 20
16.12821859
 30
0.0
 10
40.5647198959
 20
16.1837785415
 30
0.0
 10
40.8042888941
 20
16.2270941637
 30
0.0
 10
40.9806294583
 20
16.2381332845
 30
0.0
 10
41.0749142753
 20
16.2381332845
 30
0.0
  0
SPLINE
  5
3C1
100
AcDbEntity
  8
0
100
AcDbSpline
 62
7
  6
BYLAYER
 70
0
 71
3
 72
14
 73
10
 74
0
 42
0.0000001
 43
0.0000001
 44
0.0000000001
 40
0.0
 40
0.0
 40
0.0
 40
0.0
 40
0.1129393986
 40
0.2001482804
 40
0.3117003149
 40
0.448660656
 40
0.6113515759
 40
0.7969830591
 40
1.0
 40
1.0
 40
1.0
 40
1.0
 10
36.2464294753
 20
15.9365367282
 30
0.0
 10
36.2464294753
 20
15.9703051989
 30
0.0
 10
36.2924267919
 20
16.0233945772
 30
0.0
 10
36.3710860926
 20
16.0690895523
 30
0.0
 10
36.4647362856
 20
16.1081017996
 30
0.0
 10
36.5826661442
 20
16.1424750131
 30
0.0
 10
36.7249273599
 20
16.1720592038
 30
0.0
 10
36.8880477934
 20
16.1960928449
 30
0.0
 10
37.0036559222
 20
16.2082223495
 30
0.0
 10
37.0641233134
 20
16.2135464447
 30
0.0
  0
SPLINE
  5
3C2
100
AcDbEntity
  8
0
100
AcDbSpline
 62
7
  6
BYLAYER
 70
0
 71
3
 72
9
 73
5
 74
0
 42
0.0000001
 43
0.0000001
 44
0.0000000001
 40
0.0
 40
0.0
 40
0.0
 40
0.0
 40
0.2446304879
 40
1.0
 40
1.0
 40
1.0
 40
1.0
 10
37.0641233134
 20
16.2135464447
 30
0.0
 10
37.1103952225
 20
16.2176206414
 30
0.0
 10
37.2997554184
 20
16.2318242517
 30
0.0
 10
37.4897263982
 20
16.2376396857
 30
0.0
 10
37.6331574753
 20
16.2376396857
 30
0.0
  0
SPLINE
  5
3C3
100
AcDbEntity
  8
0
100
AcDbSpline
 62
7
  6
BYLAYER
 70
0
 71
3
 72
9
 73
5
 74
0
 42
0.0000001
 43
0.0000001
 44
0.0000000001
 40
0.0
 40
0.0
 40
0.0
 40
0.0
 40
0.2677610888
 40
1.0
 40
1.0
 40
1.0
 40
1.0
 10
38.2903779803
 20
15.7586705934
 30
0.0
 10
38.3490696658
 20
15.7619854506
 30
0.0
 10
38.5680677042
 20
15.7775580439
 30
0.0
 10
38.7863194213
 20
15.8040650202
 30
0.0
 10
38.9449254753
 20
15.8302825954
 30
0.0
  0
SPLINE
  5
3C4
100
AcDbEntity
  8
0
100
AcDbSpline
 62
7
  6
BYLAYER
 70
0
 71
3
 72
9
 73
5
 74
0
 42
0.0000001
 43
0.0000001
 44
0.0000000001
 40
0.0
 40
0.0
 40
0.0
 40
0.0
 40
0.256240712
 40
1.0
 40
1.0
 40
1.0
 40
1.0
 10
37.6331574753
 20
16.2376396857
 30
0.0
 10
37.6908939603
 20
16.2376396857
 30
0.0
 10
37.9161929147
 20
16.2342124854
 30
0.0
 10
38.1413814081
 20
16.2187789165
 30
0.0
 10
38.3078211773
 20
16.1992221665
 30
0.0
  0
SPLINE
  5
3C5
100
AcDbEntity
  8
0
100
AcDbSpline
 62
7
  6
BYLAYER
 70
0
 71
3
 72
13
 73
9
 74
0
 42
0.0000001
 43
0.0000001
 44
0.0000000001
 40
0.0
 40
0.0
 40
0.0
 40
0.0
 40
0.3674113917
 40
0.527386032
 40
0.6677203938
 40
0.7859054709
 40
0.8801417307
 40
1.0
 40
1.0
 40
1.0
 40
1.0
 10
38.3078211773
 20
16.1992221665
 30
0.0
 10
38.4014152364
 20
16.1882248212
 30
0.0
 10
38.5353980426
 20
16.1688258101
 30
0.0
 10
38.7030622689
 20
16.1329357924
 30
0.0
 10
38.8064038404
 20
16.1048926862
 30
0.0
 10
38.8924473661
 20
16.0733662379
 30
0.0
 10
38.9663087294
 20
16.0373181239
 30
0.0
 10
39.0149697859
 20
15.9918785646
 30
0.0
 10
39.0149699192
 20
15.9611359236
 30
0.0
  0
SPLINE
  5
3C6
100
AcDbEntity
  8
0
100
AcDbSpline
 62
7
  6
BYLAYER
 70
0
 71
3
 72
9
 73
5
 74
0
 42
0.0000001
 43
0.0000001
 44
0.0000000001
 40
0.0
 40
0.0
 40
0.0
 40
0.0
 40
0.2549183025
 40
1.0
 40
1.0
 40
1.0
 40
1.0
 10
34.3878278753
 20
16.2376396857
 30
0.0
 10
34.4461688365
 20
16.2376396857
 30
0.0
 10
34.6750163961
 20
16.2347469473
 30
0.0
 10
34.9037511267
 20
16.2200109068
 30
0.0
 10
35.0732886753
 20
16.2017286253
 30
0.0
  0
SPLINE
  5
3C7
100
AcDbEntity
  8
0
100
AcDbSpline
 62
7
  6
BYLAYER
 70
0
 71
3
 72
15
 73
11
 74
0
 42
0.0000001
 43
0.0000001
 44
0.0000000001
 40
0.0
 40
0.0
 40
0.0
 40
0.0
 40
0.0510728792
 40
0.1148012948
 40
0.1983737439
 40
0.305945908
 40
0.4402481431
 40
0.6031400141
 40
0.7919307028
 40
1.0
 40
1.0
 40
1.0
 40
1.0
 10
33.1144406753
 20
15.9402859117
 30
0.0
 10
33.1144406753
 20
15.954931172
 30
0.0
 10
33.1244304961
 20
15.9879708747
 30
0.0
 10
33.1629518779
 20
16.0311702477
 30
0.0
 10
33.224066617
 20
16.0720726146
 30
0.0
 10
33.3095361617
 20
16.1103095259
 30
0.0
 10
33.4204989655
 20
16.1450004038
 30
0.0
 10
33.556838457
 20
16.1744972269
 30
0.0
 10
33.7155883403
 20
16.19864214
 30
0.0
 10
33.828781769
 20
16.2107217649
 30
0.0
 10
33.8882128392
 20
16.215992434
 30
0.0
  0
SPLINE
  5
3C8
100
AcDbEntity
  8
0
100
AcDbSpline
 62
7
  6
BYLAYER
 70
0
 71
3
 72
13
 73
9
 74
0
 42
0.0000001
 43
0.0000001
 44
0.0000000001
 40
0.0
 40
0.0
 40
0.0
 40
0.0
 40
0.2609624668
 40
0.5606085595
 40
0.7031655169
 40
0.8293343057
 40
0.9307482704
 40
1.0
 40
1.0
 40
1.0
 40
1.0
 10
32.2244246753
 20
16.491485802
 30
0.0
 10
32.2757662889
 20
16.498142945
 30
0.0
 10
32.3869638514
 20
16.5048466878
 30
0.0
 10
32.5265298927
 20
16.5056090111
 30
0.0
 10
32.6391553675
 20
16.5004531479
 30
0.0
 10
32.7124372574
 20
16.4939525084
 30
0.0
 10
32.7703695574
 20
16.4845626938
 30
0.0
 10
32.803575617
 20
16.4754014024
 30
0.0
 10
32.8155110753
 20
16.4685974299
 30
0.0
  0
SPLINE
  5
3C9
100
AcDbEntity
  8
0
100
AcDbSpline
 62
7
  6
BYLAYER
 70
0
 71
3
 72
14
 73
10
 74
0
 42
0.0000001
 43
0.0000001
 44
0.0000000001
 40
0.0
 40
0.0
 40
0.0
 40
0.0
 40
0.1129760903
 40
0.2002304933
 40
0.3118228204
 40
0.4487975726
 40
0.6114608233
 40
0.7970396762
 40
1.0
 40
1.0
 40
1.0
 40
1.0
 10
28.8883318753
 20
15.9365367282
 30
0.0
 10
28.8883318753
 20
15.97029318
 30
0.0
 10
28.93436625
 20
16.0233425865
 30
0.0
 10
29.0130082496
 20
16.0689983473
 30
0.0
 10
29.1066280201
 20
16.1079872951
 30
0.0
 10
29.2244817365
 20
16.142346745
 30
0.0
 10
29.3666217456
 20
16.1719318518
 30
0.0
 10
29.5295863812
 20
16.1959719895
 30
0.0
 10
29.6450811281
 20
16.2081110054
 30
0.0
 10
29.7054895184
 20
16.2134412975
 30
0.0
  0
SPLINE
  5
3CA
100
AcDbEntity
  8
0
100
AcDbSpline
 62
7
  6
BYLAYER
 70
0
 71
3
 72
9
 73
5
 74
0
 42
0.0000001
 43
0.0000001
 44
0.0000000001
 40
0.0
 40
0.0
 40
0.0
 40
0.0
 40
0.2445932988
 40
1.0
 40
1.0
 40
1.0
 40
1.0
 10
29.7054895184
 20
16.2134412975
 30
0.0
 10
29.7518707802
 20
16.2175338694
 30
0.0
 10
29.9417084506
 20
16.2318014898
 30
0.0
 10
30.1321609224
 20
16.2376396857
 30
0.0
 10
30.2759622753
 20
16.2376396857
 30
0.0
  0
SPLINE
  5
3CB
100
AcDbEntity
  8
0
100
AcDbSpline
 62
7
  6
BYLAYER
 70
0
 71
3
 72
9
 73
5
 74
0
 42
0.0000001
 43
0.0000001
 44
0.0000000001
 40
0.0
 40
0.0
 40
0.0
 40
0.0
 40
0.2677575307
 40
1.0
 40
1.0
 40
1.0
 40
1.0
 10
30.9329447289
 20
15.7586958671
 30
0.0
 10
30.991495672
 20
15.7620177127
 30
0.0
 10
31.2099707606
 20
15.7776168708
 30
0.0
 10
31.427692256
 20
15.8041412742
 30
0.0
 10
31.5859254753
 20
15.8302825954
 30
0.0
  0
SPLINE
  5
3CC
100
AcDbEntity
  8
0
100
AcDbSpline
 62
7
  6
BYLAYER
 70
0
 71
3
 72
9
 73
5
 74
0
 42
0.0000001
 43
0.0000001
 44
0.0000000001
 40
0.0
 40
0.0
 40
0.0
 40
0.0
 40
0.2561642187
 40
1.0
 40
1.0
 40
1.0
 40
1.0
 10
30.2759622753
 20
16.2376396857
 30
0.0
 10
30.3334588881
 20
16.2376396857
 30
0.0
 10
30.5578891474
 20
16.2342415241
 30
0.0
 10
30.7822092407
 20
16.2189280988
 30
0.0
 10
30.9480351441
 20
16.1995393045
 30
0.0
  0
SPLINE
  5
3CD
100
AcDbEntity
  8
0
100
AcDbSpline
 62
7
  6
BYLAYER
 70
0
 71
3
 72
13
 73
9
 74
0
 42
0.0000001
 43
0.0000001
 44
0.0000000001
 40
0.0
 40
0.0
 40
0.0
 40
0.0
 40
0.3673805565
 40
0.5273780235
 40
0.6677456195
 40
0.7859621065
 40
0.8802143272
 40
1.0
 40
1.0
 40
1.0
 40
1.0
 10
30.9480351441
 20
16.1995393045
 30
0.0
 10
31.0419025239
 20
16.1885640872
 30
0.0
 10
31.176287375
 20
16.1691853885
 30
0.0
 10
31.344474483
 20
16.1332983908
 30
0.0
 10
31.448160015
 20
16.1052434334
 30
0.0
 10
31.5345068909
 20
16.0736886444
 30
0.0
 10
31.6086015102
 20
16.0376175641
 30
0.0
 10
31.657485048
 20
15.9921106892
 30
0.0
 10
31.6574851849
 20
15.9612964186
 30
0.0
  0
SPLINE
  5
3CE
100
AcDbEntity
  8
0
100
AcDbSpline
 62
7
  6
BYLAYER
 70
0
 71
3
 72
9
 73
5
 74
0
 42
0.0000001
 43
0.0000001
 44
0.0000000001
 40
0.0
 40
0.0
 40
0.0
 40
0.0
 40
0.2437222439
 40
1.0
 40
1.0
 40
1.0
 40
1.0
 10
26.7479590753
 20
16.1447043307
 30
0.0
 10
26.7696837829
 20
16.1500434444
 30
0.0
 10
26.8590957564
 20
16.1708243194
 30
0.0
 10
26.9495160127
 20
16.1871987317
 30
0.0
 10
27.0181829191
 20
16.1973856894
 30
0.0
  0
SPLINE
  5
3CF
100
AcDbEntity
  8
0
100
AcDbSpline
 62
7
  6
BYLAYER
 70
0
 71
3
 72
9
 73
5
 74
0
 42
0.0000001
 43
0.0000001
 44
0.0000000001
 40
0.0
 40
0.0
 40
0.0
 40
0.0
 40
0.2373814945
 40
1.0
 40
1.0
 40
1.0
 40
1.0
 10
27.0181829191
 20
16.1973856894
 30
0.0
 10
27.0641757497
 20
16.2042088746
 30
0.0
 10
27.2585387648
 20
16.2288015887
 30
0.0
 10
27.4547328777
 20
16.2376396857
 30
0.0
 10
27.6041078753
 20
16.2376396857
 30
0.0
  0
SPLINE
  5
3D0
100
AcDbEntity
  8
0
100
AcDbSpline
 62
7
  6
BYLAYER
 70
0
 71
3
 72
14
 73
10
 74
0
 42
0.0000001
 43
0.0000001
 44
0.0000000001
 40
0.0
 40
0.0
 40
0.0
 40
0.0
 40
0.1979872741
 40
0.3862301506
 40
0.5548756285
 40
0.6958480829
 40
0.8083741023
 40
0.8943186929
 40
1.0
 40
1.0
 40
1.0
 40
1.0
 10
27.7354763487
 20
16.235960097
 30
0.0
 10
27.7940563426
 20
16.2344603084
 30
0.0
 10
27.9083060324
 20
16.229585072
 30
0.0
 10
28.0719907817
 20
16.2160978925
 30
0.0
 10
28.2182355499
 20
16.1963141731
 30
0.0
 10
28.3401647496
 20
16.1697916691
 30
0.0
 10
28.4363474194
 20
16.1365706894
 30
0.0
 10
28.5143033595
 20
16.0972154885
 30
0.0
 10
28.5618582753
 20
16.0488137977
 30
0.0
 10
28.5618582753
 20
16.0175348228
 30
0.0
  0
SPLINE
  5
3D1
100
AcDbEntity
  8
0
100
AcDbSpline
 62
7
  6
BYLAYER
 70
0
 71
3
 72
15
 73
11
 74
0
 42
0.0000001
 43
0.0000001
 44
0.0000000001
 40
0.0
 40
0.0
 40
0.0
 40
0.0
 40
0.0434375904
 40
0.096493746
 40
0.1784925307
 40
0.2969120534
 40
0.4458445572
 40
0.6178222486
 40
0.8051062727
 40
1.0
 40
1.0
 40
1.0
 40
1.0
 10
33.9475606753
 20
15.9365367282
 30
0.0
 10
33.9475606753
 20
15.9265250661
 30
0.0
 10
33.9504757374
 20
15.9036298467
 30
0.0
 10
33.9779754329
 20
15.8705589157
 30
0.0
 10
34.0307998216
 20
15.844044582
 30
0.0
 10
34.1071799867
 20
15.8185334092
 30
0.0
 10
34.2060317239
 20
15.7958201434
 30
0.0
 10
34.3217596609
 20
15.7773939626
 30
0.0
 10
34.4489695398
 20
15.7650778273
 30
0.0
 10
34.5370760231
 20
15.7620114494
 30
0.0
 10
34.5819958753
 20
15.7620114494
 30
0.0
  0
SPLINE
  5
3D2
100
AcDbEntity
  8
0
100
AcDbSpline
 62
7
  6
BYLAYER
 70
0
 71
3
 72
9
 73
5
 74
0
 42
0.0000001
 43
0.0000001
 44
0.0000000001
 40
0.0
 40
0.0
 40
0.0
 40
0.0
 40
0.2660092791
 40
1.0
 40
1.0
 40
1.0
 40
1.0
 10
34.5819958753
 20
15.7620114494
 30
0.0
 10
34.6258035284
 20
15.7620114494
 30
0.0
 10
34.7904246043
 20
15.765563483
 30
0.0
 10
34.955052844
 20
15.7842366827
 30
0.0
 10
35.0732886753
 20
15.8093672202
 30
0.0
  0
SPLINE
  5
3D3
100
AcDbEntity
  8
0
100
AcDbSpline
 62
7
  6
BYLAYER
 70
0
 71
3
 72
9
 73
5
 74
0
 42
0.0000001
 43
0.0000001
 44
0.0000000001
 40
0.0
 40
0.0
 40
0.0
 40
0.0
 40
0.2212888022
 40
1.0
 40
1.0
 40
1.0
 40
1.0
 10
25.6547430753
 20
15.459724484
 30
0.0
 10
25.6624715722
 20
15.4623381349
 30
0.0
 10
25.6980808123
 20
15.4721427563
 30
0.0
 10
25.7353103268
 20
15.4748190988
 30
0.0
 10
25.7640198753
 20
15.4748190988
 30
0.0
  0
SPLINE
  5
3D4
100
AcDbEntity
  8
0
100
AcDbSpline
 62
7
  6
BYLAYER
 70
0
 71
3
 72
12
 73
8
 74
0
 42
0.0000001
 43
0.0000001
 44
0.0000000001
 40
0.0
 40
0.0
 40
0.0
 40
0.0
 40
0.3050483358
 40
0.5893030856
 40
0.827955239
 40
0.9232968481
 40
1.0
 40
1.0
 40
1.0
 40
1.0
 10
24.3375558753
 20
15.0882788037
 30
0.0
 10
24.4466788346
 20
15.0882788037
 30
0.0
 10
24.6575847582
 20
15.0936867209
 30
0.0
 10
24.9527195949
 20
15.1191070393
 30
0.0
 10
25.1715588765
 20
15.1561951534
 30
0.0
 10
25.311982018
 20
15.199855313
 30
0.0
 10
25.3681222255
 20
15.226298408
 30
0.0
 10
25.3910342753
 20
15.2413951085
 30
0.0
  0
SPLINE
  5
3D5
100
AcDbEntity
  8
0
100
AcDbSpline
 62
7
  6
BYLAYER
 70
0
 71
3
 72
9
 73
5
 74
0
 42
0.0000001
 43
0.0000001
 44
0.0000000001
 40
0.0
 40
0.0
 40
0.0
 40
0.0
 40
0.5091346929
 40
1.0
 40
1.0
 40
1.0
 40
1.0
 10
15.5822440149
 20
44.958627483
 30
0.0
 10
15.595237476
 20
44.7840903519
 30
0.0
 10
15.6725599289
 20
44.4428401676
 30
0.0
 10
15.854460065
 20
44.1424296425
 30
0.0
 10
15.9660543634
 20
44.0158601239
 30
0.0
  0
SPLINE
  5
3D6
100
AcDbEntity
  8
0
100
AcDbSpline
 62
7
  6
BYLAYER
 70
0
 71
3
 72
14
 73
10
 74
0
 42
0.0000001
 43
0.0000001
 44
0.0000000001
 40
0.0
 40
0.0
 40
0.0
 40
0.0
 40
0.3182304167
 40
0.4662977458
 40
0.6017660577
 40
0.7222720016
 40
0.8269648815
 40
0.917747094
 40
1.0
 40
1.0
 40
1.0
 40
1.0
 10
17.4794262753
 20
43.5857499726
 30
0.0
 10
17.6717322868
 20
43.5857499726
 30
0.0
 10
17.9549027964
 20
43.5593782545
 30
0.0
 10
18.307244127
 20
43.4668827548
 30
0.0
 10
18.5344915093
 20
43.3754439324
 30
0.0
 10
18.7228678337
 20
43.2637008513
 30
0.0
 10
18.8657412016
 20
43.1345267118
 30
0.0
 10
18.9575051586
 20
42.990848674
 30
0.0
 10
18.9793622305
 20
42.885455241
 30
0.0
 10
18.9793622305
 20
42.8357499726
 30
0.0
  0
SPLINE
  5
3D7
100
AcDbEntity
  8
0
100
AcDbSpline
 62
7
  6
BYLAYER
 70
0
 71
3
 72
14
 73
10
 74
0
 42
0.0000001
 43
0.0000001
 44
0.0000000001
 40
0.0
 40
0.0
 40
0.0
 40
0.0
 40
0.3182332681
 40
0.4662746797
 40
0.6017723725
 40
0.7222756665
 40
0.8269606835
 40
0.9178027381
 40
1.0
 40
1.0
 40
1.0
 40
1.0
 10
17.4794262753
 20
41.5056229536
 30
0.0
 10
17.2871182353
 20
41.5056229536
 30
0.0
 10
17.003964536
 20
41.4792375391
 30
0.0
 10
16.6516108922
 20
41.386773446
 30
0.0
 10
16.4243712894
 20
41.2952984996
 30
0.0
 10
16.2359861145
 20
41.1835874858
 30
0.0
 10
16.0929868549
 20
41.0544467335
 30
0.0
 10
16.0015089112
 20
40.910627787
 30
0.0
 10
15.9794262753
 20
40.8052946753
 30
0.0
 10
15.9794262753
 20
40.7556229536
 30
0.0
  0
SPLINE
  5
3D8
100
AcDbEntity
  8
0
100
AcDbSpline
 62
7
  6
BYLAYER
 70
0
 71
3
 72
14
 73
10
 74
0
 42
0.0000001
 43
0.0000001
 44
0.0000000001
 40
0.0
 40
0.0
 40
0.0
 40
0.0
 40
0.0821972619
 40
0.1730393165
 40
0.2777243335
 40
0.3982276275
 40
0.5337253203
 40
0.6817667319
 40
1.0
 40
1.0
 40
1.0
 40
1.0
 10
18.9794262753
 20
40.7556229536
 30
0.0
 10
18.9794262753
 20
40.8052946753
 30
0.0
 10
18.9573436394
 20
40.910627787
 30
0.0
 10
18.8658656957
 20
41.0544467335
 30
0.0
 10
18.7228664361
 20
41.1835874858
 30
0.0
 10
18.5344812612
 20
41.2952984996
 30
0.0
 10
18.3072416584
 20
41.386773446
 30
0.0
 10
17.9548880146
 20
41.4792375391
 30
0.0
 10
17.6717343153
 20
41.5056229536
 30
0.0
 10
17.4794262753
 20
41.5056229536
 30
0.0
  0
SPLINE
  5
3D9
100
AcDbEntity
  8
0
100
AcDbSpline
 62
7
  6
BYLAYER
 70
0
 71
3
 72
14
 73
10
 74
0
 42
0.0000001
 43
0.0000001
 44
0.0000000001
 40
0.0
 40
0.0
 40
0.0
 40
0.0
 40
0.3182332681
 40
0.4662746797
 40
0.6017723725
 40
0.7222756665
 40
0.8269606835
 40
0.9178027381
 40
1.0
 40
1.0
 40
1.0
 40
1.0
 10
48.4794262753
 20
41.5056229536
 30
0.0
 10
48.2871182353
 20
41.5056229536
 30
0.0
 10
48.003964536
 20
41.4792375391
 30
0.0
 10
47.6516108922
 20
41.386773446
 30
0.0
 10
47.4243712894
 20
41.2952984996
 30
0.0
 10
47.2359861145
 20
41.1835874858
 30
0.0
 10
47.0929868549
 20
41.0544467335
 30
0.0
 10
47.0015089112
 20
40.910627787
 30
0.0
 10
46.9794262753
 20
40.8052946753
 30
0.0
 10
46.9794262753
 20
40.7556229536
 30
0.0
  0
SPLINE
  5
3DA
100
AcDbEntity
  8
0
100
AcDbSpline
 62
7
  6
BYLAYER
 70
0
 71
3
 72
9
 73
5
 74
0
 42
0.0000001
 43
0.0000001
 44
0.0000000001
 40
0.0
 40
0.0
 40
0.0
 40
0.0
 40
0.2502364604
 40
1.0
 40
1.0
 40
1.0
 40
1.0
 10
56.1354651941
 20
64.4002525248
 30
0.0
 10
56.1044860025
 20
64.5468096394
 30
0.0
 10
55.9782337992
 20
65.1319452603
 30
0.0
 10
55.8392200626
 20
65.7144689415
 30
0.0
 10
55.7230562393
 20
66.1479959749
 30
0.0
  0
SPLINE
  5
3DB
100
AcDbEntity
  8
0
100
AcDbSpline
 62
7
  6
BYLAYER
 70
0
 71
3
 72
14
 73
10
 74
0
 42
0.0000001
 43
0.0000001
 44
0.0000000001
 40
0.0
 40
0.0
 40
0.0
 40
0.0
 40
0.3182304167
 40
0.4662977458
 40
0.6017660577
 40
0.7222720016
 40
0.8269648815
 40
0.917747094
 40
1.0
 40
1.0
 40
1.0
 40
1.0
 10
48.4794262753
 20
43.5857499726
 30
0.0
 10
48.6717322868
 20
43.5857499726
 30
0.0
 10
48.9549027964
 20
43.5593782545
 30
0.0
 10
49.307244127
 20
43.4668827548
 30
0.0
 10
49.5344915093
 20
43.3754439324
 30
0.0
 10
49.7228678337
 20
43.2637008513
 30
0.0
 10
49.8657412016
 20
43.1345267118
 30
0.0
 10
49.9575051586
 20
42.990848674
 30
0.0
 10
49.9793622305
 20
42.885455241
 30
0.0
 10
49.9793622305
 20
42.8357499726
 30
0.0
  0
SPLINE
  5
3DC
100
AcDbEntity
  8
0
100
AcDbSpline
 62
7
  6
BYLAYER
 70
0
 71
3
 72
17
 73
13
 74
0
 42
0.0000001
 43
0.0000001
 44
0.0000000001
 40
0.0
 40
0.0
 40
0.0
 40
0.0
 40
0.0214338854
 40
0.0498388941
 40
0.0848753935
 40
0.1259401346
 40
0.2240223635
 40
0.3418607897
 40
0.4795848646
 40
0.6371259271
 40
0.8122840693
 40
1.0
 40
1.0
 40
1.0
 40
1.0
 10
10.4519204203
 20
17.6221772654
 30
0.0
 10
10.4433087471
 20
17.664430789
 30
0.0
 10
10.4492590038
 20
17.7670860473
 30
0.0
 10
10.4984041924
 20
17.930989904
 30
0.0
 10
10.5894567478
 20
18.1214547587
 30
0.0
 10
10.7789595525
 20
18.4169371429
 30
0.0
 10
11.1291197217
 20
18.8029505198
 30
0.0
 10
11.7056123008
 20
19.2272328893
 30
0.0
 10
12.4578932435
 20
19.5901366217
 30
0.0
 10
13.3662585506
 20
19.8664724086
 30
0.0
 10
14.4002448473
 20
20.0439047106
 30
0.0
 10
15.1299792599
 20
20.0939027545
 30
0.0
 10
15.5075664141
 20
20.1013112459
 30
0.0
  0
SPLINE
  5
3DD
100
AcDbEntity
  8
0
100
AcDbSpline
 62
7
  6
BYLAYER
 70
0
 71
3
 72
21
 73
17
 74
0
 42
0.0000001
 43
0.0000001
 44
0.0000000001
 40
0.0
 40
0.0
 40
0.0
 40
0.0
 40
0.1671060363
 40
0.2500660101
 40
0.3318305297
 40
0.4888554166
 40
0.561859583
 40
0.6292348315
 40
0.6895590561
 40
0.7419723296
 40
0.7873389908
 40
0.8279195725
 40
0.8672261983
 40
0.9082272681
 40
0.9524210966
 40
1.0
 40
1.0
 40
1.0
 40
1.0
 10
50.9794262753
 20
76.5457329366
 30
0.0
 10
50.786104441
 20
76.7735754651
 30
0.0
 10
50.472974942
 20
77.0944278792
 30
0.0
 10
50.0332063529
 20
77.492827811
 30
0.0
 10
49.5905605109
 20
77.8604725691
 30
0.0
 10
49.1318475268
 20
78.1810522208
 30
0.0
 10
48.661438348
 20
78.4305488519
 30
0.0
 10
48.3282734311
 20
78.5659300173
 30
0.0
 10
48.0155856472
 20
78.6482376215
 30
0.0
 10
47.731500868
 20
78.6688190284
 30
0.0
 10
47.484560662
 20
78.6253257427
 30
0.0
 10
47.2834726973
 20
78.5171709634
 30
0.0
 10
47.1365259544
 20
78.3534539366
 30
0.0
 10
47.0409154459
 20
78.149747256
 30
0.0
 10
46.9890923509
 20
77.9166886719
 30
0.0
 10
46.9794262753
 20
77.7522757463
 30
0.0
 10
46.9794262753
 20
77.6671986071
 30
0.0
  0
SPLINE
  5
3DE
100
AcDbEntity
  8
0
100
AcDbSpline
 62
7
  6
BYLAYER
 70
0
 71
3
 72
11
 73
7
 74
0
 42
0.0000001
 43
0.0000001
 44
0.0000000001
 40
0.0
 40
0.0
 40
0.0
 40
0.0
 40
0.2416222108
 40
0.496277283
 40
0.7531772061
 40
1.0
 40
1.0
 40
1.0
 40
1.0
 10
11.6246780524
 20
12.261291793
 30
0.0
 10
11.6488765963
 20
12.1578188429
 30
0.0
 10
11.7383618367
 20
11.9538255031
 30
0.0
 10
11.9633575654
 20
11.7015733738
 30
0.0
 10
12.2671933176
 20
11.5485933648
 30
0.0
 10
12.4898594467
 20
11.5119590913
 30
0.0
 10
12.5984047484
 20
11.5131709128
 30
0.0
  0
SPLINE
  5
3DF
100
AcDbEntity
  8
0
100
AcDbSpline
 62
7
  6
BYLAYER
 70
0
 71
3
 72
11
 73
7
 74
0
 42
0.0000001
 43
0.0000001
 44
0.0000000001
 40
0.0
 40
0.0
 40
0.0
 40
0.0
 40
0.2399789869
 40
0.4962616689
 40
0.7547821239
 40
1.0
 40
1.0
 40
1.0
 40
1.0
 10
10.4519204206
 20
17.6221772642
 30
0.0
 10
10.4734550934
 20
17.5164879202
 30
0.0
 10
10.5562848809
 20
17.3039138803
 30
0.0
 10
10.7858100112
 20
17.0444001407
 30
0.0
 10
11.0931133035
 20
16.8798411052
 30
0.0
 10
11.3215768601
 20
16.8449169876
 30
0.0
 10
11.4317872448
 20
16.8459889227
 30
0.0
  0
SPLINE
  5
3E0
100
AcDbEntity
  8
0
100
AcDbSpline
 62
7
  6
BYLAYER
 70
0
 71
3
 72
14
 73
10
 74
0
 42
0.0000001
 43
0.0000001
 44
0.0000000001
 40
0.0
 40
0.0
 40
0.0
 40
0.0
 40
0.3414018611
 40
0.5001254888
 40
0.643591719
 40
0.7671330519
 40
0.8681794578
 40
0.9453894829
 40
1.0
 40
1.0
 40
1.0
 40
1.0
 10
15.5075664142
 20
20.1013112457
 30
0.0
 10
15.5251974651
 20
19.8260797711
 30
0.0
 10
15.5597298253
 20
19.4232976177
 30
0.0
 10
15.626660774
 20
18.9076482709
 30
0.0
 10
15.6823988176
 20
18.568172512
 30
0.0
 10
15.7434662996
 20
18.2771067627
 30
0.0
 10
15.807024457
 20
18.0414312025
 30
0.0
 10
15.8713593148
 20
17.8645855813
 30
0.0
 10
15.9209462617
 20
17.7692905659
 30
0.0
 10
15.9471719448
 20
17.7338159332
 30
0.0
  0
SPLINE
  5
3E1
100
AcDbEntity
  8
0
100
AcDbSpline
 62
7
  6
BYLAYER
 70
0
 71
3
 72
14
 73
10
 74
0
 42
0.0000001
 43
0.0000001
 44
0.0000000001
 40
0.0
 40
0.0
 40
0.0
 40
0.0
 40
0.3414045828
 40
0.5001291323
 40
0.6435957531
 40
0.7671368664
 40
0.868182439
 40
0.9453911181
 40
1.0
 40
1.0
 40
1.0
 40
1.0
 10
50.4512861219
 20
20.1013112459
 30
0.0
 10
50.4336548507
 20
19.8260763137
 30
0.0
 10
50.3991219825
 20
19.4232893778
 30
0.0
 10
50.3321898103
 20
18.9076344952
 30
0.0
 10
50.2764508052
 20
18.5681563918
 30
0.0
 10
50.2153823366
 20
18.2770900041
 30
0.0
 10
50.1518232994
 20
18.0414154911
 30
0.0
 10
50.0874876919
 20
17.8645725294
 30
0.0
 10
50.0379000733
 20
17.7692798736
 30
0.0
 10
50.0116739744
 20
17.7338069391
 30
0.0
  0
SPLINE
  5
3E2
100
AcDbEntity
  8
0
100
AcDbSpline
 62
7
  6
BYLAYER
 70
0
 71
3
 72
17
 73
13
 74
0
 42
0.0000001
 43
0.0000001
 44
0.0000000001
 40
0.0
 40
0.0
 40
0.0
 40
0.0
 40
0.0214330401
 40
0.049836028
 40
0.0848707878
 40
0.1259359278
 40
0.2240141733
 40
0.3418556198
 40
0.4795843151
 40
0.6371292098
 40
0.8122866119
 40
1.0
 40
1.0
 40
1.0
 40
1.0
 10
55.5069321303
 20
17.6221772654
 30
0.0
 10
55.5155434339
 20
17.6644289629
 30
0.0
 10
55.5095940737
 20
17.7670780418
 30
0.0
 10
55.4604495631
 20
17.9309719026
 30
0.0
 10
55.3694003033
 20
18.1214293545
 30
0.0
 10
55.1799123413
 20
18.4169081981
 30
0.0
 10
54.8296994351
 20
18.8028731116
 30
0.0
 10
54.2532166748
 20
19.2271567009
 30
0.0
 10
53.5009718682
 20
19.5901904503
 30
0.0
 10
52.5925706019
 20
19.8664687387
 30
0.0
 10
51.5585939385
 20
20.0439158996
 30
0.0
 10
50.8288667537
 20
20.0939028709
 30
0.0
 10
50.4512861364
 20
20.1013112455
 30
0.0
  0
SPLINE
  5
3E3
100
AcDbEntity
  8
0
100
AcDbSpline
 62
7
  6
BYLAYER
 70
0
 71
3
 72
11
 73
7
 74
0
 42
0.0000001
 43
0.0000001
 44
0.0000000001
 40
0.0
 40
0.0
 40
0.0
 40
0.0
 40
0.2399789865
 40
0.4962616685
 40
0.7547821237
 40
1.0
 40
1.0
 40
1.0
 40
1.0
 10
55.5069321317
 20
17.6221772723
 30
0.0
 10
55.4853974596
 20
17.5164879276
 30
0.0
 10
55.4025676731
 20
17.3039138861
 30
0.0
 10
55.1730425429
 20
17.0444001436
 30
0.0
 10
54.8657392493
 20
16.8798411059
 30
0.0
 10
54.6372756912
 20
16.8449169874
 30
0.0
 10
54.5270653057
 20
16.8459889224
 30
0.0
  0
SPLINE
  5
3E4
100
AcDbEntity
  8
0
100
AcDbSpline
 62
7
  6
BYLAYER
 70
0
 71
3
 72
11
 73
7
 74
0
 42
0.0000001
 43
0.0000001
 44
0.0000000001
 40
0.0
 40
0.0
 40
0.0
 40
0.0
 40
0.2416222851
 40
0.4962772536
 40
0.7531770716
 40
1.0
 40
1.0
 40
1.0
 40
1.0
 10
54.3341737124
 20
12.2612884327
 30
0.0
 10
54.3099748762
 20
12.1578161815
 30
0.0
 10
54.2204897291
 20
11.9538243723
 30
0.0
 10
53.995495342
 20
11.7015739924
 30
0.0
 10
53.6916618098
 20
11.5485944087
 30
0.0
 10
53.4689972099
 20
11.5119596192
 30
0.0
 10
53.3604525031
 20
11.5131708603
 30
0.0
  0
SPLINE
  5
3E5
100
AcDbEntity
  8
0
100
AcDbSpline
 62
7
  6
BYLAYER
 70
0
 71
3
 72
13
 73
9
 74
0
 42
0.0000001
 43
0.0000001
 44
0.0000000001
 40
0.0
 40
0.0
 40
0.0
 40
0.0
 40
0.0500524255
 40
0.1236062078
 40
0.223871329
 40
0.3482655317
 40
0.6526010696
 40
1.0
 40
1.0
 40
1.0
 40
1.0
 10
32.8357616909
 20
16.4436111656
 30
0.0
 10
32.835761379
 20
16.4376116885
 30
0.0
 10
32.8275932597
 20
16.4235497277
 30
0.0
 10
32.8055366221
 20
16.4082905949
 30
0.0
 10
32.7733210278
 20
16.392441102
 30
0.0
 10
32.7136514281
 20
16.370856005
 30
0.0
 10
32.6232440733
 20
16.3480820462
 30
0.0
 10
32.5461385033
 20
16.335117766
 30
0.0
 10
32.5048406753
 20
16.3297860517
 30
0.0
  0
SPLINE
  5
3E6
100
AcDbEntity
  8
0
100
AcDbSpline
 62
7
  6
BYLAYER
 70
0
 71
3
 72
9
 73
5
 74
0
 42
0.0000001
 43
0.0000001
 44
0.0000000001
 40
0.0
 40
0.0
 40
0.0
 40
0.0
 40
0.7498149754
 40
1.0
 40
1.0
 40
1.0
 40
1.0
 10
56.465874121
 20
63.5857456065
 30
0.0
 10
56.1827128365
 20
64.4164663706
 30
0.0
 10
55.7375321214
 20
65.5034574058
 30
0.0
 10
55.2033915776
 20
66.5451725629
 30
0.0
 10
55.0640851639
 20
66.8027558074
 30
0.0
  0
SPLINE
  5
3E7
100
AcDbEntity
  8
0
100
AcDbSpline
 62
7
  6
BYLAYER
 70
0
 71
3
 72
9
 73
5
 74
0
 42
0.0000001
 43
0.0000001
 44
0.0000000001
 40
0.0
 40
0.0
 40
0.0
 40
0.0
 40
0.2499320736
 40
1.0
 40
1.0
 40
1.0
 40
1.0
 10
54.7460050004
 20
67.3685803962
 30
0.0
 10
54.5848320184
 20
67.6445285129
 30
0.0
 10
53.9131161433
 20
68.7324714022
 30
0.0
 10
53.1272611473
 20
69.7519361398
 30
0.0
 10
52.4731901472
 20
70.4533448732
 30
0.0
  0
SPLINE
  5
3E8
100
AcDbEntity
  8
0
100
AcDbSpline
 62
7
  6
BYLAYER
 70
0
 71
3
 72
12
 73
8
 74
0
 42
0.0000001
 43
0.0000001
 44
0.0000000001
 40
0.0
 40
0.0
 40
0.0
 40
0.0
 40
0.125781532
 40
0.251359083
 40
0.5010909258
 40
0.7505658969
 40
1.0
 40
1.0
 40
1.0
 40
1.0
 10
50.8951781806
 20
45.4005192231
 30
0.0
 10
50.8706024761
 20
45.4910473958
 30
0.0
 10
50.8006603623
 20
45.666947111
 30
0.0
 10
50.5918061031
 20
45.9793967217
 30
0.0
 10
50.2298385979
 20
46.287729053
 30
0.0
 10
49.7128711374
 20
46.513896299
 30
0.0
 10
49.3415116192
 20
46.5749661921
 30
0.0
 10
49.1556792919
 20
46.5833557215
 30
0.0
  0
SPLINE
  5
3E9
100
AcDbEntity
  8
0
100
AcDbSpline
 62
7
  6
BYLAYER
 70
0
 71
3
 72
11
 73
7
 74
0
 42
0.0000001
 43
0.0000001
 44
0.0000000001
 40
0.0
 40
0.0
 40
0.0
 40
0.0
 40
0.257581509
 40
0.508618706
 40
0.7551681631
 40
1.0
 40
1.0
 40
1.0
 40
1.0
 10
54.2758306516
 20
63.14369213
 30
0.0
 10
54.7481414486
 20
62.7797180005
 30
0.0
 10
55.6218895343
 20
61.9793166287
 30
0.0
 10
56.673586728
 20
60.5697225408
 30
0.0
 10
57.4201841068
 20
59.0098849771
 30
0.0
 10
57.7023603291
 20
57.8989220477
 30
0.0
 10
57.7872153156
 20
57.3385407654
 30
0.0
  0
SPLINE
  5
3EA
100
AcDbEntity
  8
0
100
AcDbSpline
 62
7
  6
BYLAYER
 70
0
 71
3
 72
11
 73
7
 74
0
 42
0.0000001
 43
0.0000001
 44
0.0000000001
 40
0.0
 40
0.0
 40
0.0
 40
0.0
 40
0.2587318165
 40
0.5146209599
 40
0.7630480785
 40
1.0
 40
1.0
 40
1.0
 40
1.0
 10
45.5827655434
 20
66.1833951549
 30
0.0
 10
46.3864681357
 20
66.1364412451
 30
0.0
 10
47.9814643863
 20
65.9400372325
 30
0.0
 10
50.2815210785
 20
65.3196454048
 30
0.0
 10
52.4069059867
 20
64.4037802354
 30
0.0
 10
53.6916580574
 20
63.593533469
 30
0.0
 10
54.2758306516
 20
63.14369213
 30
0.0
  0
SPLINE
  5
3EB
100
AcDbEntity
  8
0
100
AcDbSpline
 62
7
  6
BYLAYER
 70
0
 71
3
 72
11
 73
7
 74
0
 42
0.0000001
 43
0.0000001
 44
0.0000000001
 40
0.0
 40
0.0
 40
0.0
 40
0.0
 40
0.267317361
 40
0.5265645671
 40
0.7718599276
 40
1.0
 40
1.0
 40
1.0
 40
1.0
 10
51.2088320388
 20
71.6729850335
 30
0.0
 10
50.8554259708
 20
71.9793282611
 30
0.0
 10
50.1626430128
 20
72.5867352197
 30
0.0
 10
49.1837619167
 20
73.5181268748
 30
0.0
 10
48.3204587823
 20
74.4676935539
 30
0.0
 10
47.8295797023
 20
75.1380833496
 30
0.0
 10
47.6177395906
 20
75.4763845597
 30
0.0
  0
SPLINE
  5
3EC
100
AcDbEntity
  8
0
100
AcDbSpline
 62
7
  6
BYLAYER
 70
0
 71
3
 72
10
 73
6
 74
0
 42
0.0000001
 43
0.0000001
 44
0.0000000001
 40
0.0
 40
0.0
 40
0.0
 40
0.0
 40
0.2670103569
 40
0.525088342
 40
1.0
 40
1.0
 40
1.0
 40
1.0
 10
44.5183048565
 20
71.6310192781
 30
0.0
 10
45.2370023663
 20
71.7250401821
 30
0.0
 10
46.6653253174
 20
71.81889056
 30
0.0
 10
49.3757992364
 20
71.6275077902
 30
0.0
 10
51.3321137724
 20
71.0533004192
 30
0.0
 10
52.4732570158
 20
70.4534723419
 30
0.0
  0
SPLINE
  5
3ED
100
AcDbEntity
  8
0
100
AcDbSpline
 62
7
  6
BYLAYER
 70
0
 71
3
 72
11
 73
7
 74
0
 42
0.0000001
 43
0.0000001
 44
0.0000000001
 40
0.0
 40
0.0
 40
0.0
 40
0.0
 40
0.2494796513
 40
0.4987606953
 40
0.7498659031
 40
1.0
 40
1.0
 40
1.0
 40
1.0
 10
50.9312907751
 20
45.0857499763
 30
0.0
 10
50.931290775
 20
45.1122278545
 30
0.0
 10
50.9352272367
 20
45.1651075651
 30
0.0
 10
50.9293276989
 20
45.2447934198
 30
0.0
 10
50.9137622117
 20
45.3229647251
 30
0.0
 10
50.9021332663
 20
45.374899156
 30
0.0
 10
50.8951781806
 20
45.4005192231
 30
0.0
  0
SPLINE
  5
3EE
100
AcDbEntity
  8
0
100
AcDbSpline
 62
7
  6
BYLAYER
 70
0
 71
3
 72
11
 73
7
 74
0
 42
0.0000001
 43
0.0000001
 44
0.0000000001
 40
0.0
 40
0.0
 40
0.0
 40
0.0
 40
0.2506672067
 40
0.5016210375
 40
0.7515158529
 40
1.0
 40
1.0
 40
1.0
 40
1.0
 10
50.8964191205
 20
44.8267409695
 30
0.0
 10
50.9011494268
 20
44.8480739211
 30
0.0
 10
50.9102075327
 20
44.8909116641
 30
0.0
 10
50.9168797532
 20
44.9561592796
 30
0.0
 10
50.9244265561
 20
45.0209471444
 30
0.0
 10
50.9312907752
 20
45.0640891762
 30
0.0
 10
50.9312907751
 20
45.0857499763
 30
0.0
  0
SPLINE
  5
3EF
100
AcDbEntity
  8
0
100
AcDbSpline
 62
7
  6
BYLAYER
 70
0
 71
3
 72
11
 73
7
 74
0
 42
0.0000001
 43
0.0000001
 44
0.0000000001
 40
0.0
 40
0.0
 40
0.0
 40
0.0
 40
0.1205966661
 40
0.3456856861
 40
0.6511477695
 40
1.0
 40
1.0
 40
1.0
 40
1.0
 10
38.9292434046
 20
15.4923132386
 30
0.0
 10
38.9292380068
 20
15.4872003407
 30
0.0
 10
38.9147745247
 20
15.4767307619
 30
0.0
 10
38.8904976007
 20
15.4679388225
 30
0.0
 10
38.8536005185
 20
15.4583143504
 30
0.0
 10
38.8263896652
 20
15.4538938093
 30
0.0
 10
38.8117174753
 20
15.4520293067
 30
0.0
  0
SPLINE
  5
3F0
100
AcDbEntity
  8
0
100
AcDbSpline
 62
7
  6
BYLAYER
 70
0
 71
3
 72
10
 73
6
 74
0
 42
0.0000001
 43
0.0000001
 44
0.0000000001
 40
0.0
 40
0.0
 40
0.0
 40
0.0
 40
0.4979053093
 40
0.7488115648
 40
1.0
 40
1.0
 40
1.0
 40
1.0
 10
50.0624134713
 20
43.8275693353
 30
0.0
 10
50.2598336989
 20
43.9293432738
 30
0.0
 10
50.5364278427
 20
44.1353673674
 30
0.0
 10
50.7921780327
 20
44.5046891423
 30
0.0
 10
50.8721621563
 20
44.7173458748
 30
0.0
 10
50.8964191205
 20
44.8267409695
 30
0.0
  0
SPLINE
  5
3F1
100
AcDbEntity
  8
0
100
AcDbSpline
 62
7
  6
BYLAYER
 70
0
 71
3
 72
25
 73
21
 74
0
 42
0.0000001
 43
0.0000001
 44
0.0000000001
 40
0.0
 40
0.0
 40
0.0
 40
0.0
 40
0.1907784752
 40
0.379975468
 40
0.4709494182
 40
0.557833801
 40
0.6393503283
 40
0.7142209467
 40
0.7813023776
 40
0.8399892715
 40
0.8898112776
 40
0.9302994022
 40
0.9469170421
 40
0.9611432515
 40
0.9730372075
 40
0.9826593082
 40
0.990072546
 40
0.9953465314
 40
0.9985739122
 40
1.0
 40
1.0
 40
1.0
 40
1.0
 10
16.2407394576
 20
55.9162300909
 30
0.0
 10
15.7253589921
 20
55.9958162719
 30
0.0
 10
14.6991551109
 20
56.1561781064
 30
0.0
 10
13.4280337389
 20
56.3598521808
 30
0.0
 10
12.4379296711
 20
56.5222842024
 30
0.0
 10
11.7385981553
 20
56.6389558058
 30
0.0
 10
11.0830230167
 20
56.7503936529
 30
0.0
 10
10.4811903072
 20
56.8549579768
 30
0.0
 10
9.9412830729
 20
56.9513504244
 30
0.0
 10
9.4692604699
 20
57.0383732732
 30
0.0
 10
9.0692784909
 20
57.1151326301
 30
0.0
 10
8.7827727337
 20
57.1730549598
 30
0.0
 10
8.5921708577
 20
57.2141203168
 30
0.0
 10
8.4782112762
 20
57.2399621938
 30
0.0
 10
8.3833025994
 20
57.2628379949
 30
0.0
 10
8.3066208444
 20
57.2830477465
 30
0.0
 10
8.2485681084
 20
57.2998783154
 30
0.0
 10
8.2063996449
 20
57.3150121246
 30
0.0
 10
8.1835980138
 20
57.3247926014
 30
0.0
 10
8.1710534298
 20
57.3346859627
 30
0.0
 10
8.1716370078
 20
57.3385402157
 30
0.0
  0
SPLINE
  5
3F2
100
AcDbEntity
  8
0
100
AcDbSpline
 62
7
  6
BYLAYER
 70
0
 71
3
 72
21
 73
17
 74
0
 42
0.0000001
 43
0.0000001
 44
0.0000000001
 40
0.0
 40
0.0
 40
0.0
 40
0.0
 40
0.157010133
 40
0.3130736738
 40
0.4678355687
 40
0.6167214415
 40
0.6871355575
 40
0.7533544473
 40
0.8140628335
 40
0.8680293376
 40
0.914076963
 40
0.9509547962
 40
0.9658313348
 40
0.9785302224
 40
0.9895831706
 40
1.0
 40
1.0
 40
1.0
 40
1.0
 10
15.9471785495
 20
17.7338069996
 30
0.0
 10
15.6996475278
 20
17.7250711515
 30
0.0
 10
15.2061821488
 20
17.7042513116
 30
0.0
 10
14.4695787012
 20
17.6573804075
 30
0.0
 10
13.7473308441
 20
17.5908179638
 30
0.0
 10
13.1619637232
 20
17.5144514434
 30
0.0
 10
12.7180645157
 20
17.4377861378
 30
0.0
 10
12.4131874002
 20
17.3744245262
 30
0.0
 10
12.1365194811
 20
17.3041402147
 30
0.0
 10
11.8946690196
 20
17.2270858383
 30
0.0
 10
11.6952438826
 20
17.1438056005
 30
0.0
 10
11.5608788156
 20
17.0655440968
 30
0.0
 10
11.485051453
 20
16.9971857056
 30
0.0
 10
11.4480820391
 20
16.9480867818
 30
0.0
 10
11.4282518976
 20
16.8969651957
 30
0.0
 10
11.428506336
 20
16.8620907375
 30
0.0
 10
11.4317871524
 20
16.8459889219
 30
0.0
  0
SPLINE
  5
3F3
100
AcDbEntity
  8
0
100
AcDbSpline
 62
7
  6
BYLAYER
 70
0
 71
3
 72
21
 73
17
 74
0
 42
0.0000001
 43
0.0000001
 44
0.0000000001
 40
0.0
 40
0.0
 40
0.0
 40
0.0
 40
0.010416822
 40
0.0214697637
 40
0.0341686413
 40
0.0490451619
 40
0.0859229349
 40
0.1319705263
 40
0.185937081
 40
0.2466455895
 40
0.3128646446
 40
0.3832789419
 40
0.5321651226
 40
0.6869270809
 40
0.8429903162
 40
1.0
 40
1.0
 40
1.0
 40
1.0
 10
54.5270653983
 20
16.8459889215
 30
0.0
 10
54.5303462123
 20
16.8620907255
 30
0.0
 10
54.5306006417
 20
16.8969651617
 30
0.0
 10
54.510770504
 20
16.9480867063
 30
0.0
 10
54.473801126
 20
16.997185586
 30
0.0
 10
54.39797388
 20
17.065543896
 30
0.0
 10
54.2636089728
 20
17.1438053195
 30
0.0
 10
54.0641838907
 20
17.2270855018
 30
0.0
 10
53.82233324
 20
17.304139988
 30
0.0
 10
53.5456648377
 20
17.3744245476
 30
0.0
 10
53.2407870324
 20
17.4377864577
 30
0.0
 10
52.7968868389
 20
17.5144520959
 30
0.0
 10
52.2115188467
 20
17.5908186593
 30
0.0
 10
51.489270874
 20
17.6573808801
 30
0.0
 10
50.7526685098
 20
17.704251485
 30
0.0
 10
50.2592043234
 20
17.7250711764
 30
0.0
 10
50.0116740131
 20
17.7338069993
 30
0.0
  0
SPLINE
  5
3F4
100
AcDbEntity
  8
0
100
AcDbSpline
 62
7
  6
BYLAYER
 70
0
 71
3
 72
9
 73
5
 74
0
 42
0.0000001
 43
0.0000001
 44
0.0000000001
 40
0.0
 40
0.0
 40
0.0
 40
0.0
 40
0.2482914283
 40
1.0
 40
1.0
 40
1.0
 40
1.0
 10
25.9220630753
 20
16.1291516119
 30
0.0
 10
25.9493489563
 20
16.1285601564
 30
0.0
 10
26.0592293912
 20
16.1256106921
 30
0.0
 10
26.1690577371
 20
16.1203877614
 30
0.0
 10
26.2514962979
 20
16.1147943307
 30
0.0
  0
SPLINE
  5
3F5
100
AcDbEntity
  8
0
100
AcDbSpline
 62
7
  6
BYLAYER
 70
0
 71
3
 72
9
 73
5
 74
0
 42
0.0000001
 43
0.0000001
 44
0.0000000001
 40
0.0
 40
0.0
 40
0.0
 40
0.0
 40
0.2615932305
 40
1.0
 40
1.0
 40
1.0
 40
1.0
 10
26.2514962979
 20
16.1147943307
 30
0.0
 10
26.2765050421
 20
16.1130974952
 30
0.0
 10
26.3720593127
 20
16.1059942721
 30
0.0
 10
26.4674602141
 20
16.0963612873
 30
0.0
 10
26.5375680679
 20
16.0868120294
 30
0.0
  0
SPLINE
  5
3F6
100
AcDbEntity
  8
0
100
AcDbSpline
 62
7
  6
BYLAYER
 70
0
 71
3
 72
9
 73
5
 74
0
 42
0.0000001
 43
0.0000001
 44
0.0000000001
 40
0.0
 40
0.0
 40
0.0
 40
0.0
 40
0.2686535767
 40
1.0
 40
1.0
 40
1.0
 40
1.0
 10
26.5375680679
 20
16.0868120294
 30
0.0
 10
26.5526497108
 20
16.0847577874
 30
0.0
 10
26.6087198552
 20
16.0766588158
 30
0.0
 10
26.6645585981
 20
16.0666914137
 30
0.0
 10
26.7049659608
 20
16.0575190387
 30
0.0
  0
SPLINE
  5
3F7
100
AcDbEntity
  8
0
100
AcDbSpline
 62
7
  6
BYLAYER
 70
0
 71
3
 72
9
 73
5
 74
0
 42
0.0000001
 43
0.0000001
 44
0.0000000001
 40
0.0
 40
0.0
 40
0.0
 40
0.0
 40
0.2583033381
 40
1.0
 40
1.0
 40
1.0
 40
1.0
 10
26.7049659608
 20
16.0575190387
 30
0.0
 10
26.7086850915
 20
16.056674805
 30
0.0
 10
26.7230683394
 20
16.0533409176
 30
0.0
 10
26.7373894321
 20
16.0497351806
 30
0.0
 10
26.7479590753
 20
16.0468709295
 30
0.0
  0
SPLINE
  5
3F8
100
AcDbEntity
  8
0
100
AcDbSpline
 62
7
  6
BYLAYER
 70
0
 71
3
 72
16
 73
12
 74
0
 42
0.0000001
 43
0.0000001
 44
0.0000000001
 40
0.0
 40
0.0
 40
0.0
 40
0.0
 40
0.0376179084
 40
0.0705472803
 40
0.1130562689
 40
0.1643647481
 40
0.2234871637
 40
0.3608532565
 40
0.5162423817
 40
0.6805170834
 40
1.0
 40
1.0
 40
1.0
 40
1.0
 10
18.9635926753
 20
15.8755664398
 30
0.0
 10
18.9635926753
 20
15.8903527046
 30
0.0
 10
18.9331439471
 20
15.9093073635
 30
0.0
 10
18.8933757606
 20
15.9219511073
 30
0.0
 10
18.8439062922
 20
15.9335244372
 30
0.0
 10
18.7848908837
 20
15.9432414047
 30
0.0
 10
18.688146283
 20
15.955757121
 30
0.0
 10
18.5504508013
 20
15.9682820251
 30
0.0
 10
18.3712416619
 20
15.9811507046
 30
0.0
 10
18.120580552
 20
15.9976884006
 30
0.0
 10
17.9309360575
 20
16.0123451417
 30
0.0
 10
17.806065503
 20
16.0256502969
 30
0.0
  0
SPLINE
  5
3F9
100
AcDbEntity
  8
0
100
AcDbSpline
 62
7
  6
BYLAYER
 70
0
 71
3
 72
13
 73
9
 74
0
 42
0.0000001
 43
0.0000001
 44
0.0000000001
 40
0.0
 40
0.0
 40
0.0
 40
0.0
 40
0.386534793
 40
0.5491543532
 40
0.6888111394
 40
0.8038874944
 40
0.8933349976
 40
1.0
 40
1.0
 40
1.0
 40
1.0
 10
17.806065503
 20
16.0256502969
 30
0.0
 10
17.6928388717
 20
16.0377147736
 30
0.0
 10
17.532328499
 20
16.0583556449
 30
0.0
 10
17.3327174499
 20
16.0963352257
 30
0.0
 10
17.2136231797
 20
16.1250484448
 30
0.0
 10
17.1157047824
 20
16.1569813838
 30
0.0
 10
17.0355640994
 20
16.1919685683
 30
0.0
 10
16.9794582753
 20
16.2365058772
 30
0.0
 10
16.9794582753
 20
16.2679278448
 30
0.0
  0
SPLINE
  5
3FA
100
AcDbEntity
  8
0
100
AcDbSpline
 62
7
  6
BYLAYER
 70
0
 71
3
 72
9
 73
5
 74
0
 42
0.0000001
 43
0.0000001
 44
0.0000000001
 40
0.0
 40
0.0
 40
0.0
 40
0.0
 40
0.5190979683
 40
1.0
 40
1.0
 40
1.0
 40
1.0
 10
18.4637206753
 20
15.6415506203
 30
0.0
 10
18.2200872832
 20
15.6415531529
 30
0.0
 10
17.7507069043
 20
15.6516526982
 30
0.0
 10
17.2823575611
 20
15.6917262217
 30
0.0
 10
17.0589318753
 20
15.7237323732
 30
0.0
  0
SPLINE
  5
3FB
100
AcDbEntity
  8
0
100
AcDbSpline
 62
7
  6
BYLAYER
 70
0
 71
3
 72
16
 73
12
 74
0
 42
0.0000001
 43
0.0000001
 44
0.0000000001
 40
0.0
 40
0.0
 40
0.0
 40
0.0
 40
0.0462789844
 40
0.0775842197
 40
0.1154401778
 40
0.2110010795
 40
0.3316272269
 40
0.4744183938
 40
0.6360169434
 40
0.8125959519
 40
1.0
 40
1.0
 40
1.0
 40
1.0
 10
19.9588214753
 20
15.8991455705
 30
0.0
 10
19.9588214753
 20
15.8837322661
 30
0.0
 10
19.9441719023
 20
15.8589305762
 30
0.0
 10
19.9151138246
 20
15.8343319147
 30
0.0
 10
19.8684758305
 20
15.8048136707
 30
0.0
 10
19.7902855602
 20
15.7717064165
 30
0.0
 10
19.6756675789
 20
15.7372110084
 30
0.0
 10
19.5371126375
 20
15.7075811054
 30
0.0
 10
19.3785578092
 20
15.684236636
 30
0.0
 10
19.2043562709
 20
15.6666423525
 30
0.0
 10
19.0833839784
 20
15.6585138471
 30
0.0
 10
19.0210613347
 20
15.655114597
 30
0.0
  0
SPLINE
  5
3FC
100
AcDbEntity
  8
0
100
AcDbSpline
 62
7
  6
BYLAYER
 70
0
 71
3
 72
9
 73
5
 74
0
 42
0.0000001
 43
0.0000001
 44
0.0000000001
 40
0.0
 40
0.0
 40
0.0
 40
0.0
 40
0.2482964103
 40
1.0
 40
1.0
 40
1.0
 40
1.0
 10
19.0210613347
 20
15.655114597
 30
0.0
 10
18.9749841382
 20
15.6526014188
 30
0.0
 10
18.7893149837
 20
15.644235426
 30
0.0
 10
18.6034241688
 20
15.6415506203
 30
0.0
 10
18.4637206753
 20
15.6415506203
 30
0.0
  0
SPLINE
  5
3FD
100
AcDbEntity
  8
0
100
AcDbSpline
 62
7
  6
BYLAYER
 70
0
 71
3
 72
15
 73
11
 74
0
 42
0.0000001
 43
0.0000001
 44
0.0000000001
 40
0.0
 40
0.0
 40
0.0
 40
0.0
 40
0.2889601698
 40
0.4389965574
 40
0.5941806004
 40
0.7414296913
 40
0.8662579459
 40
0.9548872677
 40
0.9824255555
 40
1.0
 40
1.0
 40
1.0
 40
1.0
 10
18.5495158753
 20
16.3562264474
 30
0.0
 10
18.4929449518
 20
16.3562264474
 30
0.0
 10
18.4069785286
 20
16.3558982284
 30
0.0
 10
18.2907521799
 20
16.3505043066
 30
0.0
 10
18.2024476531
 20
16.3435278439
 30
0.0
 10
18.1192663651
 20
16.3339229552
 30
0.0
 10
18.0497606348
 20
16.3222212135
 30
0.0
 10
18.0037009492
 20
16.309845241
 30
0.0
 10
17.9804549184
 20
16.2980244095
 30
0.0
 10
17.9746854753
 20
16.2899158257
 30
0.0
 10
17.9746854753
 20
16.2864752042
 30
0.0
  0
SPLINE
  5
3FE
100
AcDbEntity
  8
0
100
AcDbSpline
 62
7
  6
BYLAYER
 70
0
 71
3
 72
9
 73
5
 74
0
 42
0.0000001
 43
0.0000001
 44
0.0000000001
 40
0.0
 40
0.0
 40
0.0
 40
0.0
 40
0.2397856831
 40
1.0
 40
1.0
 40
1.0
 40
1.0
 10
19.7818118753
 20
16.2803587041
 30
0.0
 10
19.6835587201
 20
16.2897083511
 30
0.0
 10
19.2738729329
 20
16.3285032985
 30
0.0
 10
18.8624239428
 20
16.3562264474
 30
0.0
 10
18.5495158753
 20
16.3562264474
 30
0.0
  0
SPLINE
  5
3FF
100
AcDbEntity
  8
0
100
AcDbSpline
 62
7
  6
BYLAYER
 70
0
 71
3
 72
25
 73
21
 74
0
 42
0.0000001
 43
0.0000001
 44
0.0000000001
 40
0.0
 40
0.0
 40
0.0
 40
0.0
 40
0.1907784836
 40
0.3799754844
 40
0.4709494379
 40
0.5578338234
 40
0.6393503526
 40
0.714220972
 40
0.7813024029
 40
0.8399892956
 40
0.8898112995
 40
0.9302994209
 40
0.9469170589
 40
0.9611432662
 40
0.9730372199
 40
0.9826593181
 40
0.9900725533
 40
0.995346536
 40
0.9985739141
 40
1.0
 40
1.0
 40
1.0
 40
1.0
 10
49.7181130243
 20
55.9162301364
 30
0.0
 10
50.2334935047
 20
55.9958163494
 30
0.0
 10
51.2596974144
 20
56.1561782482
 30
0.0
 10
52.5308188192
 20
56.3598524043
 30
0.0
 10
53.5209229084
 20
56.5222844905
 30
0.0
 10
54.2202544339
 20
56.6389561395
 30
0.0
 10
54.8758295763
 20
56.7503940295
 30
0.0
 10
55.4776622828
 20
56.8549583928
 30
0.0
 10
56.0175695065
 20
56.9513508755
 30
0.0
 10
56.4895920913
 20
57.0383737549
 30
0.0
 10
56.8895740447
 20
57.1151331373
 30
0.0
 10
57.1760797761
 20
57.1730554853
 30
0.0
 10
57.366681628
 20
57.2141208546
 30
0.0
 10
57.4806411892
 20
57.2399627387
 30
0.0
 10
57.5755498445
 20
57.2628385447
 30
0.0
 10
57.6522315767
 20
57.283048302
 30
0.0
 10
57.7102842897
 20
57.2998788702
 30
0.0
 10
57.7524527278
 20
57.3150126888
 30
0.0
 10
57.7752543401
 20
57.3247931521
 30
0.0
 10
57.7877989032
 20
57.334686531
 30
0.0
 10
57.7872153138
 20
57.3385407771
 30
0.0
  0
SPLINE
  5
400
100
AcDbEntity
  8
0
100
AcDbSpline
 62
7
  6
BYLAYER
 70
0
 71
3
 72
13
 73
9
 74
0
 42
0.0000001
 43
0.0000001
 44
0.0000000001
 40
0.0
 40
0.0
 40
0.0
 40
0.0
 40
0.0814385569
 40
0.1810430516
 40
0.2968841606
 40
0.4258591222
 40
0.7088468653
 40
1.0
 40
1.0
 40
1.0
 40
1.0
 10
54.2757524941
 20
63.1437502841
 30
0.0
 10
54.1437903181
 20
62.9855286176
 30
0.0
 10
53.8401235876
 20
62.6424123524
 30
0.0
 10
53.3238215254
 20
62.0968294278
 30
0.0
 10
52.7090719798
 20
61.4792069926
 30
0.0
 10
51.7491628541
 20
60.5509316671
 30
0.0
 10
50.44099263
 20
59.345243159
 30
0.0
 10
49.3508728311
 20
58.3851823149
 30
0.0
 10
48.7932520019
 20
57.9039227471
 30
0.0
  0
SPLINE
  5
401
100
AcDbEntity
  8
0
100
AcDbSpline
 62
7
  6
BYLAYER
 70
0
 71
3
 72
15
 73
11
 74
0
 42
0.0000001
 43
0.0000001
 44
0.0000000001
 40
0.0
 40
0.0
 40
0.0
 40
0.0
 40
0.3598448454
 40
0.528807314
 40
0.677991705
 40
0.7996297443
 40
0.8920796947
 40
0.9277859593
 40
0.9569910716
 40
1.0
 40
1.0
 40
1.0
 40
1.0
 10
21.8467750753
 20
16.1050440868
 30
0.0
 10
21.7436674085
 20
16.1050440868
 30
0.0
 10
21.5920414728
 20
16.1007523133
 30
0.0
 10
21.3984832251
 20
16.0837061493
 30
0.0
 10
21.2736185571
 20
16.0657788446
 30
0.0
 10
21.1722805217
 20
16.0412822739
 30
0.0
 10
21.1051225488
 20
16.0154532899
 30
0.0
 10
21.0664877665
 20
15.9916616208
 30
0.0
 10
21.0430831539
 20
15.9718226577
 30
0.0
 10
21.0317174753
 20
15.9518200795
 30
0.0
 10
21.0317174753
 20
15.9394965731
 30
0.0
  0
SPLINE
  5
402
100
AcDbEntity
  8
0
100
AcDbSpline
 62
7
  6
BYLAYER
 70
0
 71
3
 72
9
 73
5
 74
0
 42
0.0000001
 43
0.0000001
 44
0.0000000001
 40
0.0
 40
0.0
 40
0.0
 40
0.0
 40
0.2443733087
 40
1.0
 40
1.0
 40
1.0
 40
1.0
 10
22.5195926753
 20
16.0661728318
 30
0.0
 10
22.4650655137
 20
16.0726975814
 30
0.0
 10
22.2415175668
 20
16.0958481755
 30
0.0
 10
22.0165813041
 20
16.1050440868
 30
0.0
 10
21.8467750753
 20
16.1050440867
 30
0.0
  0
SPLINE
  5
403
100
AcDbEntity
  8
0
100
AcDbSpline
 62
7
  6
BYLAYER
 70
0
 71
3
 72
9
 73
5
 74
0
 42
0.0000001
 43
0.0000001
 44
0.0000000001
 40
0.0
 40
0.0
 40
0.0
 40
0.0
 40
0.2507439233
 40
1.0
 40
1.0
 40
1.0
 40
1.0
 10
21.6706678753
 20
15.6418463601
 30
0.0
 10
21.6142911118
 20
15.6418463601
 30
0.0
 10
21.3894691453
 20
15.6437684437
 30
0.0
 10
21.1646149755
 20
15.6530530822
 30
0.0
 10
20.9966974382
 20
15.6665767866
 30
0.0
  0
SPLINE
  5
404
100
AcDbEntity
  8
0
100
AcDbSpline
 62
7
  6
BYLAYER
 70
0
 71
3
 72
12
 73
8
 74
0
 42
0.0000001
 43
0.0000001
 44
0.0000000001
 40
0.0
 40
0.0
 40
0.0
 40
0.0
 40
0.3825533446
 40
0.6832089375
 40
0.7973136658
 40
0.8869200134
 40
1.0
 40
1.0
 40
1.0
 40
1.0
 10
20.9966974382
 20
15.6665767866
 30
0.0
 10
20.8795180417
 20
15.6760141541
 30
0.0
 10
20.6704180882
 20
15.6985518957
 30
0.0
 10
20.4304194003
 20
15.7490723928
 30
0.0
 10
20.2842397728
 20
15.8057272188
 30
0.0
 10
20.2012061193
 20
15.8504648733
 30
0.0
 10
20.1489254753
 20
15.9033658747
 30
0.0
 10
20.1489254753
 20
15.9381154054
 30
0.0
  0
SPLINE
  5
405
100
AcDbEntity
  8
0
100
AcDbSpline
 62
7
  6
BYLAYER
 70
0
 71
3
 72
11
 73
7
 74
0
 42
0.0000001
 43
0.0000001
 44
0.0000000001
 40
0.0
 40
0.0
 40
0.0
 40
0.0
 40
0.2713078169
 40
0.5345531533
 40
0.7803082308
 40
1.0
 40
1.0
 40
1.0
 40
1.0
 10
48.7931545129
 20
57.9039096348
 30
0.0
 10
48.5739640922
 20
58.6778514522
 30
0.0
 10
48.1086336513
 20
60.1935538543
 30
0.0
 10
47.3224799141
 20
62.3704084212
 30
0.0
 10
46.4891107667
 20
64.3643972225
 30
0.0
 10
45.8903483892
 20
65.609090984
 30
0.0
 10
45.5827655146
 20
66.1832411563
 30
0.0
  0
SPLINE
  5
406
100
AcDbEntity
  8
0
100
AcDbSpline
 62
7
  6
BYLAYER
 70
0
 71
3
 72
11
 73
7
 74
0
 42
0.0000001
 43
0.0000001
 44
0.0000000001
 40
0.0
 40
0.0
 40
0.0
 40
0.0
 40
0.2196924165
 40
0.4654478566
 40
0.7286922426
 40
1.0
 40
1.0
 40
1.0
 40
1.0
 10
20.3760839005
 20
66.183241558
 30
0.0
 10
20.0685144776
 20
65.6091025818
 30
0.0
 10
19.4697745834
 20
64.3644392312
 30
0.0
 10
18.6363566762
 20
62.3705331214
 30
0.0
 10
17.8503935248
 20
60.1936804057
 30
0.0
 10
17.3849724869
 20
58.6780593014
 30
0.0
 10
17.1657272697
 20
57.9041564723
 30
0.0
  0
SPLINE
  5
407
100
AcDbEntity
  8
0
100
AcDbSpline
 62
7
  6
BYLAYER
 70
0
 71
3
 72
13
 73
9
 74
0
 42
0.0000001
 43
0.0000001
 44
0.0000000001
 40
0.0
 40
0.0
 40
0.0
 40
0.0
 40
0.0772113348
 40
0.1723768973
 40
0.2844906119
 40
0.411269344
 40
0.6967605694
 40
1.0
 40
1.0
 40
1.0
 40
1.0
 10
11.682931397
 20
63.1435668189
 30
0.0
 10
11.8080604105
 20
62.9935724493
 30
0.0
 10
12.0967462117
 20
62.6665061268
 30
0.0
 10
12.5905275251
 20
62.14278466
 30
0.0
 10
13.1855862064
 20
61.5425620904
 30
0.0
 10
14.1376466741
 20
60.6186216797
 30
0.0
 10
15.4675063025
 20
59.3901847005
 30
0.0
 10
16.5849930761
 20
58.4053368699
 30
0.0
 10
17.1657858087
 20
57.904130301
 30
0.0
  0
SPLINE
  5
408
100
AcDbEntity
  8
0
100
AcDbSpline
 62
7
  6
BYLAYER
 70
0
 71
3
 72
9
 73
5
 74
0
 42
0.0000001
 43
0.0000001
 44
0.0000000001
 40
0.0
 40
0.0
 40
0.0
 40
0.0
 40
0.5731239631
 40
1.0
 40
1.0
 40
1.0
 40
1.0
 10
24.2788534753
 20
16.1053398265
 30
0.0
 10
24.1717206399
 20
16.1053398265
 30
0.0
 10
23.9846128407
 20
16.0873134517
 30
0.0
 10
23.8021512396
 20
16.0436074599
 30
0.0
 10
23.7266006753
 20
16.017929492
 30
0.0
  0
SPLINE
  5
409
100
AcDbEntity
  8
0
100
AcDbSpline
 62
7
  6
BYLAYER
 70
0
 71
3
 72
14
 73
10
 74
0
 42
0.0000001
 43
0.0000001
 44
0.0000000001
 40
0.0
 40
0.0
 40
0.0
 40
0.0
 40
0.0445260831
 40
0.0946240537
 40
0.1695768956
 40
0.2837114863
 40
0.4321950297
 40
0.6068384573
 40
1.0
 40
1.0
 40
1.0
 40
1.0
 10
24.7060246753
 20
15.9794529064
 30
0.0
 10
24.7060246753
 20
15.9864691493
 30
0.0
 10
24.7057396698
 20
16.001661619
 30
0.0
 10
24.6920047195
 20
16.0260432904
 30
0.0
 10
24.6587562936
 20
16.0458421526
 30
0.0
 10
24.6088429857
 20
16.0638638411
 30
0.0
 10
24.5417676496
 20
16.0804544168
 30
0.0
 10
24.4304508843
 20
16.0991678826
 30
0.0
 10
24.3408063056
 20
16.1053398265
 30
0.0
 10
24.2788534753
 20
16.1053398265
 30
0.0
  0
SPLINE
  5
40A
100
AcDbEntity
  8
0
100
AcDbSpline
 62
7
  6
BYLAYER
 70
0
 71
3
 72
11
 73
7
 74
0
 42
0.0000001
 43
0.0000001
 44
0.0000000001
 40
0.0
 40
0.0
 40
0.0
 40
0.0
 40
0.2557184064
 40
0.5087444701
 40
0.756462807
 40
1.0
 40
1.0
 40
1.0
 40
1.0
 10
49.7180855851
 20
55.9162248009
 30
0.0
 10
49.68736538
 20
56.1030559393
 30
0.0
 10
49.6020399497
 20
56.4712250778
 30
0.0
 10
49.4046446283
 20
56.9971815619
 30
0.0
 10
49.1389561608
 20
57.4822098839
 30
0.0
 10
48.9151675758
 20
57.7714267069
 30
0.0
 10
48.793002061
 20
57.9040582588
 30
0.0
  0
SPLINE
  5
40B
100
AcDbEntity
  8
0
100
AcDbSpline
 62
7
  6
BYLAYER
 70
0
 71
3
 72
9
 73
5
 74
0
 42
0.0000001
 43
0.0000001
 44
0.0000000001
 40
0.0
 40
0.0
 40
0.0
 40
0.0
 40
0.2502986943
 40
1.0
 40
1.0
 40
1.0
 40
1.0
 10
13.4833783125
 20
70.4510287188
 30
0.0
 10
13.3244448852
 20
70.28051335
 30
0.0
 10
12.7050814411
 20
69.5847874587
 30
0.0
 10
12.1468333597
 20
68.8353868872
 30
0.0
 10
11.762087213
 20
68.2527777724
 30
0.0
  0
SPLINE
  5
40C
100
AcDbEntity
  8
0
100
AcDbSpline
 62
7
  6
BYLAYER
 70
0
 71
3
 72
9
 73
5
 74
0
 42
0.0000001
 43
0.0000001
 44
0.0000000001
 40
0.0
 40
0.0
 40
0.0
 40
0.0
 40
0.2502320885
 40
1.0
 40
1.0
 40
1.0
 40
1.0
 10
11.0965685268
 20
67.166819608
 30
0.0
 10
10.9347341793
 20
66.8820343006
 30
0.0
 10
10.3165144651
 20
65.7279069706
 30
0.0
 10
9.8096310994
 20
64.5147127775
 30
0.0
 10
9.4929769075
 20
63.5857453288
 30
0.0
  0
SPLINE
  5
40D
100
AcDbEntity
  8
0
100
AcDbSpline
 62
7
  6
BYLAYER
 70
0
 71
3
 72
11
 73
7
 74
0
 42
0.0000001
 43
0.0000001
 44
0.0000000001
 40
0.0
 40
0.0
 40
0.0
 40
0.0
 40
0.378832352
 40
0.6562940447
 40
0.8525619831
 40
1.0
 40
1.0
 40
1.0
 40
1.0
 10
23.3314902753
 20
14.9928768529
 30
0.0
 10
23.2858516022
 20
15.0028635434
 30
0.0
 10
23.2073554896
 20
15.0239797825
 30
0.0
 10
23.1114142446
 20
15.0682331179
 30
0.0
 10
23.0511419979
 20
15.1183694652
 30
0.0
 10
23.0353233673
 20
15.1608216603
 30
0.0
 10
23.0353232614
 20
15.1790040822
 30
0.0
  0
SPLINE
  5
40E
100
AcDbEntity
  8
0
100
AcDbSpline
 62
7
  6
BYLAYER
 70
0
 71
3
 72
9
 73
5
 74
0
 42
0.0000001
 43
0.0000001
 44
0.0000000001
 40
0.0
 40
0.0
 40
0.0
 40
0.0
 40
0.2336136509
 40
1.0
 40
1.0
 40
1.0
 40
1.0
 10
25.4544397884
 20
15.0070007978
 30
0.0
 10
25.4202416831
 20
15.0025179711
 30
0.0
 10
25.2737216297
 20
14.9843431825
 30
0.0
 10
25.1267136992
 20
14.9702011295
 30
0.0
 10
25.0139286323
 20
14.9611319637
 30
0.0
  0
SPLINE
  5
40F
100
AcDbEntity
  8
0
100
AcDbSpline
 62
7
  6
BYLAYER
 70
0
 71
3
 72
9
 73
5
 74
0
 42
0.0000001
 43
0.0000001
 44
0.0000000001
 40
0.0
 40
0.0
 40
0.0
 40
0.0
 40
0.2683332991
 40
1.0
 40
1.0
 40
1.0
 40
1.0
 10
24.0522778718
 20
14.9277208369
 30
0.0
 10
24.0041842013
 20
14.9285174834
 30
0.0
 10
23.8250176426
 20
14.9332742773
 30
0.0
 10
23.6458121278
 20
14.9451138998
 30
0.0
 10
23.5157279412
 20
14.9618425146
 30
0.0
  0
SPLINE
  5
410
100
AcDbEntity
  8
0
100
AcDbSpline
 62
7
  6
BYLAYER
 70
0
 71
3
 72
9
 73
5
 74
0
 42
0.0000001
 43
0.0000001
 44
0.0000000001
 40
0.0
 40
0.0
 40
0.0
 40
0.0
 40
0.2652234556
 40
1.0
 40
1.0
 40
1.0
 40
1.0
 10
23.5157279412
 20
14.9618425146
 30
0.0
 10
23.4993426559
 20
14.9639496357
 30
0.0
 10
23.4376367853
 20
14.9724238282
 30
0.0
 10
23.3762048385
 20
14.9831151887
 30
0.0
 10
23.3314902753
 20
14.9928768529
 30
0.0
  0
SPLINE
  5
411
100
AcDbEntity
  8
0
100
AcDbSpline
 62
7
  6
BYLAYER
 70
0
 71
3
 72
9
 73
5
 74
0
 42
0.0000001
 43
0.0000001
 44
0.0000000001
 40
0.0
 40
0.0
 40
0.0
 40
0.0
 40
0.2279550617
 40
1.0
 40
1.0
 40
1.0
 40
1.0
 10
26.7470550753
 20
15.341729901
 30
0.0
 10
26.736728587
 20
15.335704415
 30
0.0
 10
26.6905267438
 20
15.3108150463
 30
0.0
 10
26.6422373628
 20
15.2901093271
 30
0.0
 10
26.6048150753
 20
15.2746427629
 30
0.0
  0
SPLINE
  5
412
100
AcDbEntity
  8
0
100
AcDbSpline
 62
7
  6
BYLAYER
 70
0
 71
3
 72
10
 73
6
 74
0
 42
0.0000001
 43
0.0000001
 44
0.0000000001
 40
0.0
 40
0.0
 40
0.0
 40
0.0
 40
0.2669686382
 40
0.5250201986
 40
1.0
 40
1.0
 40
1.0
 40
1.0
 10
21.4406791481
 20
71.6315098712
 30
0.0
 10
20.7218417226
 20
71.7258136836
 30
0.0
 10
19.2931270909
 20
71.8199706852
 30
0.0
 10
16.5815690721
 20
71.628149521
 30
0.0
 10
14.6245788232
 20
71.0523116595
 30
0.0
 10
13.4833716133
 20
70.451104826
 30
0.0
  0
SPLINE
  5
413
100
AcDbEntity
  8
0
100
AcDbSpline
 62
7
  6
BYLAYER
 70
0
 71
3
 72
11
 73
7
 74
0
 42
0.0000001
 43
0.0000001
 44
0.0000000001
 40
0.0
 40
0.0
 40
0.0
 40
0.0
 40
0.2369498422
 40
0.4853794032
 40
0.7412684027
 40
1.0
 40
1.0
 40
1.0
 40
1.0
 10
11.6830207416
 20
63.1437039491
 30
0.0
 10
12.2672015541
 20
63.5935221203
 30
0.0
 10
13.5519741191
 20
64.4037238897
 30
0.0
 10
15.6773215082
 20
65.3196675883
 30
0.0
 10
17.9773946879
 20
65.9400224766
 30
0.0
 10
19.5723833997
 20
66.1364386442
 30
0.0
 10
20.3760838716
 20
66.1833955565
 30
0.0
  0
SPLINE
  5
414
100
AcDbEntity
  8
0
100
AcDbSpline
 62
7
  6
BYLAYER
 70
0
 71
3
 72
11
 73
7
 74
0
 42
0.0000001
 43
0.0000001
 44
0.0000000001
 40
0.0
 40
0.0
 40
0.0
 40
0.0
 40
0.244831462
 40
0.4913809279
 40
0.7424184698
 40
1.0
 40
1.0
 40
1.0
 40
1.0
 10
8.171636993
 20
57.3385402223
 30
0.0
 10
8.2564919352
 20
57.8989213791
 30
0.0
 10
8.538668404
 20
59.0098849059
 30
0.0
 10
9.2852661423
 20
60.5697245737
 30
0.0
 10
10.3369617943
 20
61.9793234611
 30
0.0
 10
11.2107094421
 20
62.7797291209
 30
0.0
 10
11.6830207416
 20
63.1437039491
 30
0.0
  0
SPLINE
  5
415
100
AcDbEntity
  8
0
100
AcDbSpline
 62
7
  6
BYLAYER
 70
0
 71
3
 72
18
 73
14
 74
0
 42
0.0000001
 43
0.0000001
 44
0.0000000001
 40
0.0
 40
0.0
 40
0.0
 40
0.0
 40
0.0625019836
 40
0.093775054
 40
0.1250358266
 40
0.1875312725
 40
0.2500307688
 40
0.3125364934
 40
0.3750375062
 40
0.5000347071
 40
0.6250304816
 40
0.7500231232
 40
1.0
 40
1.0
 40
1.0
 40
1.0
 10
50.8964394736
 20
46.3357499726
 30
0.0
 10
50.8963983618
 20
46.536955346
 30
0.0
 10
50.8807850618
 20
46.8387579024
 30
0.0
 10
50.8494639779
 20
47.2400003969
 30
0.0
 10
50.817235897
 20
47.6412126669
 30
0.0
 10
50.7736325911
 20
48.1423419843
 30
0.0
 10
50.7131492572
 20
48.7429207959
 30
0.0
 10
50.6468790951
 20
49.3428933196
 30
0.0
 10
50.5537577788
 20
50.1423006853
 30
0.0
 10
50.4283181964
 20
51.1404480553
 30
0.0
 10
50.2657367586
 20
52.3366143909
 30
0.0
 10
50.0353733543
 20
53.9295356698
 30
0.0
 10
49.8486785132
 20
55.122170592
 30
0.0
 10
49.7181131418
 20
55.9162294217
 30
0.0
  0
SPLINE
  5
416
100
AcDbEntity
  8
0
100
AcDbSpline
 62
7
  6
BYLAYER
 70
0
 71
3
 72
11
 73
7
 74
0
 42
0.0000001
 43
0.0000001
 44
0.0000000001
 40
0.0
 40
0.0
 40
0.0
 40
0.0
 40
0.2974708658
 40
0.5768588485
 40
0.8177194791
 40
1.0
 40
1.0
 40
1.0
 40
1.0
 10
31.5701206753
 20
15.0519727243
 30
0.0
 10
31.5034115328
 20
15.0519727243
 30
0.0
 10
31.374011782
 20
15.0583289165
 30
0.0
 10
31.1919628683
 20
15.082530991
 30
0.0
 10
31.0381980665
 20
15.1169274643
 30
0.0
 10
30.9477040672
 20
15.1476652117
 30
0.0
 10
30.9112954387
 20
15.1662490104
 30
0.0
  0
SPLINE
  5
417
100
AcDbEntity
  8
0
100
AcDbSpline
 62
7
  6
BYLAYER
 70
0
 71
3
 72
9
 73
5
 74
0
 42
0.0000001
 43
0.0000001
 44
0.0000000001
 40
0.0
 40
0.0
 40
0.0
 40
0.0
 40
0.6164341771
 40
1.0
 40
1.0
 40
1.0
 40
1.0
 10
30.9112954387
 20
15.1662490104
 30
0.0
 10
30.8953576831
 20
15.1743840063
 30
0.0
 10
30.8703672505
 20
15.1880167917
 30
0.0
 10
30.8507926753
 20
15.2142784213
 30
0.0
 10
30.8507926753
 20
15.2254125752
 30
0.0
  0
SPLINE
  5
418
100
AcDbEntity
  8
0
100
AcDbSpline
 62
7
  6
BYLAYER
 70
0
 71
3
 72
9
 73
5
 74
0
 42
0.0000001
 43
0.0000001
 44
0.0000000001
 40
0.0
 40
0.0
 40
0.0
 40
0.0
 40
0.2453929203
 40
1.0
 40
1.0
 40
1.0
 40
1.0
 10
32.1657222753
 20
15.0903503805
 30
0.0
 10
32.1334761717
 20
15.0860099952
 30
0.0
 10
32.0018571431
 20
15.0699272261
 30
0.0
 10
31.8694817878
 20
15.0601680753
 30
0.0
 10
31.7695129632
 20
15.0560370181
 30
0.0
  0
SPLINE
  5
419
100
AcDbEntity
  8
0
100
AcDbSpline
 62
7
  6
BYLAYER
 70
0
 71
3
 72
21
 73
17
 74
0
 42
0.0000001
 43
0.0000001
 44
0.0000000001
 40
0.0
 40
0.0
 40
0.0
 40
0.0
 40
0.0475781212
 40
0.0917741383
 40
0.1327715412
 40
0.1720687055
 40
0.2126486997
 40
0.2580057073
 40
0.3104198077
 40
0.370743884
 40
0.4381093055
 40
0.5111180988
 40
0.6681320578
 40
0.7499132124
 40
0.8328851346
 40
1.0
 40
1.0
 40
1.0
 40
1.0
 10
18.9794262753
 20
77.6671857823
 30
0.0
 10
18.9794262753
 20
77.7522607795
 30
0.0
 10
18.9697570621
 20
77.9166744173
 30
0.0
 10
18.9179409621
 20
78.1497279864
 30
0.0
 10
18.8223507878
 20
78.353418772
 30
0.0
 10
18.6754144449
 20
78.517119873
 30
0.0
 10
18.4743366213
 20
78.6251919391
 30
0.0
 10
18.2274407937
 20
78.6688188561
 30
0.0
 10
17.9433738098
 20
78.6481097406
 30
0.0
 10
17.630686714
 20
78.5659321267
 30
0.0
 10
17.2975081198
 20
78.4305967782
 30
0.0
 10
16.8271247002
 20
78.1811221008
 30
0.0
 10
16.3684462995
 20
77.8604731205
 30
0.0
 10
15.9256949416
 20
77.4929221937
 30
0.0
 10
15.4857186054
 20
77.0946462972
 30
0.0
 10
15.1728403626
 20
76.7735135295
 30
0.0
 10
14.9794262753
 20
76.5457320224
 30
0.0
  0
SPLINE
  5
41A
100
AcDbEntity
  8
0
100
AcDbSpline
 62
7
  6
BYLAYER
 70
0
 71
3
 72
14
 73
10
 74
0
 42
0.0000001
 43
0.0000001
 44
0.0000000001
 40
0.0
 40
0.0
 40
0.0
 40
0.0
 40
0.0821972619
 40
0.1730393165
 40
0.2777243335
 40
0.3982276275
 40
0.5337253203
 40
0.6817667319
 40
1.0
 40
1.0
 40
1.0
 40
1.0
 10
49.9794262753
 20
40.7556229536
 30
0.0
 10
49.9794262753
 20
40.8052946753
 30
0.0
 10
49.9573436394
 20
40.910627787
 30
0.0
 10
49.8658656957
 20
41.0544467335
 30
0.0
 10
49.7228664361
 20
41.1835874858
 30
0.0
 10
49.5344812612
 20
41.2952984996
 30
0.0
 10
49.3072416584
 20
41.386773446
 30
0.0
 10
48.9548880146
 20
41.4792375391
 30
0.0
 10
48.6717343153
 20
41.5056229536
 30
0.0
 10
48.4794262753
 20
41.5056229536
 30
0.0
  0
SPLINE
  5
41B
100
AcDbEntity
  8
0
100
AcDbSpline
 62
7
  6
BYLAYER
 70
0
 71
3
 72
10
 73
6
 74
0
 42
0.0000001
 43
0.0000001
 44
0.0000000001
 40
0.0
 40
0.0
 40
0.0
 40
0.0
 40
0.5379927232
 40
0.7858445241
 40
1.0
 40
1.0
 40
1.0
 40
1.0
 10
33.7005590753
 20
15.0519727243
 30
0.0
 10
33.6002185584
 20
15.0519727243
 30
0.0
 10
33.453513997
 20
15.057343182
 30
0.0
 10
33.2679949679
 20
15.0769016782
 30
0.0
 10
33.1829091751
 20
15.0913468135
 30
0.0
 10
33.1439898596
 20
15.1003270791
 30
0.0
  0
SPLINE
  5
41C
100
AcDbEntity
  8
0
100
AcDbSpline
 62
7
  6
BYLAYER
 70
0
 71
3
 72
10
 73
6
 74
0
 42
0.0000001
 43
0.0000001
 44
0.0000000001
 40
0.0
 40
0.0
 40
0.0
 40
0.0
 40
0.3783825027
 40
0.6660781265
 40
1.0
 40
1.0
 40
1.0
 40
1.0
 10
33.1439898596
 20
15.1003270791
 30
0.0
 10
33.1150751021
 20
15.1069988871
 30
0.0
 10
33.0637188443
 20
15.1215918728
 30
0.0
 10
32.9947542025
 20
15.1504699049
 30
0.0
 10
32.9473654753
 20
15.1880766071
 30
0.0
 10
32.9473654753
 20
15.2142643037
 30
0.0
  0
SPLINE
  5
41D
100
AcDbEntity
  8
0
100
AcDbSpline
 62
7
  6
BYLAYER
 70
0
 71
3
 72
14
 73
10
 74
0
 42
0.0000001
 43
0.0000001
 44
0.0000000001
 40
0.0
 40
0.0
 40
0.0
 40
0.0
 40
0.082252906
 40
0.1730351185
 40
0.2777279984
 40
0.3982339423
 40
0.5337022542
 40
0.6817695833
 40
1.0
 40
1.0
 40
1.0
 40
1.0
 10
46.9794903201
 20
42.8357499726
 30
0.0
 10
46.9794903201
 20
42.885455241
 30
0.0
 10
47.001347392
 20
42.990848674
 30
0.0
 10
47.093111349
 20
43.1345267118
 30
0.0
 10
47.2359847169
 20
43.2637008513
 30
0.0
 10
47.4243610412
 20
43.3754439324
 30
0.0
 10
47.6516084236
 20
43.4668827548
 30
0.0
 10
48.0039497542
 20
43.5593782545
 30
0.0
 10
48.2871202638
 20
43.5857499726
 30
0.0
 10
48.4794262753
 20
43.5857499726
 30
0.0
  0
SPLINE
  5
41E
100
AcDbEntity
  8
0
100
AcDbSpline
 62
7
  6
BYLAYER
 70
0
 71
3
 72
12
 73
8
 74
0
 42
0.0000001
 43
0.0000001
 44
0.0000000001
 40
0.0
 40
0.0
 40
0.0
 40
0.0
 40
0.3478473041
 40
0.6558666698
 40
0.8828714616
 40
0.955089445
 40
1.0
 40
1.0
 40
1.0
 40
1.0
 10
33.7005590753
 20
15.3312723882
 30
0.0
 10
33.6447726887
 20
15.3312723882
 30
0.0
 10
33.5393751354
 20
15.3244642088
 30
0.0
 10
33.4001103043
 20
15.3002967595
 30
0.0
 10
33.3056359045
 20
15.2710949241
 30
0.0
 10
33.2580586601
 20
15.2444146776
 30
0.0
 10
33.2453910753
 20
15.2274851522
 30
0.0
 10
33.2453910753
 20
15.2202825735
 30
0.0
  0
SPLINE
  5
41F
100
AcDbEntity
  8
0
100
AcDbSpline
 62
7
  6
BYLAYER
 70
0
 71
3
 72
9
 73
5
 74
0
 42
0.0000001
 43
0.0000001
 44
0.0000000001
 40
0.0
 40
0.0
 40
0.0
 40
0.0
 40
0.2395888331
 40
1.0
 40
1.0
 40
1.0
 40
1.0
 10
34.1114758753
 20
15.2986165629
 30
0.0
 10
34.0789979708
 20
15.3041321835
 30
0.0
 10
33.9428979886
 20
15.3239289244
 30
0.0
 10
33.8051139004
 20
15.3312723882
 30
0.0
 10
33.7005590753
 20
15.3312723882
 30
0.0
  0
SPLINE
  5
420
100
AcDbEntity
  8
0
100
AcDbSpline
 62
7
  6
BYLAYER
 70
0
 71
3
 72
9
 73
5
 74
0
 42
0.0000001
 43
0.0000001
 44
0.0000000001
 40
0.0
 40
0.0
 40
0.0
 40
0.0
 40
0.5208425796
 40
1.0
 40
1.0
 40
1.0
 40
1.0
 10
35.6395398753
 20
15.0519727243
 30
0.0
 10
35.5820516549
 20
15.0519727243
 30
0.0
 10
35.4716673491
 20
15.0584383699
 30
0.0
 10
35.3622509709
 20
15.0745217494
 30
0.0
 10
35.3105339174
 20
15.0855853229
 30
0.0
  0
SPLINE
  5
421
100
AcDbEntity
  8
0
100
AcDbSpline
 62
7
  6
BYLAYER
 70
0
 71
3
 72
10
 73
6
 74
0
 42
0.0000001
 43
0.0000001
 44
0.0000000001
 40
0.0
 40
0.0
 40
0.0
 40
0.0
 40
0.6667580623
 40
0.8763325435
 40
1.0
 40
1.0
 40
1.0
 40
1.0
 10
35.3105339174
 20
15.0855853229
 30
0.0
 10
35.2730750274
 20
15.0935987179
 30
0.0
 10
35.2232621824
 20
15.1067210789
 30
0.0
 10
35.1723722973
 20
15.1305249051
 30
0.0
 10
35.1577302753
 20
15.1469784389
 30
0.0
 10
35.1577302753
 20
15.1540833539
 30
0.0
  0
SPLINE
  5
422
100
AcDbEntity
  8
0
100
AcDbSpline
 62
7
  6
BYLAYER
 70
0
 71
3
 72
9
 73
5
 74
0
 42
0.0000001
 43
0.0000001
 44
0.0000000001
 40
0.0
 40
0.0
 40
0.0
 40
0.0
 40
0.243837443
 40
1.0
 40
1.0
 40
1.0
 40
1.0
 10
35.9980742753
 20
15.0736774381
 30
0.0
 10
35.9690970966
 20
15.0700316761
 30
0.0
 10
35.8500115301
 20
15.0570793348
 30
0.0
 10
35.7301092273
 20
15.0519727243
 30
0.0
 10
35.6395398753
 20
15.0519727243
 30
0.0
  0
SPLINE
  5
423
100
AcDbEntity
  8
0
100
AcDbSpline
 62
7
  6
BYLAYER
 70
0
 71
3
 72
12
 73
8
 74
0
 42
0.0000001
 43
0.0000001
 44
0.0000000001
 40
0.0
 40
0.0
 40
0.0
 40
0.0
 40
0.3591852812
 40
0.6628274452
 40
0.8820688176
 40
0.9530236589
 40
1.0
 40
1.0
 40
1.0
 40
1.0
 10
37.4078310753
 20
15.3288057925
 30
0.0
 10
37.3614473879
 20
15.3288057925
 30
0.0
 10
37.2756325873
 20
15.322845048
 30
0.0
 10
37.1640606126
 20
15.3000474244
 30
0.0
 10
37.0910019714
 20
15.2731510615
 30
0.0
 10
37.0552549334
 20
15.2484669035
 30
0.0
 10
37.0465862753
 20
15.2341426592
 30
0.0
 10
37.0465862753
 20
15.2280763307
 30
0.0
  0
SPLINE
  5
424
100
AcDbEntity
  8
0
100
AcDbSpline
 62
7
  6
BYLAYER
 70
0
 71
3
 72
9
 73
5
 74
0
 42
0.0000001
 43
0.0000001
 44
0.0000000001
 40
0.0
 40
0.0
 40
0.0
 40
0.0
 40
0.227974477
 40
1.0
 40
1.0
 40
1.0
 40
1.0
 10
37.6832790753
 20
15.2960517369
 30
0.0
 10
37.6629237678
 20
15.3016710839
 30
0.0
 10
37.5725508539
 20
15.322410316
 30
0.0
 10
37.4793418963
 20
15.3288057925
 30
0.0
 10
37.4078310753
 20
15.3288057925
 30
0.0
  0
SPLINE
  5
425
100
AcDbEntity
  8
0
100
AcDbSpline
 62
7
  6
BYLAYER
 70
0
 71
3
 72
9
 73
5
 74
0
 42
0.0000001
 43
0.0000001
 44
0.0000000001
 40
0.0
 40
0.0
 40
0.0
 40
0.0
 40
0.521433013
 40
1.0
 40
1.0
 40
1.0
 40
1.0
 10
40.4386710753
 20
15.0519727243
 30
0.0
 10
40.3489773723
 20
15.0519727243
 30
0.0
 10
40.176944279
 20
15.0621178248
 30
0.0
 10
40.0064686824
 20
15.0875218802
 30
0.0
 10
39.9260082305
 20
15.1049208225
 30
0.0
  0
SPLINE
  5
426
100
AcDbEntity
  8
0
100
AcDbSpline
 62
7
  6
BYLAYER
 70
0
 71
3
 72
12
 73
8
 74
0
 42
0.0000001
 43
0.0000001
 44
0.0000000001
 40
0.0
 40
0.0
 40
0.0
 40
0.0
 40
0.3696451653
 40
0.6661720546
 40
0.7825177447
 40
0.8760565459
 40
1.0
 40
1.0
 40
1.0
 40
1.0
 10
39.9260082305
 20
15.1049208225
 30
0.0
 10
39.8931102405
 20
15.1120347551
 30
0.0
 10
39.8341341453
 20
15.1266176626
 30
0.0
 10
39.7665540089
 20
15.1491714839
 30
0.0
 10
39.724735022
 20
15.1695964623
 30
0.0
 10
39.6997648031
 20
15.1855202691
 30
0.0
 10
39.6845734753
 20
15.2029785225
 30
0.0
 10
39.6845734753
 20
15.2142643037
 30
0.0
  0
SPLINE
  5
427
100
AcDbEntity
  8
0
100
AcDbSpline
 62
7
  6
BYLAYER
 70
0
 71
3
 72
20
 73
16
 74
0
 42
0.0000001
 43
0.0000001
 44
0.0000000001
 40
0.0
 40
0.0
 40
0.0
 40
0.0
 40
0.1711301511
 40
0.3388929911
 40
0.4968930227
 40
0.5694047179
 40
0.6356804355
 40
0.6943560987
 40
0.7451896092
 40
0.78922426
 40
0.8290477875
 40
0.8678962119
 40
0.90846678
 40
0.9522992454
 40
1.0
 40
1.0
 40
1.0
 40
1.0
 10
14.695746427
 20
76.8219933375
 30
0.0
 10
14.9348204469
 20
77.0689592998
 30
0.0
 10
15.4319529266
 20
77.5356419353
 30
0.0
 10
16.2198580222
 20
78.1504387631
 30
0.0
 10
16.9061328134
 20
78.5675382941
 30
0.0
 10
17.4515145003
 20
78.8101691293
 30
0.0
 10
17.8295655011
 20
78.933173721
 30
0.0
 10
18.1786859289
 20
78.9951558137
 30
0.0
 10
18.4894277496
 20
78.9917781818
 30
0.0
 10
18.7543930635
 20
78.9210749131
 30
0.0
 10
18.9647294635
 20
78.7841846611
 30
0.0
 10
19.1147442435
 20
78.5925045789
 30
0.0
 10
19.2071876891
 20
78.3600145478
 30
0.0
 10
19.2491529916
 20
78.096461916
 30
0.0
 10
19.2481673042
 20
77.9119265463
 30
0.0
 10
19.2420909113
 20
77.8163089589
 30
0.0
  0
SPLINE
  5
428
100
AcDbEntity
  8
0
100
AcDbSpline
 62
7
  6
BYLAYER
 70
0
 71
3
 72
9
 73
5
 74
0
 42
0.0000001
 43
0.0000001
 44
0.0000000001
 40
0.0
 40
0.0
 40
0.0
 40
0.0
 40
0.2457212291
 40
1.0
 40
1.0
 40
1.0
 40
1.0
 10
19.2420909113
 20
77.8163089589
 30
0.0
 10
19.241100856
 20
77.8007295349
 30
0.0
 10
19.2364593171
 20
77.7373664323
 30
0.0
 10
19.229436289
 20
77.6741831745
 30
0.0
 10
19.2229557423
 20
77.6267035157
 30
0.0
  0
SPLINE
  5
429
100
AcDbEntity
  8
0
100
AcDbSpline
 62
7
  6
BYLAYER
 70
0
 71
3
 72
10
 73
6
 74
0
 42
0.0000001
 43
0.0000001
 44
0.0000000001
 40
0.0
 40
0.0
 40
0.0
 40
0.0
 40
0.4630302809
 40
0.7230172453
 40
1.0
 40
1.0
 40
1.0
 40
1.0
 10
19.2229557423
 20
77.6267035157
 30
0.0
 10
19.1779194881
 20
77.2967458574
 30
0.0
 10
19.0210724636
 20
76.7938086853
 30
0.0
 10
18.7245916419
 20
76.1390853628
 30
0.0
 10
18.5382832627
 20
75.7999566858
 30
0.0
 10
18.4347917501
 20
75.629739544
 30
0.0
  0
SPLINE
  5
42A
100
AcDbEntity
  8
0
100
AcDbSpline
 62
7
  6
BYLAYER
 70
0
 71
3
 72
12
 73
8
 74
0
 42
0.0000001
 43
0.0000001
 44
0.0000000001
 40
0.0
 40
0.0
 40
0.0
 40
0.0
 40
0.3480843699
 40
0.6560162311
 40
0.882858989
 40
0.9550479108
 40
1.0
 40
1.0
 40
1.0
 40
1.0
 10
40.4386710753
 20
15.3312723882
 30
0.0
 10
40.3829972201
 20
15.3312723882
 30
0.0
 10
40.2778591763
 20
15.3244679808
 30
0.0
 10
40.1389825007
 20
15.3002773312
 30
0.0
 10
40.0448398094
 20
15.2710678451
 30
0.0
 10
39.99745085
 20
15.2443758415
 30
0.0
 10
39.9848582753
 20
15.2274723709
 30
0.0
 10
39.9848582753
 20
15.2202825735
 30
0.0
  0
SPLINE
  5
42B
100
AcDbEntity
  8
0
100
AcDbSpline
 62
7
  6
BYLAYER
 70
0
 71
3
 72
9
 73
5
 74
0
 42
0.0000001
 43
0.0000001
 44
0.0000000001
 40
0.0
 40
0.0
 40
0.0
 40
0.0
 40
0.2396322822
 40
1.0
 40
1.0
 40
1.0
 40
1.0
 10
40.8504902753
 20
15.2986165629
 30
0.0
 10
40.8179334396
 20
15.3041318686
 30
0.0
 10
40.6815304249
 20
15.3239254148
 30
0.0
 10
40.5434477293
 20
15.3312723882
 30
0.0
 10
40.4386710753
 20
15.3312723882
 30
0.0
  0
SPLINE
  5
42C
100
AcDbEntity
  8
0
100
AcDbSpline
 62
7
  6
BYLAYER
 70
0
 71
3
 72
12
 73
8
 74
0
 42
0.0000001
 43
0.0000001
 44
0.0000000001
 40
0.0
 40
0.0
 40
0.0
 40
0.0
 40
0.2615907356
 40
0.5621632198
 40
0.8309504924
 40
0.9318155999
 40
1.0
 40
1.0
 40
1.0
 40
1.0
 10
38.8117174753
 20
15.4520293067
 30
0.0
 10
38.7934339924
 20
15.4496651311
 30
0.0
 10
38.7538077372
 20
15.447252483
 30
0.0
 10
38.6952937695
 20
15.4470198299
 30
0.0
 10
38.6479301052
 20
15.4495109787
 30
0.0
 10
38.6175745044
 20
15.454412618
 30
0.0
 10
38.6058772923
 20
15.4576697961
 30
0.0
 10
38.6017430753
 20
15.4601191533
 30
0.0
  0
SPLINE
  5
42D
100
AcDbEntity
  8
0
100
AcDbSpline
 62
7
  6
BYLAYER
 70
0
 71
3
 72
9
 73
5
 74
0
 42
0.0000001
 43
0.0000001
 44
0.0000000001
 40
0.0
 40
0.0
 40
0.0
 40
0.0
 40
0.5000084334
 40
1.0
 40
1.0
 40
1.0
 40
1.0
 10
10.9780792106
 20
70.4465082525
 30
0.0
 10
11.3217282665
 20
71.637241287
 30
0.0
 10
12.3136106861
 20
73.9397423252
 30
0.0
 10
13.8303293311
 20
75.9349258267
 30
0.0
 10
14.6957420293
 20
76.8219980178
 30
0.0
  0
SPLINE
  5
42E
100
AcDbEntity
  8
0
100
AcDbSpline
 62
7
  6
BYLAYER
 70
0
 71
3
 72
11
 73
7
 74
0
 42
0.0000001
 43
0.0000001
 44
0.0000000001
 40
0.0
 40
0.0
 40
0.0
 40
0.0
 40
0.3416587322
 40
0.6247572574
 40
0.8465176982
 40
1.0
 40
1.0
 40
1.0
 40
1.0
 10
40.9037734753
 20
16.0686394275
 30
0.0
 10
40.8232451057
 20
16.0686394275
 30
0.0
 10
40.6757074364
 20
16.0581941854
 30
0.0
 10
40.4801720953
 20
16.0152666431
 30
0.0
 10
40.3342001384
 20
15.9615504497
 30
0.0
 10
40.2553547077
 20
15.920632957
 30
0.0
 10
40.2250854753
 20
15.9008228276
 30
0.0
  0
SPLINE
  5
42F
100
AcDbEntity
  8
0
100
AcDbSpline
 62
7
  6
BYLAYER
 70
0
 71
3
 72
9
 73
5
 74
0
 42
0.0000001
 43
0.0000001
 44
0.0000000001
 40
0.0
 40
0.0
 40
0.0
 40
0.0
 40
0.2378229346
 40
1.0
 40
1.0
 40
1.0
 40
1.0
 10
41.3941638753
 20
16.0263150784
 30
0.0
 10
41.3557748603
 20
16.0334804036
 30
0.0
 10
41.193557719
 20
16.0593074681
 30
0.0
 10
41.0289276596
 20
16.0686394275
 30
0.0
 10
40.9037734753
 20
16.0686394275
 30
0.0
  0
SPLINE
  5
430
100
AcDbEntity
  8
0
100
AcDbSpline
 62
7
  6
BYLAYER
 70
0
 71
3
 72
9
 73
5
 74
0
 42
0.0000001
 43
0.0000001
 44
0.0000000001
 40
0.0
 40
0.0
 40
0.0
 40
0.0
 40
0.2515785032
 40
1.0
 40
1.0
 40
1.0
 40
1.0
 10
37.7704294753
 20
15.6418463601
 30
0.0
 10
37.7102692704
 20
15.6418463601
 30
0.0
 10
37.4711602796
 20
15.6440139341
 30
0.0
 10
37.2319902986
 20
15.6543950307
 30
0.0
 10
37.0536992346
 20
15.6699777715
 30
0.0
  0
SPLINE
  5
431
100
AcDbEntity
  8
0
100
AcDbSpline
 62
7
  6
BYLAYER
 70
0
 71
3
 72
12
 73
8
 74
0
 42
0.0000001
 43
0.0000001
 44
0.0000000001
 40
0.0
 40
0.0
 40
0.0
 40
0.0
 40
0.3820520259
 40
0.6817777798
 40
0.7959238032
 40
0.8858152008
 40
1.0
 40
1.0
 40
1.0
 40
1.0
 10
37.0536992346
 20
15.6699777715
 30
0.0
 10
36.941991061
 20
15.6797411296
 30
0.0
 10
36.742841354
 20
15.7026624336
 30
0.0
 10
36.5144890387
 20
15.7531054619
 30
0.0
 10
36.3755223418
 20
15.8082664743
 30
0.0
 10
36.2961259602
 20
15.851854457
 30
0.0
 10
36.2464294753
 20
15.9030229655
 30
0.0
 10
36.2464294753
 20
15.9365367282
 30
0.0
  0
SPLINE
  5
432
100
AcDbEntity
  8
0
100
AcDbSpline
 62
7
  6
BYLAYER
 70
0
 71
3
 72
9
 73
5
 74
0
 42
0.0000001
 43
0.0000001
 44
0.0000000001
 40
0.0
 40
0.0
 40
0.0
 40
0.0
 40
0.4749794919
 40
1.0
 40
1.0
 40
1.0
 40
1.0
 10
38.9449254753
 20
15.7181087727
 30
0.0
 10
38.761033395
 20
15.6871081797
 30
0.0
 10
38.3691315173
 20
15.6512983396
 30
0.0
 10
37.9765634381
 20
15.6418463601
 30
0.0
 10
37.7704294753
 20
15.6418463601
 30
0.0
  0
SPLINE
  5
433
100
AcDbEntity
  8
0
100
AcDbSpline
 62
7
  6
BYLAYER
 70
0
 71
3
 72
9
 73
5
 74
0
 42
0.0000001
 43
0.0000001
 44
0.0000000001
 40
0.0
 40
0.0
 40
0.0
 40
0.0
 40
0.749762915
 40
1.0
 40
1.0
 40
1.0
 40
1.0
 10
10.2357962349
 20
66.1479959957
 30
0.0
 10
10.1193361676
 20
65.7133633596
 30
0.0
 10
9.9800088854
 20
65.1293427411
 30
0.0
 10
9.8534860676
 20
64.5427034111
 30
0.0
 10
9.8224403277
 20
64.3957693958
 30
0.0
  0
SPLINE
  5
434
100
AcDbEntity
  8
0
100
AcDbSpline
 62
7
  6
BYLAYER
 70
0
 71
3
 72
15
 73
11
 74
0
 42
0.0000001
 43
0.0000001
 44
0.0000000001
 40
0.0
 40
0.0
 40
0.0
 40
0.0
 40
0.2077869499
 40
0.3965297139
 40
0.5595957061
 40
0.6940288155
 40
0.8016356201
 40
0.8851728796
 40
0.9488594058
 40
1.0
 40
1.0
 40
1.0
 40
1.0
 10
33.8871204182
 20
15.6621705666
 30
0.0
 10
33.8278259897
 20
15.6676020408
 30
0.0
 10
33.7148512634
 20
15.6801362221
 30
0.0
 10
33.5563888355
 20
15.7051322296
 30
0.0
 10
33.4202129713
 20
15.7352482733
 30
0.0
 10
33.3093303716
 20
15.7702305737
 30
0.0
 10
33.2239332194
 20
15.8085516862
 30
0.0
 10
33.1628759523
 20
15.8494170864
 30
0.0
 10
33.1243789652
 20
15.8925944133
 30
0.0
 10
33.1144406753
 20
15.9256312484
 30
0.0
 10
33.1144406753
 20
15.9402859117
 30
0.0
  0
SPLINE
  5
435
100
AcDbEntity
  8
0
100
AcDbSpline
 62
7
  6
BYLAYER
 70
0
 71
3
 72
13
 73
9
 74
0
 42
0.0000001
 43
0.0000001
 44
0.0000000001
 40
0.0
 40
0.0
 40
0.0
 40
0.0
 40
0.2614585078
 40
0.5615863363
 40
0.7042234192
 40
0.8302859872
 40
0.9313544743
 40
1.0
 40
1.0
 40
1.0
 40
1.0
 10
32.5048406753
 20
16.3297860517
 30
0.0
 10
32.453472228
 20
16.323169893
 30
0.0
 10
32.3422497802
 20
16.3164783768
 30
0.0
 10
32.2026797554
 20
16.3156653746
 30
0.0
 10
32.0901325163
 20
16.3207705188
 30
0.0
 10
32.0170227272
 20
16.3272286156
 30
0.0
 10
31.9594036212
 20
16.3365909759
 30
0.0
 10
31.9264098206
 20
16.3457340742
 30
0.0
 10
31.9146582753
 20
16.3525758439
 30
0.0
  0
SPLINE
  5
436
100
AcDbEntity
  8
0
100
AcDbSpline
 62
7
  6
BYLAYER
 70
0
 71
3
 72
9
 73
5
 74
0
 42
0.0000001
 43
0.0000001
 44
0.0000000001
 40
0.0
 40
0.0
 40
0.0
 40
0.0
 40
0.2515864173
 40
1.0
 40
1.0
 40
1.0
 40
1.0
 10
30.4132358753
 20
15.6418463601
 30
0.0
 10
30.3529643693
 20
15.6418463601
 30
0.0
 10
30.1134206462
 20
15.6440167165
 30
0.0
 10
29.8738148989
 20
15.6544122694
 30
0.0
 10
29.6952025881
 20
15.6700357422
 30
0.0
  0
SPLINE
  5
437
100
AcDbEntity
  8
0
100
AcDbSpline
 62
7
  6
BYLAYER
 70
0
 71
3
 72
12
 73
8
 74
0
 42
0.0000001
 43
0.0000001
 44
0.0000000001
 40
0.0
 40
0.0
 40
0.0
 40
0.0
 40
0.382027366
 40
0.6817434127
 40
0.7958966592
 40
0.8857984105
 40
1.0
 40
1.0
 40
1.0
 40
1.0
 10
29.6952025881
 20
15.6700357422
 30
0.0
 10
29.5835549689
 20
15.6798017183
 30
0.0
 10
29.3845103516
 20
15.7027246094
 30
0.0
 10
29.1562791037
 20
15.7531655758
 30
0.0
 10
29.0173788422
 20
15.8083092534
 30
0.0
 10
28.9380133919
 20
15.8518840966
 30
0.0
 10
28.8883318753
 20
15.9030338387
 30
0.0
 10
28.8883318753
 20
15.9365367282
 30
0.0
  0
SPLINE
  5
438
100
AcDbEntity
  8
0
100
AcDbSpline
 62
7
  6
BYLAYER
 70
0
 71
3
 72
9
 73
5
 74
0
 42
0.0000001
 43
0.0000001
 44
0.0000000001
 40
0.0
 40
0.0
 40
0.0
 40
0.0
 40
0.4749213841
 40
1.0
 40
1.0
 40
1.0
 40
1.0
 10
31.5859254753
 20
15.7181087727
 30
0.0
 10
31.4023443431
 20
15.687116731
 30
0.0
 10
31.0110446006
 20
15.6513100371
 30
0.0
 10
30.6190773056
 20
15.6418463601
 30
0.0
 10
30.4132358753
 20
15.6418463601
 30
0.0
  0
SPLINE
  5
439
100
AcDbEntity
  8
0
100
AcDbSpline
 62
7
  6
BYLAYER
 70
0
 71
3
 72
18
 73
14
 74
0
 42
0.0000001
 43
0.0000001
 44
0.0000000001
 40
0.0
 40
0.0
 40
0.0
 40
0.0
 40
0.2499768285
 40
0.3749694438
 40
0.4999652063
 40
0.6249623558
 40
0.6874634123
 40
0.7499691327
 40
0.812468467
 40
0.8749640098
 40
0.9062249642
 40
0.9374980951
 40
1.0
 40
1.0
 40
1.0
 40
1.0
 10
16.2407394707
 20
55.9162301709
 30
0.0
 10
16.1101741064
 20
55.1221713312
 30
0.0
 10
15.9234772209
 20
53.9295366682
 30
0.0
 10
15.693123488
 20
52.3366139705
 30
0.0
 10
15.5305287151
 20
51.1404495309
 30
0.0
 10
15.4050908103
 20
50.1423016776
 30
0.0
 10
15.3119878662
 20
49.3428920773
 30
0.0
 10
15.245712074
 20
48.7429204346
 30
0.0
 10
15.1852365357
 20
48.1423409758
 30
0.0
 10
15.141614245
 20
47.6412129318
 30
0.0
 10
15.1093495918
 20
47.2400025366
 30
0.0
 10
15.078022703
 20
46.8387593469
 30
0.0
 10
15.0624607352
 20
46.5369551324
 30
0.0
 10
15.062413077
 20
46.3357499726
 30
0.0
  0
SPLINE
  5
43A
100
AcDbEntity
  8
0
100
AcDbSpline
 62
7
  6
BYLAYER
 70
0
 71
3
 72
11
 73
7
 74
0
 42
0.0000001
 43
0.0000001
 44
0.0000000001
 40
0.0
 40
0.0
 40
0.0
 40
0.0
 40
0.2435372898
 40
0.4912556166
 40
0.7442816099
 40
1.0
 40
1.0
 40
1.0
 40
1.0
 10
17.165851313
 20
57.9040578418
 30
0.0
 10
17.0436856922
 20
57.7714263572
 30
0.0
 10
16.81989681
 20
57.4822098232
 30
0.0
 10
16.5542078945
 20
56.9971818815
 30
0.0
 10
16.356812619
 20
56.4712255988
 30
0.0
 10
16.271487298
 20
56.1030566129
 30
0.0
 10
16.2407670799
 20
55.9162255413
 30
0.0
  0
SPLINE
  5
43B
100
AcDbEntity
  8
0
100
AcDbSpline
 62
7
  6
BYLAYER
 70
0
 71
3
 72
9
 73
5
 74
0
 42
0.0000001
 43
0.0000001
 44
0.0000000001
 40
0.0
 40
0.0
 40
0.0
 40
0.0
 40
0.2218098116
 40
1.0
 40
1.0
 40
1.0
 40
1.0
 10
26.7479590753
 20
15.7541187627
 30
0.0
 10
26.7326799736
 20
15.7582592225
 30
0.0
 10
26.6633067422
 20
15.7751188311
 30
0.0
 10
26.592728736
 20
15.7865439668
 30
0.0
 10
26.5376991566
 20
15.7940420042
 30
0.0
  0
SPLINE
  5
43C
100
AcDbEntity
  8
0
100
AcDbSpline
 62
7
  6
BYLAYER
 70
0
 71
3
 72
9
 73
5
 74
0
 42
0.0000001
 43
0.0000001
 44
0.0000000001
 40
0.0
 40
0.0
 40
0.0
 40
0.0
 40
0.484406266
 40
1.0
 40
1.0
 40
1.0
 40
1.0
 10
26.5376991566
 20
15.7940420042
 30
0.0
 10
26.4389349417
 20
15.80749909
 30
0.0
 10
26.2337657322
 20
15.825649473
 30
0.0
 10
26.0281324321
 20
15.8341002595
 30
0.0
 10
25.9220630753
 20
15.8363994451
 30
0.0
  0
SPLINE
  5
43D
100
AcDbEntity
  8
0
100
AcDbSpline
 62
7
  6
BYLAYER
 70
0
 71
3
 72
9
 73
5
 74
0
 42
0.0000001
 43
0.0000001
 44
0.0000000001
 40
0.0
 40
0.0
 40
0.0
 40
0.0
 40
0.5783342519
 40
1.0
 40
1.0
 40
1.0
 40
1.0
 10
27.3241430753
 20
16.1173763661
 30
0.0
 10
27.2112037306
 20
16.1173763661
 30
0.0
 10
27.0157599504
 20
16.0978948342
 30
0.0
 10
26.8253392243
 20
16.0507252862
 30
0.0
 10
26.7479590753
 20
16.0225662445
 30
0.0
  0
SPLINE
  5
43E
100
AcDbEntity
  8
0
100
AcDbSpline
 62
7
  6
BYLAYER
 70
0
 71
3
 72
14
 73
10
 74
0
 42
0.0000001
 43
0.0000001
 44
0.0000000001
 40
0.0
 40
0.0
 40
0.0
 40
0.0
 40
0.0436404061
 40
0.0939078732
 40
0.1703470575
 40
0.2863566223
 40
0.4363439914
 40
0.6114792159
 40
1.0
 40
1.0
 40
1.0
 40
1.0
 10
27.7364134753
 20
16.0027359477
 30
0.0
 10
27.7364134753
 20
16.0093193375
 30
0.0
 10
27.7357332216
 20
16.0238174947
 30
0.0
 10
27.7211619295
 20
16.0464762959
 30
0.0
 10
27.6882898652
 20
16.064436828
 30
0.0
 10
27.6393771972
 20
16.0807410053
 30
0.0
 10
27.574320368
 20
16.0955025048
 30
0.0
 10
27.4679171019
 20
16.1119155952
 30
0.0
 10
27.382753523
 20
16.1173763661
 30
0.0
 10
27.3241430753
 20
16.1173763661
 30
0.0
  0
SPLINE
  5
43F
100
AcDbEntity
  8
0
100
AcDbSpline
 62
7
  6
BYLAYER
 70
0
 71
3
 72
9
 73
5
 74
0
 42
0.0000001
 43
0.0000001
 44
0.0000000001
 40
0.0
 40
0.0
 40
0.0
 40
0.0
 40
0.4416278739
 40
1.0
 40
1.0
 40
1.0
 40
1.0
 10
30.9022694753
 20
16.0039199556
 30
0.0
 10
30.8624489461
 20
16.034470478
 30
0.0
 10
30.7576810031
 20
16.0841761164
 30
0.0
 10
30.645717191
 20
16.1065933786
 30
0.0
 10
30.5828240102
 20
16.1150365043
 30
0.0
  0
SPLINE
  5
440
100
AcDbEntity
  8
0
100
AcDbSpline
 62
7
  6
BYLAYER
 70
0
 71
3
 72
9
 73
5
 74
0
 42
0.0000001
 43
0.0000001
 44
0.0000000001
 40
0.0
 40
0.0
 40
0.0
 40
0.0
 40
0.2296364283
 40
1.0
 40
1.0
 40
1.0
 40
1.0
 10
30.5828240102
 20
16.1150365043
 30
0.0
 10
30.5638186301
 20
16.1175878908
 30
0.0
 10
30.4808177264
 20
16.1269273688
 30
0.0
 10
30.3971877586
 20
16.1299058053
 30
0.0
 10
30.3328582753
 20
16.1299058053
 30
0.0
  0
SPLINE
  5
441
100
AcDbEntity
  8
0
100
AcDbSpline
 62
7
  6
BYLAYER
 70
0
 71
3
 72
9
 73
5
 74
0
 42
0.0000001
 43
0.0000001
 44
0.0000000001
 40
0.0
 40
0.0
 40
0.0
 40
0.0
 40
0.269761334
 40
1.0
 40
1.0
 40
1.0
 40
1.0
 10
30.3328582753
 20
16.1299058053
 30
0.0
 10
30.311159041
 20
16.1299058053
 30
0.0
 10
30.2307341534
 20
16.1288952224
 30
0.0
 10
30.1502839284
 20
16.1236700083
 30
0.0
 10
30.0920119035
 20
16.1162748286
 30
0.0
  0
SPLINE
  5
442
100
AcDbEntity
  8
0
100
AcDbSpline
 62
7
  6
BYLAYER
 70
0
 71
3
 72
9
 73
5
 74
0
 42
0.0000001
 43
0.0000001
 44
0.0000000001
 40
0.0
 40
0.0
 40
0.0
 40
0.0
 40
0.27280912
 40
1.0
 40
1.0
 40
1.0
 40
1.0
 10
30.0920119035
 20
16.1162748286
 30
0.0
 10
30.0742234839
 20
16.1140173378
 30
0.0
 10
30.0092108372
 20
16.1044802278
 30
0.0
 10
29.9447973336
 20
16.0895800082
 30
0.0
 10
29.899562121
 20
16.0741435765
 30
0.0
  0
SPLINE
  5
443
100
AcDbEntity
  8
0
100
AcDbSpline
 62
7
  6
BYLAYER
 70
0
 71
3
 72
9
 73
5
 74
0
 42
0.0000001
 43
0.0000001
 44
0.0000000001
 40
0.0
 40
0.0
 40
0.0
 40
0.0
 40
0.2630689224
 40
1.0
 40
1.0
 40
1.0
 40
1.0
 10
29.899562121
 20
16.0741435765
 30
0.0
 10
29.8918009467
 20
16.0714950903
 30
0.0
 10
29.8624861222
 20
16.0608992076
 30
0.0
 10
29.8339408429
 20
16.0480751762
 30
0.0
 10
29.8137506812
 20
16.0371168968
 30
0.0
  0
SPLINE
  5
444
100
AcDbEntity
  8
0
100
AcDbSpline
 62
7
  6
BYLAYER
 70
0
 71
3
 72
9
 73
5
 74
0
 42
0.0000001
 43
0.0000001
 44
0.0000000001
 40
0.0
 40
0.0
 40
0.0
 40
0.0
 40
0.2585095802
 40
1.0
 40
1.0
 40
1.0
 40
1.0
 10
29.8137506812
 20
16.0371168968
 30
0.0
 10
29.8090976298
 20
16.0345914372
 30
0.0
 10
29.7912708071
 20
16.0245103653
 30
0.0
 10
29.7741638842
 20
16.0131323641
 30
0.0
 10
29.7620918753
 20
16.0039199556
 30
0.0
  0
SPLINE
  5
445
100
AcDbEntity
  8
0
100
AcDbSpline
 62
7
  6
BYLAYER
 70
0
 71
3
 72
9
 73
5
 74
0
 42
0.0000001
 43
0.0000001
 44
0.0000000001
 40
0.0
 40
0.0
 40
0.0
 40
0.0
 40
0.5306433415
 40
1.0
 40
1.0
 40
1.0
 40
1.0
 10
18.9793853337
 20
15.9457101969
 30
0.0
 10
19.0834655811
 20
15.9508108776
 30
0.0
 10
19.2794233045
 20
15.9642374755
 30
0.0
 10
19.4744549671
 20
15.9897270714
 30
0.0
 10
19.5649566297
 20
16.0071842677
 30
0.0
  0
SPLINE
  5
446
100
AcDbEntity
  8
0
100
AcDbSpline
 62
7
  6
BYLAYER
 70
0
 71
3
 72
9
 73
5
 74
0
 42
0.0000001
 43
0.0000001
 44
0.0000000001
 40
0.0
 40
0.0
 40
0.0
 40
0.0
 40
0.265764576
 40
1.0
 40
1.0
 40
1.0
 40
1.0
 10
19.5649566297
 20
16.0071842677
 30
0.0
 10
19.5783441114
 20
16.0097666279
 30
0.0
 10
19.6286227964
 20
16.0199566282
 30
0.0
 10
19.6785326416
 20
16.0320530491
 30
0.0
 10
19.71476075
 20
16.0423674067
 30
0.0
  0
SPLINE
  5
447
100
AcDbEntity
  8
0
100
AcDbSpline
 62
7
  6
BYLAYER
 70
0
 71
3
 72
14
 73
10
 74
0
 42
0.0000001
 43
0.0000001
 44
0.0000000001
 40
0.0
 40
0.0
 40
0.0
 40
0.0
 40
0.082252906
 40
0.1730351185
 40
0.2777279984
 40
0.3982339423
 40
0.5337022542
 40
0.6817695833
 40
1.0
 40
1.0
 40
1.0
 40
1.0
 10
15.9794903201
 20
42.8357499726
 30
0.0
 10
15.9794903201
 20
42.885455241
 30
0.0
 10
16.001347392
 20
42.990848674
 30
0.0
 10
16.093111349
 20
43.1345267118
 30
0.0
 10
16.2359847169
 20
43.2637008513
 30
0.0
 10
16.4243610412
 20
43.3754439324
 30
0.0
 10
16.6516084236
 20
43.4668827548
 30
0.0
 10
17.0039497542
 20
43.5593782545
 30
0.0
 10
17.2871202638
 20
43.5857499726
 30
0.0
 10
17.4794262753
 20
43.5857499726
 30
0.0
  0
SPLINE
  5
448
100
AcDbEntity
  8
0
100
AcDbSpline
 62
7
  6
BYLAYER
 70
0
 71
3
 72
9
 73
5
 74
0
 42
0.0000001
 43
0.0000001
 44
0.0000000001
 40
0.0
 40
0.0
 40
0.0
 40
0.0
 40
0.2327450097
 40
1.0
 40
1.0
 40
1.0
 40
1.0
 10
17.2367711969
 20
16.4130608032
 30
0.0
 10
17.2481928157
 20
16.4100391899
 30
0.0
 10
17.2973988185
 20
16.397557721
 30
0.0
 10
17.3470504666
 20
16.3868772236
 30
0.0
 10
17.385269341
 20
16.3793803367
 30
0.0
  0
SPLINE
  5
449
100
AcDbEntity
  8
0
100
AcDbSpline
 62
7
  6
BYLAYER
 70
0
 71
3
 72
9
 73
5
 74
0
 42
0.0000001
 43
0.0000001
 44
0.0000000001
 40
0.0
 40
0.0
 40
0.0
 40
0.0
 40
0.2242582864
 40
1.0
 40
1.0
 40
1.0
 40
1.0
 10
17.385269341
 20
16.3793803367
 30
0.0
 10
17.4164218628
 20
16.373269562
 30
0.0
 10
17.5557534631
 20
16.3481537425
 30
0.0
 10
17.6962857624
 20
16.3301088072
 30
0.0
 10
17.8054813606
 20
16.3184647294
 30
0.0
  0
SPLINE
  5
44A
100
AcDbEntity
  8
0
100
AcDbSpline
 62
7
  6
BYLAYER
 70
0
 71
3
 72
9
 73
5
 74
0
 42
0.0000001
 43
0.0000001
 44
0.0000000001
 40
0.0
 40
0.0
 40
0.0
 40
0.0
 40
0.2126764899
 40
1.0
 40
1.0
 40
1.0
 40
1.0
 10
29.106780099
 20
16.0672296306
 30
0.0
 10
29.1326040308
 20
16.0584009689
 30
0.0
 10
29.2555618667
 20
16.021355943
 30
0.0
 10
29.3825850055
 20
15.9994802606
 30
0.0
 10
29.4827143774
 20
15.9860041712
 30
0.0
  0
SPLINE
  5
44B
100
AcDbEntity
  8
0
100
AcDbSpline
 62
7
  6
BYLAYER
 70
0
 71
3
 72
9
 73
5
 74
0
 42
0.0000001
 43
0.0000001
 44
0.0000000001
 40
0.0
 40
0.0
 40
0.0
 40
0.0
 40
0.2400539677
 40
1.0
 40
1.0
 40
1.0
 40
1.0
 10
29.4827143774
 20
15.9860041712
 30
0.0
 10
29.5023417377
 20
15.983362588
 30
0.0
 10
29.5841931441
 20
15.9730217483
 30
0.0
 10
29.6663333228
 20
15.9650479344
 30
0.0
 10
29.72882054
 20
15.9599461411
 30
0.0
  0
SPLINE
  5
44C
100
AcDbEntity
  8
0
100
AcDbSpline
 62
7
  6
BYLAYER
 70
0
 71
3
 72
11
 73
7
 74
0
 42
0.0000001
 43
0.0000001
 44
0.0000000001
 40
0.0
 40
0.0
 40
0.0
 40
0.0
 40
0.2658943594
 40
0.5221270655
 40
0.7659269937
 40
1.0
 40
1.0
 40
1.0
 40
1.0
 10
50.3765771714
 20
45.2132847836
 30
0.0
 10
50.3634431302
 20
45.3891219634
 30
0.0
 10
50.2847932606
 20
45.7331481912
 30
0.0
 10
50.015412942
 20
46.1747547954
 30
0.0
 10
49.6256196164
 20
46.4844676926
 30
0.0
 10
49.3105739987
 20
46.5732382191
 30
0.0
 10
49.1556792919
 20
46.5833557215
 30
0.0
  0
SPLINE
  5
44D
100
AcDbEntity
  8
0
100
AcDbSpline
 62
7
  6
BYLAYER
 70
0
 71
3
 72
9
 73
5
 74
0
 42
0.0000001
 43
0.0000001
 44
0.0000000001
 40
0.0
 40
0.0
 40
0.0
 40
0.0
 40
0.4908650612
 40
1.0
 40
1.0
 40
1.0
 40
1.0
 10
49.9927962539
 20
44.0158582687
 30
0.0
 10
50.1043916384
 20
44.1424273702
 30
0.0
 10
50.2862922506
 20
44.442839107
 30
0.0
 10
50.3636150749
 20
44.7840901437
 30
0.0
 10
50.3766085581
 20
44.9586278677
 30
0.0
  0
SPLINE
  5
44E
100
AcDbEntity
  8
0
100
AcDbSpline
 62
7
  6
BYLAYER
 70
0
 71
3
 72
9
 73
5
 74
0
 42
0.0000001
 43
0.0000001
 44
0.0000000001
 40
0.0
 40
0.0
 40
0.0
 40
0.0
 40
0.4420214995
 40
1.0
 40
1.0
 40
1.0
 40
1.0
 10
20.3321155334
 20
16.0803147009
 30
0.0
 10
20.3900716685
 20
16.0579299969
 30
0.0
 10
20.5259247656
 20
16.0197156608
 30
0.0
 10
20.6647096929
 20
15.9966257977
 30
0.0
 10
20.742431722
 20
15.9861318763
 30
0.0
  0
SPLINE
  5
44F
100
AcDbEntity
  8
0
100
AcDbSpline
 62
7
  6
BYLAYER
 70
0
 71
3
 72
9
 73
5
 74
0
 42
0.0000001
 43
0.0000001
 44
0.0000000001
 40
0.0
 40
0.0
 40
0.0
 40
0.0
 40
0.2392485668
 40
1.0
 40
1.0
 40
1.0
 40
1.0
 10
20.742431722
 20
15.9861318763
 30
0.0
 10
20.7640012616
 20
15.9832195867
 30
0.0
 10
20.8542654429
 20
15.9718540438
 30
0.0
 10
20.9448734251
 20
15.9633320547
 30
0.0
 10
21.0138735482
 20
15.9579700164
 30
0.0
  0
SPLINE
  5
450
100
AcDbEntity
  8
0
100
AcDbSpline
 62
7
  6
BYLAYER
 70
0
 71
3
 72
10
 73
6
 74
0
 42
0.0000001
 43
0.0000001
 44
0.0000000001
 40
0.0
 40
0.0
 40
0.0
 40
0.0
 40
0.5459375296
 40
0.7928562558
 40
1.0
 40
1.0
 40
1.0
 40
1.0
 10
34.6090902753
 20
16.1173763661
 30
0.0
 10
34.518591644
 20
16.1173763661
 30
0.0
 10
34.3870102592
 20
16.1112452913
 30
0.0
 10
34.2224530031
 20
16.0910313734
 30
0.0
 10
34.1483896753
 20
16.0768163738
 30
0.0
 10
34.1151789028
 20
16.0680916674
 30
0.0
  0
SPLINE
  5
451
100
AcDbEntity
  8
0
100
AcDbSpline
 62
7
  6
BYLAYER
 70
0
 71
3
 72
11
 73
7
 74
0
 42
0.0000001
 43
0.0000001
 44
0.0000000001
 40
0.0
 40
0.0
 40
0.0
 40
0.0
 40
0.3848146556
 40
0.6525384023
 40
0.8439483337
 40
1.0
 40
1.0
 40
1.0
 40
1.0
 10
34.1151789028
 20
16.0680916674
 30
0.0
 10
34.0869183304
 20
16.0606674138
 30
0.0
 10
34.0395450434
 20
16.0453028952
 30
0.0
 10
33.983545018
 20
16.0125331027
 30
0.0
 10
33.9531362828
 20
15.9752011786
 30
0.0
 10
33.9475606753
 20
15.9483859455
 30
0.0
 10
33.9475606753
 20
15.9365367282
 30
0.0
  0
SPLINE
  5
452
100
AcDbEntity
  8
0
100
AcDbSpline
 62
7
  6
BYLAYER
 70
0
 71
3
 72
9
 73
5
 74
0
 42
0.0000001
 43
0.0000001
 44
0.0000000001
 40
0.0
 40
0.0
 40
0.0
 40
0.0
 40
0.217028956
 40
1.0
 40
1.0
 40
1.0
 40
1.0
 10
33.2789533149
 20
16.0773565139
 30
0.0
 10
33.2927305446
 20
16.0714835035
 30
0.0
 10
33.3570387034
 20
16.0463613875
 30
0.0
 10
33.423851818
 20
16.0280816287
 30
0.0
 10
33.4765226356
 20
16.016032341
 30
0.0
  0
SPLINE
  5
453
100
AcDbEntity
  8
0
100
AcDbSpline
 62
7
  6
BYLAYER
 70
0
 71
3
 72
9
 73
5
 74
0
 42
0.0000001
 43
0.0000001
 44
0.0000000001
 40
0.0
 40
0.0
 40
0.0
 40
0.0
 40
0.4651852694
 40
1.0
 40
1.0
 40
1.0
 40
1.0
 10
33.4765226356
 20
16.016032341
 30
0.0
 10
33.5438536398
 20
16.0006293022
 30
0.0
 10
33.690346822
 20
15.9752537882
 30
0.0
 10
33.8379971998
 20
15.9590056005
 30
0.0
 10
33.9171201742
 20
15.95227278
 30
0.0
  0
SPLINE
  5
454
100
AcDbEntity
  8
0
100
AcDbSpline
 62
7
  6
BYLAYER
 70
0
 71
3
 72
11
 73
7
 74
0
 42
0.0000001
 43
0.0000001
 44
0.0000000001
 40
0.0
 40
0.0
 40
0.0
 40
0.0
 40
0.228140478
 40
0.4734379451
 40
0.7326864147
 40
1.0
 40
1.0
 40
1.0
 40
1.0
 10
18.3411065322
 20
75.4763741821
 30
0.0
 10
18.1292659266
 20
75.1380735386
 30
0.0
 10
17.6383840757
 20
74.4676827752
 30
0.0
 10
16.7750785132
 20
73.5181134013
 30
0.0
 10
15.7961986905
 20
72.5867259582
 30
0.0
 10
15.1034207228
 20
71.9793232613
 30
0.0
 10
14.7500204608
 20
71.6729850809
 30
0.0
  0
SPLINE
  5
455
100
AcDbEntity
  8
0
100
AcDbSpline
 62
7
  6
BYLAYER
 70
0
 71
3
 72
9
 73
5
 74
0
 42
0.0000001
 43
0.0000001
 44
0.0000000001
 40
0.0
 40
0.0
 40
0.0
 40
0.0
 40
0.4421559165
 40
1.0
 40
1.0
 40
1.0
 40
1.0
 10
38.2621734753
 20
16.0039199556
 30
0.0
 10
38.2217834669
 20
16.0344717473
 30
0.0
 10
38.1160636907
 20
16.0841482081
 30
0.0
 10
38.0032039752
 20
16.1066215459
 30
0.0
 10
37.9398707121
 20
16.1150691113
 30
0.0
  0
SPLINE
  5
456
100
AcDbEntity
  8
0
100
AcDbSpline
 62
7
  6
BYLAYER
 70
0
 71
3
 72
9
 73
5
 74
0
 42
0.0000001
 43
0.0000001
 44
0.0000000001
 40
0.0
 40
0.0
 40
0.0
 40
0.0
 40
0.2298301157
 40
1.0
 40
1.0
 40
1.0
 40
1.0
 10
37.9398707121
 20
16.1150691113
 30
0.0
 10
37.9207901021
 20
16.1176141357
 30
0.0
 10
37.8375345138
 20
16.1269265841
 30
0.0
 10
37.7536556287
 20
16.1299058053
 30
0.0
 10
37.6891494753
 20
16.1299058053
 30
0.0
  0
SPLINE
  5
457
100
AcDbEntity
  8
0
100
AcDbSpline
 62
7
  6
BYLAYER
 70
0
 71
3
 72
9
 73
5
 74
0
 42
0.0000001
 43
0.0000001
 44
0.0000000001
 40
0.0
 40
0.0
 40
0.0
 40
0.0
 40
0.2698320783
 40
1.0
 40
1.0
 40
1.0
 40
1.0
 10
37.6891494753
 20
16.1299058053
 30
0.0
 10
37.6674689649
 20
16.1299058053
 30
0.0
 10
37.5871346438
 20
16.1288947775
 30
0.0
 10
37.5067745212
 20
16.1236673993
 30
0.0
 10
37.4485758585
 20
16.1162641226
 30
0.0
  0
SPLINE
  5
458
100
AcDbEntity
  8
0
100
AcDbSpline
 62
7
  6
BYLAYER
 70
0
 71
3
 72
9
 73
5
 74
0
 42
0.0000001
 43
0.0000001
 44
0.0000000001
 40
0.0
 40
0.0
 40
0.0
 40
0.0
 40
0.2728964162
 40
1.0
 40
1.0
 40
1.0
 40
1.0
 10
37.4485758585
 20
16.1162641226
 30
0.0
 10
37.4308238936
 20
16.1140059486
 30
0.0
 10
37.3659663585
 20
16.1044686689
 30
0.0
 10
37.3017085005
 20
16.0895663048
 30
0.0
 10
37.2566000468
 20
16.0741212349
 30
0.0
  0
SPLINE
  5
459
100
AcDbEntity
  8
0
100
AcDbSpline
 62
7
  6
BYLAYER
 70
0
 71
3
 72
9
 73
5
 74
0
 42
0.0000001
 43
0.0000001
 44
0.0000000001
 40
0.0
 40
0.0
 40
0.0
 40
0.0
 40
0.2629133381
 40
1.0
 40
1.0
 40
1.0
 40
1.0
 10
37.2566000468
 20
16.0741212349
 30
0.0
 10
37.2489825535
 20
16.071513016
 30
0.0
 10
37.2201918364
 20
16.0610794681
 30
0.0
 10
37.1921509396
 20
16.0484832553
 30
0.0
 10
37.1722994313
 20
16.0377379725
 30
0.0
  0
SPLINE
  5
45A
100
AcDbEntity
  8
0
100
AcDbSpline
 62
7
  6
BYLAYER
 70
0
 71
3
 72
9
 73
5
 74
0
 42
0.0000001
 43
0.0000001
 44
0.0000000001
 40
0.0
 40
0.0
 40
0.0
 40
0.0
 40
0.2587226789
 40
1.0
 40
1.0
 40
1.0
 40
1.0
 10
37.1722994313
 20
16.0377379725
 30
0.0
 10
37.1675564641
 20
16.0351706853
 30
0.0
 10
37.1494034858
 20
16.024923526
 30
0.0
 10
37.1319981383
 20
16.0133257879
 30
0.0
 10
37.1197382753
 20
16.0039199556
 30
0.0
  0
SPLINE
  5
45B
100
AcDbEntity
  8
0
100
AcDbSpline
 62
7
  6
BYLAYER
 70
0
 71
3
 72
9
 73
5
 74
0
 42
0.0000001
 43
0.0000001
 44
0.0000000001
 40
0.0
 40
0.0
 40
0.0
 40
0.0
 40
0.4965094132
 40
1.0
 40
1.0
 40
1.0
 40
1.0
 10
22.5057242789
 20
75.6063124115
 30
0.0
 10
21.8365031036
 20
75.6959474524
 30
0.0
 10
20.4764606248
 20
75.7940999829
 30
0.0
 10
19.1136685813
 20
75.7185582296
 30
0.0
 10
18.4347633885
 20
75.6297358334
 30
0.0
  0
SPLINE
  5
45C
100
AcDbEntity
  8
0
100
AcDbSpline
 62
7
  6
BYLAYER
 70
0
 71
3
 72
9
 73
5
 74
0
 42
0.0000001
 43
0.0000001
 44
0.0000000001
 40
0.0
 40
0.0
 40
0.0
 40
0.0
 40
0.2126588285
 40
1.0
 40
1.0
 40
1.0
 40
1.0
 10
36.4647175162
 20
16.0672620978
 30
0.0
 10
36.4905275259
 20
16.0584333967
 30
0.0
 10
36.6134308274
 20
16.0213848249
 30
0.0
 10
36.7404014318
 20
15.9995047015
 30
0.0
 10
36.8404918604
 20
15.9860246532
 30
0.0
  0
SPLINE
  5
45D
100
AcDbEntity
  8
0
100
AcDbSpline
 62
7
  6
BYLAYER
 70
0
 71
3
 72
9
 73
5
 74
0
 42
0.0000001
 43
0.0000001
 44
0.0000000001
 40
0.0
 40
0.0
 40
0.0
 40
0.0
 40
0.2400242966
 40
1.0
 40
1.0
 40
1.0
 40
1.0
 10
36.8404918604
 20
15.9860246532
 30
0.0
 10
36.8601762951
 20
15.9833735792
 30
0.0
 10
36.9422762548
 20
15.9729962907
 30
0.0
 10
37.0246669108
 20
15.9650010195
 30
0.0
 10
37.0873471631
 20
15.9598880616
 30
0.0
  0
SPLINE
  5
45E
100
AcDbEntity
  8
0
100
AcDbSpline
 62
7
  6
BYLAYER
 70
0
 71
3
 72
9
 73
5
 74
0
 42
0.0000001
 43
0.0000001
 44
0.0000000001
 40
0.0
 40
0.0
 40
0.0
 40
0.0
 40
0.270534273
 40
1.0
 40
1.0
 40
1.0
 40
1.0
 10
24.1930582753
 20
15.4933030235
 30
0.0
 10
24.2011552331
 20
15.4933030235
 30
0.0
 10
24.2310756164
 20
15.4937959963
 30
0.0
 10
24.2610142306
 20
15.4963608288
 30
0.0
 10
24.2825418653
 20
15.4999969271
 30
0.0
  0
SPLINE
  5
45F
100
AcDbEntity
  8
0
100
AcDbSpline
 62
7
  6
BYLAYER
 70
0
 71
3
 72
9
 73
5
 74
0
 42
0.0000001
 43
0.0000001
 44
0.0000000001
 40
0.0
 40
0.0
 40
0.0
 40
0.0
 40
0.2704023634
 40
1.0
 40
1.0
 40
1.0
 40
1.0
 10
24.2825418653
 20
15.4999969271
 30
0.0
 10
24.2886763135
 20
15.5010330584
 30
0.0
 10
24.311256595
 20
15.5054066875
 30
0.0
 10
24.3334657893
 20
15.5121252381
 30
0.0
 10
24.3488438753
 20
15.5188555007
 30
0.0
  0
SPLINE
  5
460
100
AcDbEntity
  8
0
100
AcDbSpline
 62
7
  6
BYLAYER
 70
0
 71
3
 72
9
 73
5
 74
0
 42
0.0000001
 43
0.0000001
 44
0.0000000001
 40
0.0
 40
0.0
 40
0.0
 40
0.0
 40
0.2116192468
 40
1.0
 40
1.0
 40
1.0
 40
1.0
 10
24.3488438753
 20
15.2261033338
 30
0.0
 10
24.3385992254
 20
15.221619734
 30
0.0
 10
24.2884471069
 20
15.2043810417
 30
0.0
 10
24.2347195238
 20
15.2005508567
 30
0.0
 10
24.1930582753
 20
15.2005508566
 30
0.0
  0
SPLINE
  5
461
100
AcDbEntity
  8
0
100
AcDbSpline
 62
7
  6
BYLAYER
 70
0
 71
3
 72
10
 73
6
 74
0
 42
0.0000001
 43
0.0000001
 44
0.0000000001
 40
0.0
 40
0.0
 40
0.0
 40
0.0
 40
0.5437958138
 40
0.7889116762
 40
1.0
 40
1.0
 40
1.0
 40
1.0
 10
25.5499814753
 20
15.5781137363
 30
0.0
 10
25.4039591371
 20
15.5781137363
 30
0.0
 10
25.1918514493
 20
15.5699804749
 30
0.0
 10
24.9250759925
 20
15.5387041171
 30
0.0
 10
24.8044959614
 20
15.5157875904
 30
0.0
 10
24.7496136487
 20
15.501616577
 30
0.0
  0
SPLINE
  5
462
100
AcDbEntity
  8
0
100
AcDbSpline
 62
7
  6
BYLAYER
 70
0
 71
3
 72
9
 73
5
 74
0
 42
0.0000001
 43
0.0000001
 44
0.0000000001
 40
0.0
 40
0.0
 40
0.0
 40
0.0
 40
0.5785627505
 40
1.0
 40
1.0
 40
1.0
 40
1.0
 10
24.7496136487
 20
15.501616577
 30
0.0
 10
24.7100697635
 20
15.4914060574
 30
0.0
 10
24.6427754387
 20
15.4707031815
 30
0.0
 10
24.5787227002
 20
15.4371473395
 30
0.0
 10
24.5570118753
 20
15.4168086553
 30
0.0
  0
SPLINE
  5
463
100
AcDbEntity
  8
0
100
AcDbSpline
 62
7
  6
BYLAYER
 70
0
 71
3
 72
12
 73
8
 74
0
 42
0.0000001
 43
0.0000001
 44
0.0000000001
 40
0.0
 40
0.0
 40
0.0
 40
0.0
 40
0.2551412911
 40
0.5093092613
 40
0.762474279
 40
0.8849498649
 40
1.0
 40
1.0
 40
1.0
 40
1.0
 10
45.5811308242
 20
66.1832600769
 30
0.0
 10
45.5040996846
 20
66.6491019597
 30
0.0
 10
45.3463626619
 20
67.5783689614
 30
0.0
 10
45.0924076235
 20
68.9664008792
 30
0.0
 10
44.8675230491
 20
70.1101082299
 30
0.0
 10
44.6768063895
 20
70.9979533716
 30
0.0
 10
44.5734188652
 20
71.425316934
 30
0.0
 10
44.518316548
 20
71.6309763724
 30
0.0
  0
SPLINE
  5
464
100
AcDbEntity
  8
0
100
AcDbSpline
 62
7
  6
BYLAYER
 70
0
 71
3
 72
12
 73
8
 74
0
 42
0.0000001
 43
0.0000001
 44
0.0000000001
 40
0.0
 40
0.0
 40
0.0
 40
0.0
 40
0.115031744
 40
0.2375186811
 40
0.4907066804
 40
0.7448652489
 40
1.0
 40
1.0
 40
1.0
 40
1.0
 10
21.4405240467
 20
71.6309779724
 30
0.0
 10
21.3854775191
 20
71.4253389231
 30
0.0
 10
21.2821092706
 20
70.9979861266
 30
0.0
 10
21.0913030193
 20
70.1101298975
 30
0.0
 10
20.8664634645
 20
68.9663667227
 30
0.0
 10
20.6124747633
 20
67.5783287432
 30
0.0
 10
20.4547486796
 20
66.6490900499
 30
0.0
 10
20.3777184918
 20
66.1832604848
 30
0.0
  0
SPLINE
  5
465
100
AcDbEntity
  8
0
100
AcDbSpline
 62
7
  6
BYLAYER
 70
0
 71
3
 72
9
 73
5
 74
0
 42
0.0000001
 43
0.0000001
 44
0.0000000001
 40
0.0
 40
0.0
 40
0.0
 40
0.0
 40
0.4999928189
 40
1.0
 40
1.0
 40
1.0
 40
1.0
 10
51.2631054381
 20
76.821994154
 30
0.0
 10
52.1285282008
 20
75.9349145395
 30
0.0
 10
53.6452252501
 20
73.93969224
 30
0.0
 10
54.6371391448
 20
71.6371875789
 30
0.0
 10
54.9807891874
 20
70.4464484449
 30
0.0
  0
SPLINE
  5
466
100
AcDbEntity
  8
0
100
AcDbSpline
 62
7
  6
BYLAYER
 70
0
 71
3
 72
10
 73
6
 74
0
 42
0.0000001
 43
0.0000001
 44
0.0000000001
 40
0.0
 40
0.0
 40
0.0
 40
0.0
 40
0.5357618861
 40
0.7777139032
 40
1.0
 40
1.0
 40
1.0
 40
1.0
 10
47.5240208721
 20
75.6298032307
 30
0.0
 10
47.3269486648
 20
75.9629316089
 30
0.0
 10
47.0663453022
 20
76.4642322167
 30
0.0
 10
46.8281000348
 20
77.1473342643
 30
0.0
 10
46.7556819579
 20
77.4761766285
 30
0.0
 10
46.7343360625
 20
77.6353398663
 30
0.0
  0
SPLINE
  5
467
100
AcDbEntity
  8
0
100
AcDbSpline
 62
7
  6
BYLAYER
 70
0
 71
3
 72
9
 73
5
 74
0
 42
0.0000001
 43
0.0000001
 44
0.0000000001
 40
0.0
 40
0.0
 40
0.0
 40
0.0
 40
0.2550648258
 40
1.0
 40
1.0
 40
1.0
 40
1.0
 10
46.7343360625
 20
77.6353398663
 30
0.0
 10
46.7317666954
 20
77.6544980601
 30
0.0
 10
46.7224645618
 20
77.729708637
 30
0.0
 10
46.7163404055
 20
77.8053273136
 30
0.0
 10
46.7139103508
 20
77.8617288234
 30
0.0
  0
SPLINE
  5
468
100
AcDbEntity
  8
0
100
AcDbSpline
 62
7
  6
BYLAYER
 70
0
 71
3
 72
20
 73
16
 74
0
 42
0.0000001
 43
0.0000001
 44
0.0000000001
 40
0.0
 40
0.0
 40
0.0
 40
0.0
 40
0.0466082401
 40
0.0896838442
 40
0.1298261868
 40
0.1686383095
 40
0.2088908755
 40
0.2537925472
 40
0.3057240375
 40
0.3655377535
 40
0.4326688472
 40
0.5058339419
 40
0.6641275101
 40
0.830778598
 40
1.0
 40
1.0
 40
1.0
 40
1.0
 10
46.7139103508
 20
77.8617288234
 30
0.0
 10
46.7099110531
 20
77.9545524216
 30
0.0
 10
46.7132427993
 20
78.1340180336
 30
0.0
 10
46.7610870494
 20
78.3899002253
 30
0.0
 10
46.85832784
 20
78.615730953
 30
0.0
 10
47.0130571662
 20
78.8012854637
 30
0.0
 10
47.2285098188
 20
78.9312090364
 30
0.0
 10
47.4978550799
 20
78.9950145777
 30
0.0
 10
47.8123481542
 20
78.9918256773
 30
0.0
 10
48.1638428647
 20
78.9239797378
 30
0.0
 10
48.5428056723
 20
78.7965958666
 30
0.0
 10
49.085211726
 20
78.5495962286
 30
0.0
 10
49.7637426902
 20
78.1324810587
 30
0.0
 10
50.5402522338
 20
77.5240869684
 30
0.0
 10
51.0275386176
 20
77.063446563
 30
0.0
 10
51.26310051
 20
76.8219896069
 30
0.0
  0
SPLINE
  5
469
100
AcDbEntity
  8
0
100
AcDbSpline
 62
7
  6
BYLAYER
 70
0
 71
3
 72
9
 73
5
 74
0
 42
0.0000001
 43
0.0000001
 44
0.0000000001
 40
0.0
 40
0.0
 40
0.0
 40
0.0
 40
0.4965093863
 40
1.0
 40
1.0
 40
1.0
 40
1.0
 10
43.4531276607
 20
75.6063147084
 30
0.0
 10
44.1223435691
 20
75.6959491743
 30
0.0
 10
45.4823753323
 20
75.7941018409
 30
0.0
 10
46.8451567952
 20
75.7185630022
 30
0.0
 10
47.5240569545
 20
75.6297429679
 30
0.0
  0
SPLINE
  5
46A
100
AcDbEntity
  8
0
100
AcDbSpline
 62
7
  6
BYLAYER
 70
0
 71
3
 72
9
 73
5
 74
0
 42
0.0000001
 43
0.0000001
 44
0.0000000001
 40
0.0
 40
0.0
 40
0.0
 40
0.0
 40
0.2216307734
 40
1.0
 40
1.0
 40
1.0
 40
1.0
 10
35.2226786096
 20
15.4020953011
 30
0.0
 10
35.2290526165
 20
15.3998571417
 30
0.0
 10
35.2580527453
 20
15.39044443
 30
0.0
 10
35.2877198703
 20
15.3832094109
 30
0.0
 10
35.3109222177
 20
15.3782544949
 30
0.0
  0
SPLINE
  5
46B
100
AcDbEntity
  8
0
100
AcDbSpline
 62
7
  6
BYLAYER
 70
0
 71
3
 72
9
 73
5
 74
0
 42
0.0000001
 43
0.0000001
 44
0.0000000001
 40
0.0
 40
0.0
 40
0.0
 40
0.0
 40
0.2352748594
 40
1.0
 40
1.0
 40
1.0
 40
1.0
 10
35.3109222177
 20
15.3782544949
 30
0.0
 10
35.3198937774
 20
15.3763385972
 30
0.0
 10
35.3581262181
 20
15.3686669428
 30
0.0
 10
35.3966888061
 20
15.362683783
 30
0.0
 10
35.4262617913
 20
15.3588674929
 30
0.0
  0
SPLINE
  5
46C
100
AcDbEntity
  8
0
100
AcDbSpline
 62
7
  6
BYLAYER
 70
0
 71
3
 72
11
 73
7
 74
0
 42
0.0000001
 43
0.0000001
 44
0.0000000001
 40
0.0
 40
0.0
 40
0.0
 40
0.0
 40
0.2495887976
 40
0.4993916794
 40
0.7494155463
 40
1.0
 40
1.0
 40
1.0
 40
1.0
 10
16.8031712387
 20
46.5833555895
 30
0.0
 10
16.6172492269
 20
46.5749617642
 30
0.0
 10
16.2456931218
 20
46.5137815153
 30
0.0
 10
15.7278792765
 20
46.2870002913
 30
0.0
 10
15.2945169559
 20
45.9185258109
 30
0.0
 10
15.1114074647
 20
45.5782249689
 30
0.0
 10
15.0628682973
 20
45.3977857778
 30
0.0
  0
SPLINE
  5
46D
100
AcDbEntity
  8
0
100
AcDbSpline
 62
7
  6
BYLAYER
 70
0
 71
3
 72
10
 73
6
 74
0
 42
0.0000001
 43
0.0000001
 44
0.0000000001
 40
0.0
 40
0.0
 40
0.0
 40
0.0
 40
0.2511905927
 40
0.5021204469
 40
1.0
 40
1.0
 40
1.0
 40
1.0
 10
15.0608668326
 20
44.834669236
 30
0.0
 10
15.0845393403
 20
44.7244368885
 30
0.0
 10
15.163863898
 20
44.5099752957
 30
0.0
 10
15.4197956096
 20
44.137331472
 30
0.0
 10
15.6981181743
 20
43.9297601334
 30
0.0
 10
15.8967670463
 20
43.8273994188
 30
0.0
  0
SPLINE
  5
46E
100
AcDbEntity
  8
0
100
AcDbSpline
 62
7
  6
BYLAYER
 70
0
 71
3
 72
9
 73
5
 74
0
 42
0.0000001
 43
0.0000001
 44
0.0000000001
 40
0.0
 40
0.0
 40
0.0
 40
0.0
 40
0.4379567528
 40
1.0
 40
1.0
 40
1.0
 40
1.0
 10
31.8988534753
 20
15.2544181465
 30
0.0
 10
31.8763377105
 20
15.2737976122
 30
0.0
 10
31.814535406
 20
15.3056064418
 30
0.0
 10
31.7478311051
 20
15.3197204951
 30
0.0
 10
31.7100948574
 20
15.3251459965
 30
0.0
  0
SPLINE
  5
46F
100
AcDbEntity
  8
0
100
AcDbSpline
 62
7
  6
BYLAYER
 70
0
 71
3
 72
9
 73
5
 74
0
 42
0.0000001
 43
0.0000001
 44
0.0000000001
 40
0.0
 40
0.0
 40
0.0
 40
0.0
 40
0.2422334206
 40
1.0
 40
1.0
 40
1.0
 40
1.0
 10
31.7100948574
 20
15.3251459965
 30
0.0
 10
31.7062461171
 20
15.3256993463
 30
0.0
 10
31.6903404393
 20
15.3278639939
 30
0.0
 10
31.67437291
 20
15.3295659431
 30
0.0
 10
31.6622562832
 20
15.3306341361
 30
0.0
  0
SPLINE
  5
470
100
AcDbEntity
  8
0
100
AcDbSpline
 62
7
  6
BYLAYER
 70
0
 71
3
 72
9
 73
5
 74
0
 42
0.0000001
 43
0.0000001
 44
0.0000000001
 40
0.0
 40
0.0
 40
0.0
 40
0.0
 40
0.2353862004
 40
1.0
 40
1.0
 40
1.0
 40
1.0
 10
31.6622562832
 20
15.3306341361
 30
0.0
 10
31.653599339
 20
15.3313973259
 30
0.0
 10
31.6167793083
 20
15.3341564524
 30
0.0
 10
31.5798368172
 20
15.3351201517
 30
0.0
 10
31.5516070753
 20
15.3351201517
 30
0.0
  0
SPLINE
  5
471
100
AcDbEntity
  8
0
100
AcDbSpline
 62
7
  6
BYLAYER
 70
0
 71
3
 72
11
 73
7
 74
0
 42
0.0000001
 43
0.0000001
 44
0.0000000001
 40
0.0
 40
0.0
 40
0.0
 40
0.0
 40
0.2485098043
 40
0.4983462554
 40
0.7493261868
 40
1.0
 40
1.0
 40
1.0
 40
1.0
 10
15.0275617755
 20
45.0857499689
 30
0.0
 10
15.0275617756
 20
45.0647566035
 30
0.0
 10
15.0340228296
 20
45.0229311443
 30
0.0
 10
15.0416608793
 20
44.9601835749
 30
0.0
 10
15.0477740116
 20
44.8969175744
 30
0.0
 10
15.0564206376
 20
44.8553733832
 30
0.0
 10
15.0608668326
 20
44.834669236
 30
0.0
  0
SPLINE
  5
472
100
AcDbEntity
  8
0
100
AcDbSpline
 62
7
  6
BYLAYER
 70
0
 71
3
 72
9
 73
5
 74
0
 42
0.0000001
 43
0.0000001
 44
0.0000000001
 40
0.0
 40
0.0
 40
0.0
 40
0.0
 40
0.2682756809
 40
1.0
 40
1.0
 40
1.0
 40
1.0
 10
31.5516070753
 20
15.3351201517
 30
0.0
 10
31.5363034836
 20
15.3351201517
 30
0.0
 10
31.4792680703
 20
15.3344051921
 30
0.0
 10
31.422220786
 20
15.3307055244
 30
0.0
 10
31.3808002978
 20
15.3255453119
 30
0.0
  0
SPLINE
  5
473
100
AcDbEntity
  8
0
100
AcDbSpline
 62
7
  6
BYLAYER
 70
0
 71
3
 72
9
 73
5
 74
0
 42
0.0000001
 43
0.0000001
 44
0.0000000001
 40
0.0
 40
0.0
 40
0.0
 40
0.0
 40
0.2694071845
 40
1.0
 40
1.0
 40
1.0
 40
1.0
 10
31.3808002978
 20
15.3255453119
 30
0.0
 10
31.3687558351
 20
15.3240447987
 30
0.0
 10
31.3241618675
 20
15.3176851156
 30
0.0
 10
31.2799605622
 20
15.3079818635
 30
0.0
 10
31.2485337574
 20
15.2981954545
 30
0.0
  0
SPLINE
  5
474
100
AcDbEntity
  8
0
100
AcDbSpline
 62
7
  6
BYLAYER
 70
0
 71
3
 72
9
 73
5
 74
0
 42
0.0000001
 43
0.0000001
 44
0.0000000001
 40
0.0
 40
0.0
 40
0.0
 40
0.0
 40
0.2687047751
 40
1.0
 40
1.0
 40
1.0
 40
1.0
 10
31.2485337574
 20
15.2981954545
 30
0.0
 10
31.2393130684
 20
15.2953241021
 30
0.0
 10
31.2052942416
 20
15.2837633929
 30
0.0
 10
31.1724398692
 20
15.2683829277
 30
0.0
 10
31.1501734753
 20
15.2544181465
 30
0.0
  0
SPLINE
  5
475
100
AcDbEntity
  8
0
100
AcDbSpline
 62
7
  6
BYLAYER
 70
0
 71
3
 72
11
 73
7
 74
0
 42
0.0000001
 43
0.0000001
 44
0.0000000001
 40
0.0
 40
0.0
 40
0.0
 40
0.0
 40
0.2501447814
 40
0.5012380489
 40
0.750501907
 40
1.0
 40
1.0
 40
1.0
 40
1.0
 10
15.0628682973
 20
45.3977857778
 30
0.0
 10
15.0560333565
 20
45.3723776126
 30
0.0
 10
15.0445952951
 20
45.3208904299
 30
0.0
 10
15.0292877943
 20
45.2433864979
 30
0.0
 10
15.0237705338
 20
45.164398776
 30
0.0
 10
15.0275617754
 20
45.1119933757
 30
0.0
 10
15.0275617755
 20
45.0857499689
 30
0.0
  0
SPLINE
  5
476
100
AcDbEntity
  8
0
100
AcDbSpline
 62
7
  6
BYLAYER
 70
0
 71
3
 72
11
 73
7
 74
0
 42
0.0000001
 43
0.0000001
 44
0.0000000001
 40
0.0
 40
0.0
 40
0.0
 40
0.0
 40
0.234073001
 40
0.477872945
 40
0.7341056548
 40
1.0
 40
1.0
 40
1.0
 40
1.0
 10
16.8031712387
 20
46.5833555895
 30
0.0
 10
16.648276674
 20
46.5732378808
 30
0.0
 10
16.3332314703
 20
46.4844668428
 30
0.0
 10
15.9434388163
 20
46.1747538088
 30
0.0
 10
15.6740590179
 20
45.7331473853
 30
0.0
 10
15.5954093406
 20
45.3891214267
 30
0.0
 10
15.5822753503
 20
45.2132843947
 30
0.0
  0
ENDSEC
  0
SECTION
  2
OBJECTS
  0
DICTIONARY
  5
C
100
AcDbDictionary
280
0
281
1
  3
ACAD_GROUP
350
D
  3
ACAD_MLINESTYLE
350
17
  3
ACAD_LAYOUT
350
1A
  3
ACAD_PLOTSETTINGS
350
19
  3
ACAD_PLOTSTYLENAME
350
E
  0
DICTIONARY
  5
D
102
{ACAD_REACTORS
330
C
102
}
100
AcDbDictionary
280
0
281
1
  0
ACDBDICTIONARYWDFLT
  5
E
102
{ACAD_REACTORS
330
C
102
}
100
AcDbDictionary
281
1
  3
Normal
350
F
100
AcDbDictionaryWithDefault
340
F
  0
DICTIONARY
  5
17
102
{ACAD_REACTORS
330
C
102
}
100
AcDbDictionary
280
0
281
1
  3
Standard
350
18
  0
DICTIONARY
  5
19
102
{ACAD_REACTORS
330
C
102
}
100
AcDbDictionary
281
1
  0
DICTIONARY
  5
1A
102
{ACAD_REACTORS
330
C
102
}
100
AcDbDictionary
281
1
  3
Model
350
477
  3
Layout1
350
478
  0
ACDBPLACEHOLDER
  5
F
102
{ACAD_REACTORS
330
E
102
}
  0
MLINESTYLE
  5
18
102
{ACAD_REACTORS
330
17
102
}
100
AcDbMlineStyle
  2
STANDARD
 70
0
  3

 62
256
 51
90.0
 52
90.0
 71
2
 49
0.5
 62
256
  6
BYLAYER
 49
-0.5
 62
256
  6
BYLAYER
  0
LAYOUT
  5
477
102
{ACAD_REACTORS
330
1A
102
}
100
AcDbPlotSettings
  1

  2
none_device
  4

  6

 40
0.0
 41
0.0
 42
0.0
 43
0.0
 44
210.0
 45
297.0
 46
0.0
 47
0.0
 48
0.0
 49
0.0
140
0.0
141
0.0
142
1.0
143
1.0
 70
1024
 72
1
 73
0
 74
0
  7

 75
0
147
1.0
148
0.0
149
0.0
100
AcDbLayout
  1
Model
 70
0
 71
0
 10
0.0
 20
0.0
 11
210.0
 21
297.0
 12
0.0
 22
0.0
 32
0.0
 14
0.0
 24
0.0
 34
0.0
 15
0.0
 25
0.0
 35
0.0
146
0.0
 13
0.0
 23
0.0
 33
0.0
 16
1.0
 26
0.0
 36
0.0
 17
0.0
 27
1.0
 37
0.0
 76
0
330
212
345
0
346
0
  0
LAYOUT
  5
478
102
{ACAD_REACTORS
330
1A
102
}
100
AcDbPlotSettings
  1

  2
none_device
  4

  6

 40
0.0
 41
0.0
 42
0.0
 43
0.0
 44
210.0
 45
297.0
 46
0.0
 47
0.0
 48
0.0
 49
0.0
140
0.0
141
0.0
142
1.0
143
1.0
 70
0
 72
1
 73
0
 74
0
  7

 75
0
147
1.0
148
0.0
149
0.0
100
AcDbLayout
  1
Layout1
 70
0
 71
1
 10
0.0
 20
0.0
 11
210.0
 21
297.0
 12
0.0
 22
0.0
 32
0.0
 14
0.0
 24
0.0
 34
0.0
 15
0.0
 25
0.0
 35
0.0
146
0.0
 13
0.0
 23
0.0
 33
0.0
 16
1.0
 26
0.0
 36
0.0
 17
0.0
 27
1.0
 37
0.0
 76
0
330
213
345
0
346
0
  0
ENDSEC
  0
EOF
