999
DXF file: C:\Users\sesa63760\Dev\_Creo\CAD\MCADID0000928_3D-CAD\drw0001_1.dxf
999
Pro/ENGINEER 2019471 by Parametric Technology Corporation
  0
SECTION
  2
HEADER
  9
$ACADVER
  1
AC1024
  9
$DWGCODEPAGE
  3
ANSI_1252
  9
$EXTMAX
 10
222.9141488789
 20
315.2642962716
 30
0.0
  9
$EXTMIN
 10
0.0
 20
0.0
 30
0.0
  9
$LIMMIN
 10
0.0
 20
0.0
  9
$LIMMAX
 10
222.9141488789
 20
315.2642962716
  9
$VIEWCTR
 10
111.4570744395
 20
157.6321481358
  9
$VIEWSIZE
 40
315.2642962716
  9
$CLAYER
  8
0
  9
$LTSCALE
 40
20.5505615347
  9
$CELTYPE
  6
BYLAYER
  9
$DIMSCALE
 40
1.0
  9
$DIMASZ
 40
2.6537398676
  9
$DIMEXO
 40
1.0
  9
$DIMDLI
 40
14.1985697876
  9
$DIMEXE
 40
1.0
  9
$DIMCEN
 40
3.3628191602
  9
$DIMLFAC
 40
1.0
  9
$DIMBLK
  1
_FILLED
  9
$DIMALT
 70
0
  9
$DIMALTF
 40
0.0393700787
  9
$DIMTXT
 40
3.7152358146
  9
$DIMTOL
 70
1
  9
$DIMLIM
 70
0
  9
$DIMTFAC
 40
1.0
  9
$DIMTP
 40
0.01
  9
$DIMTM
 40
0.01
  9
$DIMGAP
 40
0.625
  9
$DIMDSEP
 70
46
  9
$AUNITS
 70
0
  9
$PDMODE
 70
3
  9
$PDSIZE
 40
0.3125
  9
$HANDSEED
  5
5D9
  9
$TILEMODE
 70
1
  9
$MEASUREMENT
 70
1
  9
$INSUNITS
 70
4
  0
ENDSEC
  0
SECTION
  2
CLASSES
  0
CLASS
  1
ACDBDICTIONARYWDFLT
  2
AcDbDictionaryWithDefault
  3
AutoCAD 2000
 90
0
 91
1
280
0
281
0
  0
CLASS
  1
ACDBPLACEHOLDER
  2
AcDbPlaceHolder
  3
AutoCAD 2000
 90
0
 91
1
280
0
281
0
  0
CLASS
  1
LAYOUT
  2
AcDbLayout
  3
AutoCAD 2000
 90
0
 91
0
280
0
281
0
  0
ENDSEC
  0
SECTION
  2
TABLES
  0
TABLE
  2
VPORT
  5
8
100
AcDbSymbolTable
 70
2
  0
VPORT
  5
1F4
100
AcDbSymbolTableRecord
100
AcDbViewportTableRecord
  2
*ACTIVE
 70
0
 10
0.0
 20
0.0
 11
1.0
 21
1.0
 12
111.4570744395
 22
157.6321481358
 13
0.0
 23
0.0
 14
1.0
 24
1.0
 15
0.0
 25
0.0
 16
0.0
 26
0.0
 36
1.0
 17
0.0
 27
0.0
 37
0.0
 40
315.2642962716
 41
0.7070707071
 42
50.0
 43
0.0
 44
0.0
 50
0.0
 51
0.0
 71
0
 72
100
 73
1
 74
1
 75
0
 76
0
 77
0
 78
0
  0
ENDTAB
  0
TABLE
  2
LTYPE
  5
5
100
AcDbSymbolTable
 70
6
  0
LTYPE
  5
14
100
AcDbSymbolTableRecord
100
AcDbLinetypeTableRecord
  2
BYBLOCK
 70
0
  3

 72
65
 73
0
 40
0.0
  0
LTYPE
  5
15
100
AcDbSymbolTableRecord
100
AcDbLinetypeTableRecord
  2
BYLAYER
 70
0
  3

 72
65
 73
0
 40
0.0
  0
LTYPE
  5
16
100
AcDbSymbolTableRecord
100
AcDbLinetypeTableRecord
  2
CONTINUOUS
 70
64
  3
Solid line
 72
65
 73
0
 40
0.0
  0
LTYPE
  5
1F5
100
AcDbSymbolTableRecord
100
AcDbLinetypeTableRecord
  2
CENTER
 70
64
  3
____ _ ____ _ ____ _ ____ _ ____ _ ____ _ ____
 72
65
 73
4
 40
0.6
 49
0.375
 74
0
 49
-0.075
 74
0
 49
0.075
 74
0
 49
-0.075
 74
0
  0
LTYPE
  5
1F6
100
AcDbSymbolTableRecord
100
AcDbLinetypeTableRecord
  2
HIDDEN
 70
64
  3
- - - - - - - - - - - - - - - - - - - -
 72
65
 73
2
 40
0.2
 49
0.1
 74
0
 49
-0.1
 74
0
  0
LTYPE
  5
1F7
100
AcDbSymbolTableRecord
100
AcDbLinetypeTableRecord
  2
PHANTOM
 70
64
  3
_____ _ _ _____ _ _ _____ _ _ _____
 72
65
 73
6
 40
0.8
 49
0.45
 74
0
 49
-0.05
 74
0
 49
0.1
 74
0
 49
-0.05
 74
0
 49
0.1
 74
0
 49
-0.05
 74
0
  0
LTYPE
  5
1F8
100
AcDbSymbolTableRecord
100
AcDbLinetypeTableRecord
  2
DOT
 70
64
  3
. . . . . . . . . . . . . . . . . . . .
 72
65
 73
2
 40
0.2
 49
0.1
 74
0
 49
-0.1
 74
0
  0
LTYPE
  5
1F9
100
AcDbSymbolTableRecord
100
AcDbLinetypeTableRecord
  2
DASHED
 70
64
  3
- - - - - - - - - - - - - - - - - - - -
 72
65
 73
2
 40
0.2
 49
0.1
 74
0
 49
-0.1
 74
0
  0
ENDTAB
  0
TABLE
  2
LAYER
  5
2
100
AcDbSymbolTable
 70
36
  0
LAYER
  5
10
100
AcDbSymbolTableRecord
100
AcDbLayerTableRecord
  2
0
 70
0
 62
7
  6
CONTINUOUS
370
-3
390
F
  0
LAYER
  5
1FA
100
AcDbSymbolTableRecord
100
AcDbLayerTableRecord
  2
DEFAULT_1
 70
0
 62
7
  6
CENTER
370
-3
390
F
  0
LAYER
  5
1FB
100
AcDbSymbolTableRecord
100
AcDbLayerTableRecord
  2
DEFAULT_2
 70
0
 62
8
  6
HIDDEN
370
-3
390
F
  0
LAYER
  5
1FC
100
AcDbSymbolTableRecord
100
AcDbLayerTableRecord
  2
DEFAULT_3
 70
0
 62
7
  6
PHANTOM
370
-3
390
F
  0
LAYER
  5
1FD
100
AcDbSymbolTableRecord
100
AcDbLayerTableRecord
  2
00_COMPONENTS
 70
0
 62
7
  6
CONTINUOUS
370
-3
390
F
  0
LAYER
  5
1FE
100
AcDbSymbolTableRecord
100
AcDbLayerTableRecord
  2
01_1_DEFAULT_DATUMS
 70
0
 62
7
  6
CONTINUOUS
370
-3
390
F
  0
LAYER
  5
1FF
100
AcDbSymbolTableRecord
100
AcDbLayerTableRecord
  2
01_PLANES
 70
0
 62
7
  6
CONTINUOUS
370
-3
390
F
  0
LAYER
  5
200
100
AcDbSymbolTableRecord
100
AcDbLayerTableRecord
  2
02_COORD_SYS
 70
0
 62
7
  6
CONTINUOUS
370
-3
390
F
  0
LAYER
  5
201
100
AcDbSymbolTableRecord
100
AcDbLayerTableRecord
  2
03_AXES
 70
0
 62
7
  6
CONTINUOUS
370
-3
390
F
  0
LAYER
  5
202
100
AcDbSymbolTableRecord
100
AcDbLayerTableRecord
  2
04_POINTS
 70
0
 62
7
  6
CONTINUOUS
370
-3
390
F
  0
LAYER
  5
203
100
AcDbSymbolTableRecord
100
AcDbLayerTableRecord
  2
05_CURVES
 70
0
 62
7
  6
CONTINUOUS
370
-3
390
F
  0
LAYER
  5
204
100
AcDbSymbolTableRecord
100
AcDbLayerTableRecord
  2
06_SURFS
 70
0
 62
7
  6
CONTINUOUS
370
-3
390
F
  0
LAYER
  5
205
100
AcDbSymbolTableRecord
100
AcDbLayerTableRecord
  2
07_COSMETICS
 70
0
 62
7
  6
CONTINUOUS
370
-3
390
F
  0
LAYER
  5
206
100
AcDbSymbolTableRecord
100
AcDbLayerTableRecord
  2
10_NOTES
 70
0
 62
7
  6
CONTINUOUS
370
-3
390
F
  0
LAYER
  5
207
100
AcDbSymbolTableRecord
100
AcDbLayerTableRecord
  2
11_NOTES_PUB
 70
0
 62
7
  6
CONTINUOUS
370
-3
390
F
  0
LAYER
  5
208
100
AcDbSymbolTableRecord
100
AcDbLayerTableRecord
  2
13_REF_GTOL
 70
0
 62
7
  6
CONTINUOUS
370
-3
390
F
  0
LAYER
  5
209
100
AcDbSymbolTableRecord
100
AcDbLayerTableRecord
  2
16_MISC
 70
0
 62
7
  6
CONTINUOUS
370
-3
390
F
  0
LAYER
  5
20A
100
AcDbSymbolTableRecord
100
AcDbLayerTableRecord
  2
17_NO_PRINT
 70
0
 62
7
  6
CONTINUOUS
370
-3
390
F
  0
LAYER
  5
20B
100
AcDbSymbolTableRecord
100
AcDbLayerTableRecord
  2
18_DATUM_CAMS_JOINTS
 70
0
 62
7
  6
CONTINUOUS
370
-3
390
F
  0
LAYER
  5
20C
100
AcDbSymbolTableRecord
100
AcDbLayerTableRecord
  2
19_DATUM_FUNCTIONAL
 70
0
 62
7
  6
CONTINUOUS
370
-3
390
F
  0
LAYER
  5
20D
100
AcDbSymbolTableRecord
100
AcDbLayerTableRecord
  2
20_DATUM_KINEMATIC_SCHEME
 70
0
 62
7
  6
CONTINUOUS
370
-3
390
F
  0
ENDTAB
  0
TABLE
  2
STYLE
  5
3
100
AcDbSymbolTable
 70
1
  0
STYLE
  5
11
100
AcDbSymbolTableRecord
100
AcDbTextStyleTableRecord
  2
STANDARD
 70
0
 40
0.0
 41
0.8
 50
0.0
 71
0
 42
0.2
  3
txt
  4

  0
STYLE
  5
20E
100
AcDbSymbolTableRecord
100
AcDbTextStyleTableRecord
  2
TEXTSTYLE_1
 70
0
 40
0.0
 41
0.8
 50
0.0
 71
0
 42
0.2
  3
gdt
  4

  0
ENDTAB
  0
TABLE
  2
VIEW
  5
6
100
AcDbSymbolTable
 70
0
  0
ENDTAB
  0
TABLE
  2
UCS
  5
7
100
AcDbSymbolTable
 70
0
  0
ENDTAB
  0
TABLE
  2
APPID
  5
9
100
AcDbSymbolTable
 70
1
  0
APPID
  5
20F
100
AcDbSymbolTableRecord
100
AcDbRegAppTableRecord
  2
ACAD
 70
0
  0
ENDTAB
  0
TABLE
  2
BLOCK_RECORD
  5
1
100
AcDbSymbolTable
 70
0
  0
BLOCK_RECORD
  5
210
100
AcDbSymbolTableRecord
100
AcDbBlockTableRecord
  2
*Model_Space
  0
BLOCK_RECORD
  5
211
100
AcDbSymbolTableRecord
100
AcDbBlockTableRecord
  2
*Paper_Space
  0
BLOCK_RECORD
  5
212
100
AcDbSymbolTableRecord
100
AcDbBlockTableRecord
  2
_FILLED
  0
ENDTAB
  0
TABLE
  2
DIMSTYLE
  5
A
100
AcDbSymbolTable
 70
1
100
AcDbDimStyleTable
 71
0
  0
DIMSTYLE
105
213
100
AcDbSymbolTableRecord
100
AcDbDimStyleTableRecord
  2
STANDARD
 70
0
  3

  4

 40
1.0
 41
2.6537398676
 42
1.0
 43
0.38
 44
1.0
 45
0.0
 46
0.0
 47
0.01
 48
0.01
140
3.7152358146
141
0.09
142
0.0
143
25.4
144
1.0
145
0.0
146
1.0
147
0.625
 71
1
 72
0
 73
0
 74
0
 75
0
 76
0
 77
1
 78
8
 79
2
170
0
171
1
172
0
173
0
174
0
175
0
176
0
177
0
178
0
270
2
179
2
271
2
272
2
273
2
274
2
275
0
280
0
281
0
282
0
283
1
284
8
285
0
286
0
287
3
288
0
340
11
278
46
341
212
342
212
343
212
344
212
  0
ENDTAB
  0
ENDSEC
  0
SECTION
  2
BLOCKS
  0
BLOCK
  5
20
100
AcDbEntity
  8
0
100
AcDbBlockBegin
  2
*Model_Space
 70
0
 10
0.0
 20
0.0
 30
0.0
  3
*Model_Space
  1

  0
ENDBLK
  5
21
100
AcDbEntity
  8
0
100
AcDbBlockEnd
  0
BLOCK
  5
1C
100
AcDbEntity
  8
0
100
AcDbBlockBegin
  2
*Paper_Space
 70
0
 10
0.0
 20
0.0
 30
0.0
  3
*Paper_Space
  1

  0
ENDBLK
  5
1D
100
AcDbEntity
  8
0
100
AcDbBlockEnd
  0
BLOCK
  5
214
100
AcDbEntity
  8
0
100
AcDbBlockBegin
  2
_FILLED
 70
64
 10
0.0
 20
0.0
  3
_FILLED
  1

  0
SOLID
  5
215
100
AcDbEntity
  8
0
  6
BYBLOCK
 62
0
100
AcDbTrace
 10
0.0
 20
0.0
 11
-1.0
 21
0.25
 12
-1.0
 22
-0.25
 13
-1.0
 23
-0.25
  0
ENDBLK
  5
216
100
AcDbEntity
  8
0
  6
BYBLOCK
 62
0
100
AcDbBlockEnd
  0
ENDSEC
  0
SECTION
  2
ENTITIES
  0
LINE
  5
217
100
AcDbEntity
  8
0
100
AcDbLine
 62
7
  6
CONTINUOUS
 10
34.6994068673
 20
96.7610831767
 11
34.5529696324
 21
96.9652052536
  0
LINE
  5
218
100
AcDbEntity
  8
0
100
AcDbLine
 62
7
  6
CONTINUOUS
 10
34.6994068673
 20
96.7610831767
 11
102.5819404814
 21
57.5699707428
  0
LINE
  5
219
100
AcDbEntity
  8
0
100
AcDbLine
 62
7
  6
CONTINUOUS
 10
106.1174891071
 20
55.5287669702
 11
108.5923731452
 21
54.0999243293
  0
LINE
  5
21A
100
AcDbEntity
  8
0
100
AcDbLine
 62
7
  6
CONTINUOUS
 10
25.8606059582
 20
149.3030931483
 11
25.8606059582
 21
139.9133153513
  0
LINE
  5
21B
100
AcDbEntity
  8
0
100
AcDbLine
 62
7
  6
CONTINUOUS
 10
30.0537704628
 20
148.8626422847
 11
30.0537704628
 21
148.5151862783
  0
LINE
  5
21C
100
AcDbEntity
  8
0
100
AcDbLine
 62
7
  6
CONTINUOUS
 10
36.2236649688
 20
203.5809070554
 11
36.1136292616
 21
203.499634693
  0
LINE
  5
21D
100
AcDbEntity
  8
0
100
AcDbLine
 62
7
  6
CONTINUOUS
 10
108.5923731452
 20
60.6319436664
 11
106.1174891071
 21
62.0607863072
  0
LINE
  5
21E
100
AcDbEntity
  8
0
100
AcDbLine
 62
7
  6
CONTINUOUS
 10
102.5819404814
 20
64.1019900798
 11
98.2095401086
 21
66.6263395036
  0
LINE
  5
21F
100
AcDbEntity
  8
0
100
AcDbLine
 62
7
  6
CONTINUOUS
 10
40.6173708029
 20
101.8108691793
 11
40.1622422392
 21
131.6564485899
  0
LINE
  5
220
100
AcDbEntity
  8
0
100
AcDbLine
 62
7
  6
CONTINUOUS
 10
39.7493371466
 20
162.1440084568
 11
39.7498859017
 21
160.0636478293
  0
LINE
  5
221
100
AcDbEntity
  8
0
100
AcDbLine
 62
7
  6
CONTINUOUS
 10
33.9923000861
 20
153.9979009178
 11
33.9923000861
 21
204.7243569566
  0
LINE
  5
222
100
AcDbEntity
  8
0
100
AcDbLine
 62
7
  6
CONTINUOUS
 10
34.5529587859
 20
96.9652052536
 11
34.5529587859
 21
134.8948966381
  0
LINE
  5
223
100
AcDbEntity
  8
0
100
AcDbLine
 62
7
  6
CONTINUOUS
 10
34.6994068673
 20
96.7610831767
 11
34.6969319486
 21
134.8117755743
  0
LINE
  5
224
100
AcDbEntity
  8
0
100
AcDbLine
 62
7
  6
CONTINUOUS
 10
36.1136292616
 20
203.499634693
 11
36.1136292616
 21
162.4895574181
  0
LINE
  5
225
100
AcDbEntity
  8
0
100
AcDbLine
 62
7
  6
CONTINUOUS
 10
36.3964731516
 20
203.3442828482
 11
36.3964731516
 21
182.1672698525
  0
LINE
  5
226
100
AcDbEntity
  8
0
100
AcDbLine
 62
7
  6
CONTINUOUS
 10
36.4671841241
 20
182.1264457771
 11
36.4671841241
 21
163.4285404248
  0
LINE
  5
227
100
AcDbEntity
  8
0
100
AcDbLine
 62
7
  6
CONTINUOUS
 10
37.8814006305
 20
100.2312654927
 11
37.8814006305
 21
132.9732633163
  0
LINE
  5
228
100
AcDbEntity
  8
0
100
AcDbLine
 62
7
  6
CONTINUOUS
 10
38.5178129253
 20
160.7749694016
 11
38.5178129253
 21
162.8162254444
  0
LINE
  5
229
100
AcDbEntity
  8
0
100
AcDbLine
 62
7
  6
CONTINUOUS
 10
39.5784669148
 20
181.9631912915
 11
39.5784669148
 21
184.4126985428
  0
LINE
  5
22A
100
AcDbEntity
  8
0
100
AcDbLine
 62
7
  6
CONTINUOUS
 10
39.5784669148
 20
186.4539545857
 11
39.5784669148
 21
188.9034618371
  0
LINE
  5
22B
100
AcDbEntity
  8
0
100
AcDbLine
 62
7
  6
CONTINUOUS
 10
39.5784669148
 20
190.9447178799
 11
39.5784669148
 21
193.3942251313
  0
LINE
  5
22C
100
AcDbEntity
  8
0
100
AcDbLine
 62
7
  6
CONTINUOUS
 10
39.6491778873
 20
173.0224908693
 11
39.6491778873
 21
175.4719981207
  0
LINE
  5
22D
100
AcDbEntity
  8
0
100
AcDbLine
 62
7
  6
CONTINUOUS
 10
39.9988633465
 20
146.7598316765
 11
39.9988633465
 21
144.4736249085
  0
LINE
  5
22E
100
AcDbEntity
  8
0
100
AcDbLine
 62
7
  6
CONTINUOUS
 10
40.3562876124
 20
159.8768124076
 11
40.3562876124
 21
160.040112891
  0
LINE
  5
22F
100
AcDbEntity
  8
0
100
AcDbLine
 62
7
  6
CONTINUOUS
 10
41.4169522002
 20
161.4306245938
 11
41.4169593064
 21
163.0349639265
  0
LINE
  5
230
100
AcDbEntity
  8
0
100
AcDbLine
 62
7
  6
CONTINUOUS
 10
41.7705070627
 20
161.2265042165
 11
41.7705070627
 21
160.409504105
  0
LINE
  5
231
100
AcDbEntity
  8
0
100
AcDbLine
 62
7
  6
CONTINUOUS
 10
117.9319140774
 20
66.2123420101
 11
110.0012952147
 21
70.3259995067
  0
LINE
  5
232
100
AcDbEntity
  8
0
100
AcDbLine
 62
7
  6
CONTINUOUS
 10
47.1934912468
 20
98.0142301623
 11
46.7383626831
 21
127.8598095728
  0
LINE
  5
233
100
AcDbEntity
  8
0
100
AcDbLine
 62
7
  6
CONTINUOUS
 10
47.5275441487
 20
157.6532636526
 11
47.5280928784
 21
155.5729995295
  0
LINE
  5
234
100
AcDbEntity
  8
0
100
AcDbLine
 62
7
  6
CONTINUOUS
 10
42.1240472055
 20
160.205392226
 11
42.1240472055
 21
159.9374509395
  0
LINE
  5
235
100
AcDbEntity
  8
0
100
AcDbLine
 62
7
  6
CONTINUOUS
 10
42.1240589813
 20
130.5238187892
 11
42.1240589813
 21
97.7818209656
  0
LINE
  5
236
100
AcDbEntity
  8
0
100
AcDbLine
 62
7
  6
CONTINUOUS
 10
44.4575210743
 20
96.4346264757
 11
44.4575210743
 21
129.1766242993
  0
LINE
  5
237
100
AcDbEntity
  8
0
100
AcDbLine
 62
7
  6
CONTINUOUS
 10
44.8817721896
 20
190.3323669462
 11
44.8817721896
 21
190.2507187953
  0
LINE
  5
238
100
AcDbEntity
  8
0
100
AcDbLine
 62
7
  6
CONTINUOUS
 10
44.8817721896
 20
185.8416036519
 11
44.8817721896
 21
185.759955501
  0
LINE
  5
239
100
AcDbEntity
  8
0
100
AcDbLine
 62
7
  6
CONTINUOUS
 10
44.8817721896
 20
181.3508403577
 11
44.8817721896
 21
181.2691922068
  0
LINE
  5
23A
100
AcDbEntity
  8
0
100
AcDbLine
 62
7
  6
CONTINUOUS
 10
44.9988633465
 20
146.7598316765
 11
44.9988633465
 21
144.4736249085
  0
LINE
  5
23B
100
AcDbEntity
  8
0
100
AcDbLine
 62
7
  6
CONTINUOUS
 10
47.1509694804
 20
168.6914274554
 11
47.1509694804
 21
171.1409347068
  0
LINE
  5
23C
100
AcDbEntity
  8
0
100
AcDbLine
 62
7
  6
CONTINUOUS
 10
48.134494589
 20
155.3861641078
 11
48.134494589
 21
155.5494645913
  0
LINE
  5
23D
100
AcDbEntity
  8
0
100
AcDbLine
 62
7
  6
CONTINUOUS
 10
48.3528781654
 20
170.4470281022
 11
48.3528781654
 21
167.9975208508
  0
LINE
  5
23E
100
AcDbEntity
  8
0
100
AcDbLine
 62
7
  6
CONTINUOUS
 10
48.7001794252
 20
126.7271797722
 11
48.7001794252
 21
93.9851819486
  0
LINE
  5
23F
100
AcDbEntity
  8
0
100
AcDbLine
 62
7
  6
CONTINUOUS
 10
49.5487140393
 20
155.8760864662
 11
49.5487140393
 21
157.5090913005
  0
LINE
  5
240
100
AcDbEntity
  8
0
100
AcDbLine
 62
7
  6
CONTINUOUS
 10
49.9022541821
 20
155.6719745872
 11
49.9022541821
 21
155.4468026398
  0
LINE
  5
241
100
AcDbEntity
  8
0
100
AcDbLine
 62
7
  6
CONTINUOUS
 10
50.3265303211
 20
154.0797795164
 11
50.3265303211
 21
155.4270241857
  0
LINE
  5
242
100
AcDbEntity
  8
0
100
AcDbLine
 62
7
  6
CONTINUOUS
 10
51.0336415182
 20
92.6379874586
 11
51.0336415182
 21
123.256828101
  0
LINE
  5
243
100
AcDbEntity
  8
0
100
AcDbLine
 62
7
  6
CONTINUOUS
 10
44.7811030355
 20
157.158938976
 11
44.7816517906
 21
159.2386659701
  0
LINE
  5
244
100
AcDbEntity
  8
0
100
AcDbLine
 62
7
  6
CONTINUOUS
 10
49.861352681
 20
158.4050149329
 11
49.8604560032
 21
158.3451788718
  0
LINE
  5
245
100
AcDbEntity
  8
0
100
AcDbLine
 62
7
  6
CONTINUOUS
 10
149.6039717724
 20
260.6733660618
 11
69.3476862486
 21
214.3376545974
  0
LINE
  5
246
100
AcDbEntity
  8
0
100
AcDbLine
 62
7
  6
CONTINUOUS
 10
115.2033859893
 20
238.6077787233
 11
102.9704896055
 21
231.5451548613
  0
LINE
  5
247
100
AcDbEntity
  8
0
100
AcDbLine
 62
7
  6
CONTINUOUS
 10
115.2033868725
 20
238.485305987
 11
103.1826216399
 21
231.5451553712
  0
LINE
  5
248
100
AcDbEntity
  8
0
100
AcDbLine
 62
7
  6
CONTINUOUS
 10
41.6997784264
 20
192.1694503415
 11
39.5784669148
 21
190.9447178799
  0
LINE
  5
249
100
AcDbEntity
  8
0
100
AcDbLine
 62
7
  6
CONTINUOUS
 10
132.9870904772
 20
242.9147793619
 11
124.5018444306
 21
238.0158495154
  0
LINE
  5
24A
100
AcDbEntity
  8
0
100
AcDbLine
 62
7
  6
CONTINUOUS
 10
155.4376461406
 20
254.6518038847
 11
143.4522360998
 21
247.7320654766
  0
LINE
  5
24B
100
AcDbEntity
  8
0
100
AcDbLine
 62
7
  6
CONTINUOUS
 10
73.5903445995
 20
207.397446776
 11
74.4388692041
 21
207.8873397607
  0
LINE
  5
24C
100
AcDbEntity
  8
0
100
AcDbLine
 62
7
  6
CONTINUOUS
 10
132.9870904772
 20
241.2817745276
 11
125.9160883194
 21
237.1993538972
  0
LINE
  5
24D
100
AcDbEntity
  8
0
100
AcDbLine
 62
7
  6
CONTINUOUS
 10
44.8817721896
 20
190.3323669462
 11
44.8110618059
 21
190.2915425308
  0
LINE
  5
24E
100
AcDbEntity
  8
0
100
AcDbLine
 62
7
  6
CONTINUOUS
 10
53.7696116906
 20
94.2175911452
 11
53.3144831269
 21
124.0631705558
  0
LINE
  5
24F
100
AcDbEntity
  8
0
100
AcDbLine
 62
7
  6
CONTINUOUS
 10
60.3457321345
 20
90.4209521282
 11
59.8906035708
 21
120.2665315387
  0
LINE
  5
250
100
AcDbEntity
  8
0
100
AcDbLine
 62
7
  6
CONTINUOUS
 10
55.3057510998
 20
153.1627118574
 11
55.306299855
 21
151.0823512298
  0
LINE
  5
251
100
AcDbEntity
  8
0
100
AcDbLine
 62
7
  6
CONTINUOUS
 10
51.2104174775
 20
154.9167232426
 11
51.2104174775
 21
153.5694785733
  0
LINE
  5
252
100
AcDbEntity
  8
0
100
AcDbLine
 62
7
  6
CONTINUOUS
 10
52.094297274
 20
154.4064265486
 11
52.094297274
 21
154.0797837656
  0
LINE
  5
253
100
AcDbEntity
  8
0
100
AcDbLine
 62
7
  6
CONTINUOUS
 10
52.4832149828
 20
152.8346452151
 11
52.4832149828
 21
154.1818898844
  0
LINE
  5
254
100
AcDbEntity
  8
0
100
AcDbLine
 62
7
  6
CONTINUOUS
 10
53.7206614177
 20
185.2294100409
 11
53.7206614177
 21
182.7799027895
  0
LINE
  5
255
100
AcDbEntity
  8
0
100
AcDbLine
 62
7
  6
CONTINUOUS
 10
53.7206614177
 20
180.7386467467
 11
53.7206614177
 21
178.2891394953
  0
LINE
  5
256
100
AcDbEntity
  8
0
100
AcDbLine
 62
7
  6
CONTINUOUS
 10
53.7206614177
 20
176.2478834524
 11
53.7206614177
 21
173.7983762011
  0
LINE
  5
257
100
AcDbEntity
  8
0
100
AcDbLine
 62
7
  6
CONTINUOUS
 10
55.2762998691
 20
120.8073835739
 11
55.2762998691
 21
90.1885429315
  0
LINE
  5
258
100
AcDbEntity
  8
0
100
AcDbLine
 62
7
  6
CONTINUOUS
 10
55.3926290352
 20
163.9332107381
 11
55.3926290352
 21
166.3827179895
  0
LINE
  5
259
100
AcDbEntity
  8
0
100
AcDbLine
 62
7
  6
CONTINUOUS
 10
56.2662564282
 20
150.8546959143
 11
56.2662564282
 21
148.8950901132
  0
LINE
  5
25A
100
AcDbEntity
  8
0
100
AcDbLine
 62
7
  6
CONTINUOUS
 10
56.5945377202
 20
165.6888113849
 11
56.5945377202
 21
163.2393041335
  0
LINE
  5
25B
100
AcDbEntity
  8
0
100
AcDbLine
 62
7
  6
CONTINUOUS
 10
56.7965843062
 20
150.3443766125
 11
56.7965843062
 21
149.5278741954
  0
LINE
  5
25C
100
AcDbEntity
  8
0
100
AcDbLine
 62
7
  6
CONTINUOUS
 10
56.9733661534
 20
191.4644768916
 11
56.9733661534
 21
184.361125353
  0
LINE
  5
25D
100
AcDbEntity
  8
0
100
AcDbLine
 62
7
  6
CONTINUOUS
 10
56.9733732596
 20
154.053667327
 11
56.9733661534
 21
152.4493279943
  0
LINE
  5
25E
100
AcDbEntity
  8
0
100
AcDbLine
 62
7
  6
CONTINUOUS
 10
57.326921016
 20
147.8744777728
 11
57.326921016
 21
149.4258323654
  0
LINE
  5
25F
100
AcDbEntity
  8
0
100
AcDbLine
 62
7
  6
CONTINUOUS
 10
57.6097619621
 20
88.8413484416
 11
57.6097619621
 21
121.5833462652
  0
LINE
  5
260
100
AcDbEntity
  8
0
100
AcDbLine
 62
7
  6
CONTINUOUS
 10
57.6804641027
 20
150.8546818049
 11
57.6804641027
 21
151.2240939269
  0
LINE
  5
261
100
AcDbEntity
  8
0
100
AcDbLine
 62
7
  6
CONTINUOUS
 10
58.7409520524
 20
219.7600668128
 11
58.7409520524
 21
219.3912402868
  0
LINE
  5
262
100
AcDbEntity
  8
0
100
AcDbLine
 62
7
  6
CONTINUOUS
 10
52.5593100121
 20
152.6682906763
 11
52.5598587418
 21
154.7479211953
  0
LINE
  5
263
100
AcDbEntity
  8
0
100
AcDbLine
 62
7
  6
CONTINUOUS
 10
57.345658989
 20
152.234389488
 11
57.3454434488
 21
151.4175138159
  0
LINE
  5
264
100
AcDbEntity
  8
0
100
AcDbLine
 62
7
  6
CONTINUOUS
 10
41.6997784264
 20
187.6786870473
 11
39.5784669148
 21
186.4539545857
  0
LINE
  5
265
100
AcDbEntity
  8
0
100
AcDbLine
 62
7
  6
CONTINUOUS
 10
132.9870993091
 20
240.3019978902
 11
126.7646163238
 21
236.7094671081
  0
LINE
  5
266
100
AcDbEntity
  8
0
100
AcDbLine
 62
7
  6
CONTINUOUS
 10
155.4376461406
 20
253.0187990505
 11
144.8664799886
 21
246.9155698583
  0
LINE
  5
267
100
AcDbEntity
  8
0
100
AcDbLine
 62
7
  6
CONTINUOUS
 10
44.8817721896
 20
185.8416036519
 11
44.8110618059
 21
185.8007792366
  0
LINE
  5
268
100
AcDbEntity
  8
0
100
AcDbLine
 62
7
  6
CONTINUOUS
 10
41.6997784264
 20
183.1879237531
 11
39.5784669148
 21
181.9631912915
  0
LINE
  5
269
100
AcDbEntity
  8
0
100
AcDbLine
 62
7
  6
CONTINUOUS
 10
45.8718180379
 20
185.1883651951
 11
45.9425827431
 21
185.2292209729
  0
LINE
  5
26A
100
AcDbEntity
  8
0
100
AcDbLine
 62
7
  6
CONTINUOUS
 10
49.760988732
 20
187.4337655391
 11
49.8317534372
 21
187.4746213168
  0
LINE
  5
26B
100
AcDbEntity
  8
0
100
AcDbLine
 62
7
  6
CONTINUOUS
 10
132.9871611324
 20
233.1169604612
 11
139.5988603961
 21
236.934204025
  0
LINE
  5
26C
100
AcDbEntity
  8
0
100
AcDbLine
 62
7
  6
CONTINUOUS
 10
157.5590106437
 20
246.8951673366
 11
151.2304675149
 21
243.2414030676
  0
LINE
  5
26D
100
AcDbEntity
  8
0
100
AcDbLine
 62
7
  6
CONTINUOUS
 10
157.5590106437
 20
246.7318668531
 11
151.3718919038
 21
243.1597535058
  0
LINE
  5
26E
100
AcDbEntity
  8
0
100
AcDbLine
 62
7
  6
CONTINUOUS
 10
83.3412904406
 20
203.7597760878
 11
82.8180305393
 21
203.4576736462
  0
LINE
  5
26F
100
AcDbEntity
  8
0
100
AcDbLine
 62
7
  6
CONTINUOUS
 10
52.6599791662
 20
185.8417186464
 11
52.5892687825
 21
185.800894231
  0
LINE
  5
270
100
AcDbEntity
  8
0
100
AcDbLine
 62
7
  6
CONTINUOUS
 10
44.8817721896
 20
181.3508403577
 11
44.8110618059
 21
181.3100159423
  0
LINE
  5
271
100
AcDbEntity
  8
0
100
AcDbLine
 62
7
  6
CONTINUOUS
 10
91.5086728408
 20
102.0122437016
 11
25.8606059582
 21
139.9133153513
  0
LINE
  5
272
100
AcDbEntity
  8
0
100
AcDbLine
 62
7
  6
CONTINUOUS
 10
66.9218525784
 20
86.6243131112
 11
66.4667240147
 21
116.4698925217
  0
LINE
  5
273
100
AcDbEntity
  8
0
100
AcDbLine
 62
7
  6
CONTINUOUS
 10
63.0839580764
 20
148.6720635576
 11
63.0845068316
 21
146.5917029301
  0
LINE
  5
274
100
AcDbEntity
  8
0
100
AcDbLine
 62
7
  6
CONTINUOUS
 10
60.5353776696
 20
134.6146692295
 11
60.5353776696
 21
132.3284624615
  0
LINE
  5
275
100
AcDbEntity
  8
0
100
AcDbLine
 62
7
  6
CONTINUOUS
 10
60.8624696417
 20
147.3846285928
 11
60.8624696417
 21
145.8332740002
  0
LINE
  5
276
100
AcDbEntity
  8
0
100
AcDbLine
 62
7
  6
CONTINUOUS
 10
61.3927975196
 20
146.874309291
 11
61.3927975196
 21
147.5683896612
  0
LINE
  5
277
100
AcDbEntity
  8
0
100
AcDbLine
 62
7
  6
CONTINUOUS
 10
61.4281574218
 20
171.7980592282
 11
61.4281574218
 21
167.7155471425
  0
LINE
  5
278
100
AcDbEntity
  8
0
100
AcDbLine
 62
7
  6
CONTINUOUS
 10
61.8524203129
 20
119.1339017381
 11
61.8524203129
 21
86.3919039145
  0
LINE
  5
279
100
AcDbEntity
  8
0
100
AcDbLine
 62
7
  6
CONTINUOUS
 10
61.9231342294
 20
145.629164077
 11
61.9231342294
 21
147.2622065458
  0
LINE
  5
27A
100
AcDbEntity
  8
0
100
AcDbLine
 62
7
  6
CONTINUOUS
 10
63.3767367289
 20
159.3236882932
 11
63.3767367289
 21
161.7731955446
  0
LINE
  5
27B
100
AcDbEntity
  8
0
100
AcDbLine
 62
7
  6
CONTINUOUS
 10
63.5494689335
 20
173.0227916898
 11
63.5494689335
 21
168.9402796041
  0
LINE
  5
27C
100
AcDbEntity
  8
0
100
AcDbLine
 62
7
  6
CONTINUOUS
 10
64.0444634049
 20
146.3640476145
 11
64.0444634049
 21
144.4044418134
  0
LINE
  5
27D
100
AcDbEntity
  8
0
100
AcDbLine
 62
7
  6
CONTINUOUS
 10
64.1858824059
 20
85.0447094246
 11
64.1858824059
 21
117.7867072482
  0
LINE
  5
27E
100
AcDbEntity
  8
0
100
AcDbLine
 62
7
  6
CONTINUOUS
 10
64.5747912828
 20
145.8537283128
 11
64.5747912828
 21
145.0372258957
  0
LINE
  5
27F
100
AcDbEntity
  8
0
100
AcDbLine
 62
7
  6
CONTINUOUS
 10
64.578645414
 20
161.07928894
 11
64.578645414
 21
158.6297816886
  0
LINE
  5
280
100
AcDbEntity
  8
0
100
AcDbLine
 62
7
  6
CONTINUOUS
 10
64.7515802362
 20
149.5630190273
 11
64.75157313
 21
147.9586796946
  0
LINE
  5
281
100
AcDbEntity
  8
0
100
AcDbLine
 62
7
  6
CONTINUOUS
 10
65.1051279926
 20
143.3838294731
 11
65.1051279926
 21
144.9351840656
  0
LINE
  5
282
100
AcDbEntity
  8
0
100
AcDbLine
 62
7
  6
CONTINUOUS
 10
65.4586710793
 20
146.3640335052
 11
65.4586710793
 21
146.7334456272
  0
LINE
  5
283
100
AcDbEntity
  8
0
100
AcDbLine
 62
7
  6
CONTINUOUS
 10
66.3779254978
 20
168.9403739465
 11
66.3779254978
 21
164.8578618609
  0
LINE
  5
284
100
AcDbEntity
  8
0
100
AcDbLine
 62
7
  6
CONTINUOUS
 10
66.5353776696
 20
134.6146692295
 11
66.5353776696
 21
132.3284624615
  0
LINE
  5
285
100
AcDbEntity
  8
0
100
AcDbLine
 62
7
  6
CONTINUOUS
 10
68.4285407568
 20
115.3372627211
 11
68.4285407568
 21
82.5952648974
  0
LINE
  5
286
100
AcDbEntity
  8
0
100
AcDbLine
 62
7
  6
CONTINUOUS
 10
68.6406766183
 20
142.893980293
 11
68.6406766183
 21
141.3426257005
  0
LINE
  5
287
100
AcDbEntity
  8
0
100
AcDbLine
 62
7
  6
CONTINUOUS
 10
60.3375169887
 20
148.1776423766
 11
60.3380657439
 21
150.2573693706
  0
LINE
  5
288
100
AcDbEntity
  8
0
100
AcDbLine
 62
7
  6
CONTINUOUS
 10
65.1238659656
 20
147.7437411883
 11
65.1236504254
 21
146.9268655161
  0
LINE
  5
289
100
AcDbEntity
  8
0
100
AcDbLine
 62
7
  6
CONTINUOUS
 10
68.1157239653
 20
143.6869940769
 11
68.1162727205
 21
145.7667210709
  0
LINE
  5
28A
100
AcDbEntity
  8
0
100
AcDbLine
 62
7
  6
CONTINUOUS
 10
39.2795014139
 20
164.7007783742
 11
40.4688284087
 21
165.5689257259
  0
LINE
  5
28B
100
AcDbEntity
  8
0
100
AcDbLine
 62
7
  6
CONTINUOUS
 10
70.965316972
 20
191.249538079
 11
70.9736238957
 21
191.2553288825
  0
LINE
  5
28C
100
AcDbEntity
  8
0
100
AcDbLine
 62
7
  6
CONTINUOUS
 10
82.7532762097
 20
198.890568014
 11
82.5537834218
 21
198.7549389722
  0
LINE
  5
28D
100
AcDbEntity
  8
0
100
AcDbLine
 62
7
  6
CONTINUOUS
 10
41.5583847435
 20
164.5717505937
 11
42.8311716504
 21
165.4351725401
  0
LINE
  5
28E
100
AcDbEntity
  8
0
100
AcDbLine
 62
7
  6
CONTINUOUS
 10
70.965316972
 20
191.249538079
 11
70.9736386515
 21
191.2551729571
  0
LINE
  5
28F
100
AcDbEntity
  8
0
100
AcDbLine
 62
7
  6
CONTINUOUS
 10
82.7576512705
 20
198.8361105442
 11
82.5579888208
 21
198.7027531996
  0
LINE
  5
290
100
AcDbEntity
  8
0
100
AcDbLine
 62
7
  6
CONTINUOUS
 10
84.2676396898
 20
201.3143564791
 11
82.2876982455
 21
200.1712435768
  0
LINE
  5
291
100
AcDbEntity
  8
0
100
AcDbLine
 62
7
  6
CONTINUOUS
 10
52.6599791662
 20
181.3509553522
 11
52.5892687825
 21
181.3101309368
  0
LINE
  5
292
100
AcDbEntity
  8
0
100
AcDbLine
 62
7
  6
CONTINUOUS
 10
78.8584634335
 20
196.2317884176
 11
83.0634824828
 21
198.6595428059
  0
LINE
  5
293
100
AcDbEntity
  8
0
100
AcDbLine
 62
7
  6
CONTINUOUS
 10
82.994806793
 20
198.4565954531
 11
75.3461481691
 21
194.0406666972
  0
LINE
  5
294
100
AcDbEntity
  8
0
100
AcDbLine
 62
7
  6
CONTINUOUS
 10
75.8064165603
 20
194.1431035289
 11
83.3463263729
 21
198.4962465041
  0
LINE
  5
295
100
AcDbEntity
  8
0
100
AcDbLine
 62
7
  6
CONTINUOUS
 10
41.7704893989
 20
174.2472233309
 11
39.6491778873
 21
173.0224908693
  0
LINE
  5
296
100
AcDbEntity
  8
0
100
AcDbLine
 62
7
  6
CONTINUOUS
 10
52.6599791662
 20
176.860192058
 11
52.5892687825
 21
176.8193676426
  0
LINE
  5
297
100
AcDbEntity
  8
0
100
AcDbLine
 62
7
  6
CONTINUOUS
 10
109.0864877188
 20
108.1424052809
 11
114.8463418908
 21
105.1494237503
  0
LINE
  5
298
100
AcDbEntity
  8
0
100
AcDbLine
 62
7
  6
CONTINUOUS
 10
114.7976078643
 20
105.5224055407
 11
109.4059663394
 21
108.3240534682
  0
LINE
  5
299
100
AcDbEntity
  8
0
100
AcDbLine
 62
7
  6
CONTINUOUS
 10
114.8431710661
 20
105.5558442934
 11
109.0823570235
 21
108.5494761107
  0
LINE
  5
29A
100
AcDbEntity
  8
0
100
AcDbLine
 62
7
  6
CONTINUOUS
 10
100.4383675194
 20
106.2463256072
 11
100.1127491503
 21
106.4343172073
  0
LINE
  5
29B
100
AcDbEntity
  8
0
100
AcDbLine
 62
7
  6
CONTINUOUS
 10
91.5086728408
 20
111.4020214986
 11
25.8606059582
 21
149.3030931483
  0
LINE
  5
29C
100
AcDbEntity
  8
0
100
AcDbLine
 62
7
  6
CONTINUOUS
 10
90.8729842883
 20
113.4019911709
 11
29.396142808
 21
148.8948591925
  0
LINE
  5
29D
100
AcDbEntity
  8
0
100
AcDbLine
 62
7
  6
CONTINUOUS
 10
90.6353252583
 20
113.8866565781
 11
30.0537704628
 21
148.8626422847
  0
LINE
  5
29E
100
AcDbEntity
  8
0
100
AcDbLine
 62
7
  6
CONTINUOUS
 10
35.043379402
 20
151.7433771533
 11
41.4480447282
 21
148.0457255552
  0
LINE
  5
29F
100
AcDbEntity
  8
0
100
AcDbLine
 62
7
  6
CONTINUOUS
 10
44.9988633465
 20
145.9957058477
 11
62.0875258789
 21
136.1297851315
  0
LINE
  5
2A0
100
AcDbEntity
  8
0
100
AcDbLine
 62
7
  6
CONTINUOUS
 10
66.5353776696
 20
133.5618747967
 11
82.0935014948
 21
124.5795910245
  0
LINE
  5
2A1
100
AcDbEntity
  8
0
100
AcDbLine
 62
7
  6
CONTINUOUS
 10
85.6443201131
 20
122.5295713171
 11
95.6249341975
 21
116.7673914467
  0
LINE
  5
2A2
100
AcDbEntity
  8
0
100
AcDbLine
 62
7
  6
CONTINUOUS
 10
73.4979730222
 20
82.8276740941
 11
73.0428444586
 21
112.6732535047
  0
LINE
  5
2A3
100
AcDbEntity
  8
0
100
AcDbLine
 62
7
  6
CONTINUOUS
 10
70.8621650785
 20
144.1813187535
 11
70.8627138082
 21
142.1010546304
  0
LINE
  5
2A4
100
AcDbEntity
  8
0
100
AcDbLine
 62
7
  6
CONTINUOUS
 10
69.1710044962
 20
142.3836609913
 11
69.1710044962
 21
143.0777413614
  0
LINE
  5
2A5
100
AcDbEntity
  8
0
100
AcDbLine
 62
7
  6
CONTINUOUS
 10
69.2063643984
 20
167.3074109284
 11
69.2063643984
 21
163.2248988428
  0
LINE
  5
2A6
100
AcDbEntity
  8
0
100
AcDbLine
 62
7
  6
CONTINUOUS
 10
69.3476862486
 20
192.1945825002
 11
69.3476862486
 21
214.3376545974
  0
LINE
  5
2A7
100
AcDbEntity
  8
0
100
AcDbLine
 62
7
  6
CONTINUOUS
 10
69.701341206
 20
141.1385157773
 11
69.701341206
 21
142.771558246
  0
LINE
  5
2A8
100
AcDbEntity
  8
0
100
AcDbLine
 62
7
  6
CONTINUOUS
 10
70.7619056989
 20
191.3773444911
 11
70.7619056989
 21
209.0304097941
  0
LINE
  5
2A9
100
AcDbEntity
  8
0
100
AcDbLine
 62
7
  6
CONTINUOUS
 10
70.7620028498
 20
81.2480704075
 11
70.7620028498
 21
113.9900682311
  0
LINE
  5
2AA
100
AcDbEntity
  8
0
100
AcDbLine
 62
7
  6
CONTINUOUS
 10
71.3276759101
 20
168.5321433901
 11
71.3276759101
 21
164.4496313044
  0
LINE
  5
2AB
100
AcDbEntity
  8
0
100
AcDbLine
 62
7
  6
CONTINUOUS
 10
71.8226703815
 20
141.8733993148
 11
71.8226703815
 21
139.9137935137
  0
LINE
  5
2AC
100
AcDbEntity
  8
0
100
AcDbLine
 62
7
  6
CONTINUOUS
 10
72.3529982594
 20
141.3630800131
 11
72.3529982594
 21
140.546577596
  0
LINE
  5
2AD
100
AcDbEntity
  8
0
100
AcDbLine
 62
7
  6
CONTINUOUS
 10
72.8833349692
 20
138.8931811734
 11
72.8833349692
 21
140.4445357659
  0
LINE
  5
2AE
100
AcDbEntity
  8
0
100
AcDbLine
 62
7
  6
CONTINUOUS
 10
73.2066327604
 20
153.6485235627
 11
73.2066327604
 21
156.0980308141
  0
LINE
  5
2AF
100
AcDbEntity
  8
0
100
AcDbLine
 62
7
  6
CONTINUOUS
 10
73.2368780559
 20
141.8733852054
 11
73.2368751119
 21
143.5423469974
  0
LINE
  5
2B0
100
AcDbEntity
  8
0
100
AcDbLine
 62
7
  6
CONTINUOUS
 10
73.5903445995
 20
207.397446776
 11
73.5903445995
 21
209.4387028189
  0
LINE
  5
2B1
100
AcDbEntity
  8
0
100
AcDbLine
 62
7
  6
CONTINUOUS
 10
74.1561324745
 20
164.4497256468
 11
74.1561324745
 21
160.3672135612
  0
LINE
  5
2B2
100
AcDbEntity
  8
0
100
AcDbLine
 62
7
  6
CONTINUOUS
 10
74.4085414455
 20
155.4041242095
 11
74.4085414455
 21
152.9546169581
  0
LINE
  5
2B3
100
AcDbEntity
  8
0
100
AcDbLine
 62
7
  6
CONTINUOUS
 10
74.4388692041
 20
207.8873397607
 11
74.4388692041
 21
208.9488179926
  0
LINE
  5
2B4
100
AcDbEntity
  8
0
100
AcDbLine
 62
7
  6
CONTINUOUS
 10
75.0046612007
 20
111.540623704
 11
75.0046612007
 21
78.7986258804
  0
LINE
  5
2B5
100
AcDbEntity
  8
0
100
AcDbLine
 62
7
  6
CONTINUOUS
 10
75.5703519248
 20
163.6332441378
 11
75.5703519248
 21
159.5507320521
  0
LINE
  5
2B6
100
AcDbEntity
  8
0
100
AcDbLine
 62
7
  6
CONTINUOUS
 10
76.4188835949
 20
138.4033319933
 11
76.4188835949
 21
136.8519774008
  0
LINE
  5
2B7
100
AcDbEntity
  8
0
100
AcDbLine
 62
7
  6
CONTINUOUS
 10
76.9492114728
 20
137.8930126916
 11
76.9492114728
 21
138.5870930617
  0
LINE
  5
2B8
100
AcDbEntity
  8
0
100
AcDbLine
 62
7
  6
CONTINUOUS
 10
77.3381232937
 20
77.4514313905
 11
77.3381232937
 21
110.1934292141
  0
LINE
  5
2B9
100
AcDbEntity
  8
0
100
AcDbLine
 62
7
  6
CONTINUOUS
 10
77.4795481826
 20
136.6478674776
 11
77.4795481826
 21
138.2809099463
  0
LINE
  5
2BA
100
AcDbEntity
  8
0
100
AcDbLine
 62
7
  6
CONTINUOUS
 10
77.6916634364
 20
164.8579765994
 11
77.6916634364
 21
160.7754645137
  0
LINE
  5
2BB
100
AcDbEntity
  8
0
100
AcDbLine
 62
7
  6
CONTINUOUS
 10
75.8939309419
 20
139.1963457771
 11
75.8944796716
 21
141.2759762961
  0
LINE
  5
2BC
100
AcDbEntity
  8
0
100
AcDbLine
 62
7
  6
CONTINUOUS
 10
73.1959736108
 20
144.9330700337
 11
73.1728354433
 21
143.3890405726
  0
LINE
  5
2BD
100
AcDbEntity
  8
0
100
AcDbLine
 62
7
  6
CONTINUOUS
 10
73.5048576196
 20
144.7547398025
 11
73.4885852777
 21
143.6876710619
  0
LINE
  5
2BE
100
AcDbEntity
  8
0
100
AcDbLine
 62
7
  6
CONTINUOUS
 10
60.6553528133
 20
145.3754964848
 11
60.8624696417
 21
145.8332740002
  0
LINE
  5
2BF
100
AcDbEntity
  8
0
100
AcDbLine
 62
7
  6
CONTINUOUS
 10
37.1035999837
 20
163.0611138693
 11
36.1136292616
 21
162.4895574181
  0
LINE
  5
2C0
100
AcDbEntity
  8
0
100
AcDbLine
 62
7
  6
CONTINUOUS
 10
48.3528781654
 20
167.9975208508
 11
50.4741896771
 21
169.2222533124
  0
LINE
  5
2C1
100
AcDbEntity
  8
0
100
AcDbLine
 62
7
  6
CONTINUOUS
 10
95.2370197448
 20
193.3101616933
 11
98.3816983197
 21
195.1257318776
  0
LINE
  5
2C2
100
AcDbEntity
  8
0
100
AcDbLine
 62
7
  6
CONTINUOUS
 10
133.5883398212
 20
213.9908029268
 11
145.6091050538
 21
220.9309535427
  0
LINE
  5
2C3
100
AcDbEntity
  8
0
100
AcDbLine
 62
7
  6
CONTINUOUS
 10
41.7704952869
 20
160.8566011987
 11
40.3562876124
 21
160.040112891
  0
LINE
  5
2C4
100
AcDbEntity
  8
0
100
AcDbLine
 62
7
  6
CONTINUOUS
 10
133.7297626494
 20
213.7866820397
 11
145.9626590332
 21
220.8493059017
  0
LINE
  5
2C5
100
AcDbEntity
  8
0
100
AcDbLine
 62
7
  6
CONTINUOUS
 10
41.7704952869
 20
160.6933007153
 11
40.3562876124
 21
159.8768124076
  0
LINE
  5
2C6
100
AcDbEntity
  8
0
100
AcDbLine
 62
7
  6
CONTINUOUS
 10
61.4281574218
 20
171.7980592282
 11
63.5494689335
 21
173.0227916898
  0
LINE
  5
2C7
100
AcDbEntity
  8
0
100
AcDbLine
 62
7
  6
CONTINUOUS
 10
40.9219753926
 20
158.8970178702
 11
42.336183067
 21
159.713506178
  0
LINE
  5
2C8
100
AcDbEntity
  8
0
100
AcDbLine
 62
7
  6
CONTINUOUS
 10
94.0682363518
 20
189.1489029936
 11
94.7046298053
 21
189.5163227321
  0
LINE
  5
2C9
100
AcDbEntity
  8
0
100
AcDbLine
 62
7
  6
CONTINUOUS
 10
25.8606059582
 20
149.3030931483
 11
33.9923000861
 21
153.9979009178
  0
LINE
  5
2CA
100
AcDbEntity
  8
0
100
AcDbLine
 62
7
  6
CONTINUOUS
 10
41.6331148473
 20
163.1554827912
 11
41.4169593064
 21
163.0349639265
  0
LINE
  5
2CB
100
AcDbEntity
  8
0
100
AcDbLine
 62
7
  6
CONTINUOUS
 10
39.7498859017
 20
160.0636478293
 11
41.7705070627
 21
161.1902255862
  0
LINE
  5
2CC
100
AcDbEntity
  8
0
100
AcDbLine
 62
7
  6
CONTINUOUS
 10
114.4189087638
 20
114.700675598
 11
108.6155008095
 21
117.7164415249
  0
LINE
  5
2CD
100
AcDbEntity
  8
0
100
AcDbLine
 62
7
  6
CONTINUOUS
 10
100.4945831011
 20
115.6036585112
 11
66.0414770298
 21
135.49471858
  0
LINE
  5
2CE
100
AcDbEntity
  8
0
100
AcDbLine
 62
7
  6
CONTINUOUS
 10
65.0675774931
 20
136.0569870195
 11
33.9923000861
 21
153.9979009178
  0
LINE
  5
2CF
100
AcDbEntity
  8
0
100
AcDbLine
 62
7
  6
CONTINUOUS
 10
91.268187823
 20
126.6459167216
 11
89.1468586476
 21
127.8706389851
  0
LINE
  5
2D0
100
AcDbEntity
  8
0
100
AcDbLine
 62
7
  6
CONTINUOUS
 10
83.4899808464
 20
131.1365650213
 11
81.368651671
 21
132.3612872849
  0
LINE
  5
2D1
100
AcDbEntity
  8
0
100
AcDbLine
 62
7
  6
CONTINUOUS
 10
75.7117738698
 20
135.627213321
 11
73.5904446943
 21
136.8519355846
  0
LINE
  5
2D2
100
AcDbEntity
  8
0
100
AcDbLine
 62
7
  6
CONTINUOUS
 10
67.9335668932
 20
140.1178616208
 11
65.8122377177
 21
141.3425838843
  0
LINE
  5
2D3
100
AcDbEntity
  8
0
100
AcDbLine
 62
7
  6
CONTINUOUS
 10
60.1553599165
 20
144.6085099205
 11
58.0340307411
 21
145.833232184
  0
LINE
  5
2D4
100
AcDbEntity
  8
0
100
AcDbLine
 62
7
  6
CONTINUOUS
 10
91.268187823
 20
127.4624191387
 11
89.1468586476
 21
128.6871414023
  0
LINE
  5
2D5
100
AcDbEntity
  8
0
100
AcDbLine
 62
7
  6
CONTINUOUS
 10
83.4899808464
 20
131.9530674384
 11
81.368651671
 21
133.177789702
  0
LINE
  5
2D6
100
AcDbEntity
  8
0
100
AcDbLine
 62
7
  6
CONTINUOUS
 10
75.7117738698
 20
136.4437157382
 11
73.5904446943
 21
137.6684380017
  0
LINE
  5
2D7
100
AcDbEntity
  8
0
100
AcDbLine
 62
7
  6
CONTINUOUS
 10
67.9335668932
 20
140.9343640379
 11
65.8122377177
 21
142.1590863014
  0
LINE
  5
2D8
100
AcDbEntity
  8
0
100
AcDbLine
 62
7
  6
CONTINUOUS
 10
60.1553599165
 20
145.4250123376
 11
58.0340307411
 21
146.6497346012
  0
LINE
  5
2D9
100
AcDbEntity
  8
0
100
AcDbLine
 62
7
  6
CONTINUOUS
 10
92.6823954974
 20
127.4624050293
 11
92.2681644124
 21
127.7015560475
  0
LINE
  5
2DA
100
AcDbEntity
  8
0
100
AcDbLine
 62
7
  6
CONTINUOUS
 10
84.9041885208
 20
131.953053329
 11
84.4899574358
 21
132.1922043472
  0
LINE
  5
2DB
100
AcDbEntity
  8
0
100
AcDbLine
 62
7
  6
CONTINUOUS
 10
77.1259815442
 20
136.4437016288
 11
76.7117504592
 21
136.6828526469
  0
LINE
  5
2DC
100
AcDbEntity
  8
0
100
AcDbLine
 62
7
  6
CONTINUOUS
 10
69.3477745676
 20
140.9343499285
 11
68.9335434826
 21
141.1735009466
  0
LINE
  5
2DD
100
AcDbEntity
  8
0
100
AcDbLine
 62
7
  6
CONTINUOUS
 10
61.569567591
 20
145.4249982282
 11
61.1553365059
 21
145.6641492464
  0
LINE
  5
2DE
100
AcDbEntity
  8
0
100
AcDbLine
 62
7
  6
CONTINUOUS
 10
93.0359621359
 20
128.6055329768
 11
92.5056254261
 21
128.9117160921
  0
LINE
  5
2DF
100
AcDbEntity
  8
0
100
AcDbLine
 62
7
  6
CONTINUOUS
 10
88.4397489224
 20
131.2590978811
 11
87.9094122126
 21
131.5652809965
  0
LINE
  5
2E0
100
AcDbEntity
  8
0
100
AcDbLine
 62
7
  6
CONTINUOUS
 10
85.2577551593
 20
133.0961812765
 11
84.7274184495
 21
133.4023643919
  0
LINE
  5
2E1
100
AcDbEntity
  8
0
100
AcDbLine
 62
7
  6
CONTINUOUS
 10
80.6615419458
 20
135.7497461809
 11
80.131205236
 21
136.0559292962
  0
LINE
  5
2E2
100
AcDbEntity
  8
0
100
AcDbLine
 62
7
  6
CONTINUOUS
 10
77.4795481826
 20
137.5868295762
 11
76.9492114728
 21
137.8930126916
  0
LINE
  5
2E3
100
AcDbEntity
  8
0
100
AcDbLine
 62
7
  6
CONTINUOUS
 10
72.8833349692
 20
140.2403944806
 11
72.3529982594
 21
140.546577596
  0
LINE
  5
2E4
100
AcDbEntity
  8
0
100
AcDbLine
 62
7
  6
CONTINUOUS
 10
69.701341206
 20
142.0774778759
 11
69.1710044962
 21
142.3836609913
  0
LINE
  5
2E5
100
AcDbEntity
  8
0
100
AcDbLine
 62
7
  6
CONTINUOUS
 10
65.1051279926
 20
144.7310427803
 11
64.5747912828
 21
145.0372258957
  0
LINE
  5
2E6
100
AcDbEntity
  8
0
100
AcDbLine
 62
7
  6
CONTINUOUS
 10
61.9231342294
 20
146.5681261757
 11
61.3927975196
 21
146.874309291
  0
LINE
  5
2E7
100
AcDbEntity
  8
0
100
AcDbLine
 62
7
  6
CONTINUOUS
 10
57.326921016
 20
149.22169108
 11
56.7965843062
 21
149.5278741954
  0
LINE
  5
2E8
100
AcDbEntity
  8
0
100
AcDbLine
 62
7
  6
CONTINUOUS
 10
53.9327943353
 20
151.3853879871
 11
48.7001823692
 21
154.4063695705
  0
LINE
  5
2E9
100
AcDbEntity
  8
0
100
AcDbLine
 62
7
  6
CONTINUOUS
 10
46.1545873586
 20
155.8760362868
 11
40.9219753926
 21
158.8970178702
  0
LINE
  5
2EA
100
AcDbEntity
  8
0
100
AcDbLine
 62
7
  6
CONTINUOUS
 10
57.326921016
 20
149.4258323654
 11
60.8624696417
 21
147.3846285928
  0
LINE
  5
2EB
100
AcDbEntity
  8
0
100
AcDbLine
 62
7
  6
CONTINUOUS
 10
65.1051279926
 20
144.9351840656
 11
68.6406766183
 21
142.893980293
  0
LINE
  5
2EC
100
AcDbEntity
  8
0
100
AcDbLine
 62
7
  6
CONTINUOUS
 10
72.8833349692
 20
140.4445357659
 11
76.4188835949
 21
138.4033319933
  0
LINE
  5
2ED
100
AcDbEntity
  8
0
100
AcDbLine
 62
7
  6
CONTINUOUS
 10
80.6615419458
 20
135.9538874662
 11
84.1970905715
 21
133.9126836936
  0
LINE
  5
2EE
100
AcDbEntity
  8
0
100
AcDbLine
 62
7
  6
CONTINUOUS
 10
88.4397489224
 20
131.4632391665
 11
91.9752975482
 21
129.4220353939
  0
LINE
  5
2EF
100
AcDbEntity
  8
0
100
AcDbLine
 62
7
  6
CONTINUOUS
 10
80.0740934661
 20
79.0310350771
 11
79.6189649024
 21
108.8766144876
  0
LINE
  5
2F0
100
AcDbEntity
  8
0
100
AcDbLine
 62
7
  6
CONTINUOUS
 10
86.65021391
 20
75.23439606
 11
86.1950853463
 21
105.0799754706
  0
LINE
  5
2F1
100
AcDbEntity
  8
0
100
AcDbLine
 62
7
  6
CONTINUOUS
 10
78.6403720551
 20
139.6906704538
 11
78.6409207848
 21
137.6104063306
  0
LINE
  5
2F2
100
AcDbEntity
  8
0
100
AcDbLine
 62
7
  6
CONTINUOUS
 10
86.4185790318
 20
135.200022154
 11
86.4191277614
 21
133.1197580309
  0
LINE
  5
2F3
100
AcDbEntity
  8
0
100
AcDbLine
 62
7
  6
CONTINUOUS
 10
79.6008773581
 20
137.3827510151
 11
79.6008773581
 21
135.423145214
  0
LINE
  5
2F4
100
AcDbEntity
  8
0
100
AcDbLine
 62
7
  6
CONTINUOUS
 10
80.131205236
 20
136.8724317134
 11
80.131205236
 21
136.0559292962
  0
LINE
  5
2F5
100
AcDbEntity
  8
0
100
AcDbLine
 62
7
  6
CONTINUOUS
 10
80.5201200008
 20
160.7755588561
 11
80.5201200008
 21
156.6930467705
  0
LINE
  5
2F6
100
AcDbEntity
  8
0
100
AcDbLine
 62
7
  6
CONTINUOUS
 10
80.6443201131
 20
123.2936971458
 11
80.6443201131
 21
121.0074903779
  0
LINE
  5
2F7
100
AcDbEntity
  8
0
100
AcDbLine
 62
7
  6
CONTINUOUS
 10
80.6615419458
 20
134.4025328736
 11
80.6615419458
 21
135.9538874662
  0
LINE
  5
2F8
100
AcDbEntity
  8
0
100
AcDbLine
 62
7
  6
CONTINUOUS
 10
81.0150850325
 20
137.3827369057
 11
81.0150820886
 21
139.0516986977
  0
LINE
  5
2F9
100
AcDbEntity
  8
0
100
AcDbLine
 62
7
  6
CONTINUOUS
 10
81.5807816445
 20
107.743984687
 11
81.5807816445
 21
75.0019868634
  0
LINE
  5
2FA
100
AcDbEntity
  8
0
100
AcDbLine
 62
7
  6
CONTINUOUS
 10
82.2876982455
 20
200.1712435768
 11
82.2876982455
 21
199.1074319116
  0
LINE
  5
2FB
100
AcDbEntity
  8
0
100
AcDbLine
 62
7
  6
CONTINUOUS
 10
82.7121601487
 20
157.0605052657
 11
82.7121601487
 21
159.5100125171
  0
LINE
  5
2FC
100
AcDbEntity
  8
0
100
AcDbLine
 62
7
  6
CONTINUOUS
 10
82.8180305393
 20
202.1512697788
 11
82.8180305393
 21
203.4576736462
  0
LINE
  5
2FD
100
AcDbEntity
  8
0
100
AcDbLine
 62
7
  6
CONTINUOUS
 10
82.9318983483
 20
148.0337658803
 11
82.9318983483
 21
150.4832731317
  0
LINE
  5
2FE
100
AcDbEntity
  8
0
100
AcDbLine
 62
7
  6
CONTINUOUS
 10
83.3412904406
 20
203.3352021677
 11
83.3412904406
 21
203.8091189708
  0
LINE
  5
2FF
100
AcDbEntity
  8
0
100
AcDbLine
 62
7
  6
CONTINUOUS
 10
83.419070273
 20
198.2116523601
 11
83.419070273
 21
198.4542487439
  0
LINE
  5
300
100
AcDbEntity
  8
0
100
AcDbLine
 62
7
  6
CONTINUOUS
 10
83.9142437375
 20
73.6547923734
 11
83.9142437375
 21
106.3967901971
  0
LINE
  5
301
100
AcDbEntity
  8
0
100
AcDbLine
 62
7
  6
CONTINUOUS
 10
84.1338070334
 20
149.7893665271
 11
84.1338070334
 21
147.3398592757
  0
LINE
  5
302
100
AcDbEntity
  8
0
100
AcDbLine
 62
7
  6
CONTINUOUS
 10
84.1970905715
 20
133.9126836936
 11
84.1970905715
 21
132.361329101
  0
LINE
  5
303
100
AcDbEntity
  8
0
100
AcDbLine
 62
7
  6
CONTINUOUS
 10
84.7274184495
 20
133.4023643919
 11
84.7274184495
 21
134.096444762
  0
LINE
  5
304
100
AcDbEntity
  8
0
100
AcDbLine
 62
7
  6
CONTINUOUS
 10
85.2577551593
 20
132.1572191778
 11
85.2577551593
 21
133.7902616466
  0
LINE
  5
305
100
AcDbEntity
  8
0
100
AcDbLine
 62
7
  6
CONTINUOUS
 10
85.6443201131
 20
123.2936971458
 11
85.6443201131
 21
121.0074903779
  0
LINE
  5
306
100
AcDbEntity
  8
0
100
AcDbLine
 62
7
  6
CONTINUOUS
 10
83.6721379186
 20
134.7056974774
 11
83.6726866482
 21
136.7853279964
  0
LINE
  5
307
100
AcDbEntity
  8
0
100
AcDbLine
 62
7
  6
CONTINUOUS
 10
80.9741805874
 20
140.442421734
 11
80.9510424199
 21
138.8983922729
  0
LINE
  5
308
100
AcDbEntity
  8
0
100
AcDbLine
 62
7
  6
CONTINUOUS
 10
81.2830645962
 20
140.2640915028
 11
81.2667922543
 21
139.1970227621
  0
LINE
  5
309
100
AcDbEntity
  8
0
100
AcDbLine
 62
7
  6
CONTINUOUS
 10
68.43355979
 20
140.8848481851
 11
68.6406766183
 21
141.3426257005
  0
LINE
  5
30A
100
AcDbEntity
  8
0
100
AcDbLine
 62
7
  6
CONTINUOUS
 10
63.5494689335
 20
168.9402796041
 11
61.4281574218
 21
167.7155471425
  0
LINE
  5
30B
100
AcDbEntity
  8
0
100
AcDbLine
 62
7
  6
CONTINUOUS
 10
29.396142808
 20
148.8948591925
 11
36.1136292616
 21
152.7731786543
  0
LINE
  5
30C
100
AcDbEntity
  8
0
100
AcDbLine
 62
7
  6
CONTINUOUS
 10
30.0537704628
 20
148.8626422847
 11
35.043379402
 21
151.7433771533
  0
LINE
  5
30D
100
AcDbEntity
  8
0
100
AcDbLine
 62
7
  6
CONTINUOUS
 10
94.8920191816
 20
185.4399529427
 11
96.1011667432
 21
186.1380504459
  0
LINE
  5
30E
100
AcDbEntity
  8
0
100
AcDbLine
 62
7
  6
CONTINUOUS
 10
173.1508689945
 20
230.5859396775
 11
179.4794121232
 21
234.2397039464
  0
LINE
  5
30F
100
AcDbEntity
  8
0
100
AcDbLine
 62
7
  6
CONTINUOUS
 10
56.5945377202
 20
163.2393041335
 11
58.7158492319
 21
164.4640365951
  0
LINE
  5
310
100
AcDbEntity
  8
0
100
AcDbLine
 62
7
  6
CONTINUOUS
 10
93.7783225421
 20
184.4744258711
 11
94.0682363518
 21
184.6418066881
  0
LINE
  5
311
100
AcDbEntity
  8
0
100
AcDbLine
 62
7
  6
CONTINUOUS
 10
46.5788931182
 20
156.121007869
 11
46.1545873586
 21
155.8760362868
  0
LINE
  5
312
100
AcDbEntity
  8
0
100
AcDbLine
 62
7
  6
CONTINUOUS
 10
38.5885560669
 20
151.3443113223
 11
37.1615885826
 21
150.5204561788
  0
LINE
  5
313
100
AcDbEntity
  8
0
100
AcDbLine
 62
7
  6
CONTINUOUS
 10
49.5487022635
 20
156.365952899
 11
48.134494589
 21
155.5494645913
  0
LINE
  5
314
100
AcDbEntity
  8
0
100
AcDbLine
 62
7
  6
CONTINUOUS
 10
49.5487022635
 20
156.2026524156
 11
48.134494589
 21
155.3861641078
  0
LINE
  5
315
100
AcDbEntity
  8
0
100
AcDbLine
 62
7
  6
CONTINUOUS
 10
107.8321758071
 20
189.6696195901
 11
105.9229320715
 21
188.5673237852
  0
LINE
  5
316
100
AcDbEntity
  8
0
100
AcDbLine
 62
7
  6
CONTINUOUS
 10
69.2063643984
 20
167.3074109284
 11
71.3276759101
 21
168.5321433901
  0
LINE
  5
317
100
AcDbEntity
  8
0
100
AcDbLine
 62
7
  6
CONTINUOUS
 10
93.2126394723
 20
180.5552199126
 11
95.7582639864
 21
182.0249281381
  0
LINE
  5
318
100
AcDbEntity
  8
0
100
AcDbLine
 62
7
  6
CONTINUOUS
 10
98.4841365853
 20
183.3660899098
 11
99.693284147
 21
184.0641874129
  0
LINE
  5
319
100
AcDbEntity
  8
0
100
AcDbLine
 62
7
  6
CONTINUOUS
 10
48.7001823692
 20
154.4063695705
 11
50.1143900436
 21
155.2228578783
  0
LINE
  5
31A
100
AcDbEntity
  8
0
100
AcDbLine
 62
7
  6
CONTINUOUS
 10
178.100612632
 20
227.7282685051
 11
190.0860226728
 21
234.6480069132
  0
LINE
  5
31B
100
AcDbEntity
  8
0
100
AcDbLine
 62
7
  6
CONTINUOUS
 10
51.2104174775
 20
153.5694785733
 11
52.094297274
 21
154.0797837656
  0
LINE
  5
31C
100
AcDbEntity
  8
0
100
AcDbLine
 62
7
  6
CONTINUOUS
 10
71.3276759101
 20
164.4496313044
 11
69.2063643984
 21
163.2248988428
  0
LINE
  5
31D
100
AcDbEntity
  8
0
100
AcDbLine
 62
7
  6
CONTINUOUS
 10
47.5280928784
 20
155.5729995295
 11
49.5487140393
 21
156.6995772865
  0
LINE
  5
31E
100
AcDbEntity
  8
0
100
AcDbLine
 62
7
  6
CONTINUOUS
 10
49.3675685586
 20
158.6467815078
 11
49.4061934056
 21
158.6677953182
  0
LINE
  5
31F
100
AcDbEntity
  8
0
100
AcDbLine
 62
7
  6
CONTINUOUS
 10
91.268187823
 20
127.4624191387
 11
91.7681807198
 21
127.4129032859
  0
LINE
  5
320
100
AcDbEntity
  8
0
100
AcDbLine
 62
7
  6
CONTINUOUS
 10
83.4899808464
 20
131.9530674384
 11
83.9899737432
 21
131.9035515856
  0
LINE
  5
321
100
AcDbEntity
  8
0
100
AcDbLine
 62
7
  6
CONTINUOUS
 10
92.6824178716
 20
129.5037276054
 11
91.4503448952
 21
130.2150491777
  0
LINE
  5
322
100
AcDbEntity
  8
0
100
AcDbLine
 62
7
  6
CONTINUOUS
 10
86.4191277614
 20
133.1197580309
 11
83.6721379186
 21
134.7056974774
  0
LINE
  5
323
100
AcDbEntity
  8
0
100
AcDbLine
 62
7
  6
CONTINUOUS
 10
78.6409207848
 20
137.6104063306
 11
75.8939309419
 21
139.1963457772
  0
LINE
  5
324
100
AcDbEntity
  8
0
100
AcDbLine
 62
7
  6
CONTINUOUS
 10
70.8627138082
 20
142.1010546304
 11
68.1157239653
 21
143.6869940769
  0
LINE
  5
325
100
AcDbEntity
  8
0
100
AcDbLine
 62
7
  6
CONTINUOUS
 10
63.0845068316
 20
146.5917029301
 11
60.3375169887
 21
148.1776423766
  0
LINE
  5
326
100
AcDbEntity
  8
0
100
AcDbLine
 62
7
  6
CONTINUOUS
 10
55.306299855
 20
151.0823512298
 11
52.5593100121
 21
152.6682906763
  0
LINE
  5
327
100
AcDbEntity
  8
0
100
AcDbLine
 62
7
  6
CONTINUOUS
 10
47.5280928784
 20
155.5729995295
 11
44.7811030355
 21
157.158938976
  0
LINE
  5
328
100
AcDbEntity
  8
0
100
AcDbLine
 62
7
  6
CONTINUOUS
 10
39.7498859017
 20
160.0636478293
 11
38.5178129253
 21
160.7749694016
  0
LINE
  5
329
100
AcDbEntity
  8
0
100
AcDbLine
 62
7
  6
CONTINUOUS
 10
52.5593423094
 20
152.7906940769
 11
52.4832149828
 21
152.8346452151
  0
LINE
  5
32A
100
AcDbEntity
  8
0
100
AcDbLine
 62
7
  6
CONTINUOUS
 10
51.2104174775
 20
153.5694785733
 11
50.3265303211
 21
154.0797795164
  0
LINE
  5
32B
100
AcDbEntity
  8
0
100
AcDbLine
 62
7
  6
CONTINUOUS
 10
56.7965843062
 20
150.3443766125
 11
57.8572488939
 21
149.7320154808
  0
LINE
  5
32C
100
AcDbEntity
  8
0
100
AcDbLine
 62
7
  6
CONTINUOUS
 10
64.5747912828
 20
145.8537283128
 11
65.6354558705
 21
145.241367181
  0
LINE
  5
32D
100
AcDbEntity
  8
0
100
AcDbLine
 62
7
  6
CONTINUOUS
 10
72.3529982594
 20
141.3630800131
 11
73.4136628471
 21
140.7507188813
  0
LINE
  5
32E
100
AcDbEntity
  8
0
100
AcDbLine
 62
7
  6
CONTINUOUS
 10
80.131205236
 20
136.8724317134
 11
81.1918698237
 21
136.2600705816
  0
LINE
  5
32F
100
AcDbEntity
  8
0
100
AcDbLine
 62
7
  6
CONTINUOUS
 10
87.9094122126
 20
132.3817834137
 11
88.9700768003
 21
131.7694222819
  0
LINE
  5
330
100
AcDbEntity
  8
0
100
AcDbLine
 62
7
  6
CONTINUOUS
 10
92.7977158006
 20
129.5595838679
 11
93.0359621359
 21
129.4220353939
  0
LINE
  5
331
100
AcDbEntity
  8
0
100
AcDbLine
 62
7
  6
CONTINUOUS
 10
98.3392850745
 20
126.5643710203
 11
93.0359621359
 21
129.6261766792
  0
LINE
  5
332
100
AcDbEntity
  8
0
100
AcDbLine
 62
7
  6
CONTINUOUS
 10
87.3790843347
 20
132.8921027154
 11
86.7068798104
 21
133.2801913987
  0
LINE
  5
333
100
AcDbEntity
  8
0
100
AcDbLine
 62
7
  6
CONTINUOUS
 10
79.6008773581
 20
137.3827510151
 11
78.9286728338
 21
137.7708396984
  0
LINE
  5
334
100
AcDbEntity
  8
0
100
AcDbLine
 62
7
  6
CONTINUOUS
 10
71.8226703815
 20
141.8733993148
 11
71.1504658572
 21
142.2614879981
  0
LINE
  5
335
100
AcDbEntity
  8
0
100
AcDbLine
 62
7
  6
CONTINUOUS
 10
64.0444634049
 20
146.3640476145
 11
63.3722588805
 21
146.7521362979
  0
LINE
  5
336
100
AcDbEntity
  8
0
100
AcDbLine
 62
7
  6
CONTINUOUS
 10
56.2662564282
 20
150.8546959143
 11
55.5940519039
 21
151.2427845976
  0
LINE
  5
337
100
AcDbEntity
  8
0
100
AcDbLine
 62
7
  6
CONTINUOUS
 10
48.134494589
 20
155.5494645913
 11
47.8158449273
 21
155.7334328973
  0
LINE
  5
338
100
AcDbEntity
  8
0
100
AcDbLine
 62
7
  6
CONTINUOUS
 10
40.3562876124
 20
160.040112891
 11
40.0376379507
 21
160.224081197
  0
LINE
  5
339
100
AcDbEntity
  8
0
100
AcDbLine
 62
7
  6
CONTINUOUS
 10
38.5178129253
 20
161.101532734
 11
36.1136292616
 21
162.4895574181
  0
LINE
  5
33A
100
AcDbEntity
  8
0
100
AcDbLine
 62
7
  6
CONTINUOUS
 10
91.4506464466
 20
131.3578990142
 11
88.7932920091
 21
132.892088606
  0
LINE
  5
33B
100
AcDbEntity
  8
0
100
AcDbLine
 62
7
  6
CONTINUOUS
 10
83.67243947
 20
135.8485473139
 11
81.0150850325
 21
137.3827369057
  0
LINE
  5
33C
100
AcDbEntity
  8
0
100
AcDbLine
 62
7
  6
CONTINUOUS
 10
75.8942324934
 20
140.3391956136
 11
73.2368780559
 21
141.8733852054
  0
LINE
  5
33D
100
AcDbEntity
  8
0
100
AcDbLine
 62
7
  6
CONTINUOUS
 10
68.1160255168
 20
144.8298439133
 11
65.4586710793
 21
146.3640335052
  0
LINE
  5
33E
100
AcDbEntity
  8
0
100
AcDbLine
 62
7
  6
CONTINUOUS
 10
60.3378185402
 20
149.3204922131
 11
57.6804641027
 21
150.8546818049
  0
LINE
  5
33F
100
AcDbEntity
  8
0
100
AcDbLine
 62
7
  6
CONTINUOUS
 10
52.4832149828
 20
153.8552471015
 11
52.094297274
 21
154.0797837656
  0
LINE
  5
340
100
AcDbEntity
  8
0
100
AcDbLine
 62
7
  6
CONTINUOUS
 10
50.3265303211
 20
155.1003814027
 11
50.1143900436
 21
155.2228578783
  0
LINE
  5
341
100
AcDbEntity
  8
0
100
AcDbLine
 62
7
  6
CONTINUOUS
 10
44.7814045869
 20
158.3017888125
 11
42.336183067
 21
159.713506178
  0
LINE
  5
342
100
AcDbEntity
  8
0
100
AcDbLine
 62
7
  6
CONTINUOUS
 10
52.5596977381
 20
154.137733544
 11
49.5487140393
 21
155.8760864662
  0
LINE
  5
343
100
AcDbEntity
  8
0
100
AcDbLine
 62
7
  6
CONTINUOUS
 10
36.4671841241
 20
163.4285404248
 11
38.5178129253
 21
162.2446361179
  0
LINE
  5
344
100
AcDbEntity
  8
0
100
AcDbLine
 62
7
  6
CONTINUOUS
 10
94.0665601312
 20
130.1742774939
 11
98.0564411844
 21
127.8707707061
  0
LINE
  5
345
100
AcDbEntity
  8
0
100
AcDbLine
 62
7
  6
CONTINUOUS
 10
41.7705070627
 20
160.409504105
 11
44.7815020449
 21
158.6711446684
  0
LINE
  5
346
100
AcDbEntity
  8
0
100
AcDbLine
 62
7
  6
CONTINUOUS
 10
57.3454434488
 20
151.4175138159
 11
60.3379159981
 21
149.689848069
  0
LINE
  5
347
100
AcDbEntity
  8
0
100
AcDbLine
 62
7
  6
CONTINUOUS
 10
65.1236504254
 20
146.9268655161
 11
68.1161229747
 21
145.1991997693
  0
LINE
  5
348
100
AcDbEntity
  8
0
100
AcDbLine
 62
7
  6
CONTINUOUS
 10
88.7932920091
 20
133.7085910231
 11
88.1457690175
 21
134.0824301393
  0
LINE
  5
349
100
AcDbEntity
  8
0
100
AcDbLine
 62
7
  6
CONTINUOUS
 10
81.0150850325
 20
138.1992393228
 11
80.3675620408
 21
138.573078439
  0
LINE
  5
34A
100
AcDbEntity
  8
0
100
AcDbLine
 62
7
  6
CONTINUOUS
 10
73.2368780559
 20
142.6898876226
 11
72.5893550642
 21
143.0637267387
  0
LINE
  5
34B
100
AcDbEntity
  8
0
100
AcDbLine
 62
7
  6
CONTINUOUS
 10
65.1237683764
 20
147.3738877138
 11
64.8111480876
 21
147.5543750385
  0
LINE
  5
34C
100
AcDbEntity
  8
0
100
AcDbLine
 62
7
  6
CONTINUOUS
 10
57.3455613997
 20
151.8645360135
 11
57.032941111
 21
152.0450233382
  0
LINE
  5
34D
100
AcDbEntity
  8
0
100
AcDbLine
 62
7
  6
CONTINUOUS
 10
49.5487022635
 20
156.365952899
 11
49.2547341344
 21
156.5356716379
  0
LINE
  5
34E
100
AcDbEntity
  8
0
100
AcDbLine
 62
7
  6
CONTINUOUS
 10
41.7704952869
 20
160.8566011987
 11
41.4765271578
 21
161.0263199376
  0
LINE
  5
34F
100
AcDbEntity
  8
0
100
AcDbLine
 62
7
  6
CONTINUOUS
 10
65.1238659656
 20
147.7437411883
 11
64.75157313
 21
147.9586796946
  0
LINE
  5
350
100
AcDbEntity
  8
0
100
AcDbLine
 62
7
  6
CONTINUOUS
 10
57.345658989
 20
152.234389488
 11
56.9733661534
 21
152.4493279943
  0
LINE
  5
351
100
AcDbEntity
  8
0
100
AcDbLine
 62
7
  6
CONTINUOUS
 10
41.7705070627
 20
161.2265042165
 11
41.4169522002
 21
161.4306245938
  0
LINE
  5
352
100
AcDbEntity
  8
0
100
AcDbLine
 62
7
  6
CONTINUOUS
 10
41.4169522002
 20
162.612111186
 11
41.7897308938
 21
162.3968921758
  0
LINE
  5
353
100
AcDbEntity
  8
0
100
AcDbLine
 62
7
  6
CONTINUOUS
 10
56.9733661534
 20
153.6308145866
 11
57.3461448471
 21
153.4155955763
  0
LINE
  5
354
100
AcDbEntity
  8
0
100
AcDbLine
 62
7
  6
CONTINUOUS
 10
64.75157313
 20
149.1401662868
 11
65.1243518237
 21
148.9249472766
  0
LINE
  5
355
100
AcDbEntity
  8
0
100
AcDbLine
 62
7
  6
CONTINUOUS
 10
89.6418460535
 20
135.4382559533
 11
88.2276266032
 21
136.2547374623
  0
LINE
  5
356
100
AcDbEntity
  8
0
100
AcDbLine
 62
7
  6
CONTINUOUS
 10
81.8636390768
 20
139.928904253
 11
80.4494196265
 21
140.7453857621
  0
LINE
  5
357
100
AcDbEntity
  8
0
100
AcDbLine
 62
7
  6
CONTINUOUS
 10
74.0854321002
 20
144.4195525528
 11
72.6712126499
 21
145.2360340618
  0
LINE
  5
358
100
AcDbEntity
  8
0
100
AcDbLine
 62
7
  6
CONTINUOUS
 10
66.3072251236
 20
148.9102008525
 11
64.8930056733
 21
149.7266823615
  0
LINE
  5
359
100
AcDbEntity
  8
0
100
AcDbLine
 62
7
  6
CONTINUOUS
 10
58.529018147
 20
153.4008491522
 11
57.1147986967
 21
154.2173306612
  0
LINE
  5
35A
100
AcDbEntity
  8
0
100
AcDbLine
 62
7
  6
CONTINUOUS
 10
50.7508111704
 20
157.8914974519
 11
49.3365917201
 21
158.707978961
  0
LINE
  5
35B
100
AcDbEntity
  8
0
100
AcDbLine
 62
7
  6
CONTINUOUS
 10
42.9726041938
 20
162.3821457516
 11
41.5583847435
 21
163.1986272607
  0
LINE
  5
35C
100
AcDbEntity
  8
0
100
AcDbLine
 62
7
  6
CONTINUOUS
 10
41.5583847435
 20
164.5717505937
 11
89.6418460535
 21
136.8113792863
  0
LINE
  5
35D
100
AcDbEntity
  8
0
100
AcDbLine
 62
7
  6
CONTINUOUS
 10
42.8311716504
 20
165.4351725401
 11
90.9146329604
 21
137.6748012327
  0
LINE
  5
35E
100
AcDbEntity
  8
0
100
AcDbLine
 62
7
  6
CONTINUOUS
 10
93.2263343538
 20
71.437757043
 11
92.7665551771
 21
101.5883057549
  0
LINE
  5
35F
100
AcDbEntity
  8
0
100
AcDbLine
 62
7
  6
CONTINUOUS
 10
87.3790843347
 20
132.8921027154
 11
87.3790843347
 21
130.9324969143
  0
LINE
  5
360
100
AcDbEntity
  8
0
100
AcDbLine
 62
7
  6
CONTINUOUS
 10
87.9094122126
 20
132.3817834137
 11
87.9094122126
 21
131.5652809965
  0
LINE
  5
361
100
AcDbEntity
  8
0
100
AcDbLine
 62
7
  6
CONTINUOUS
 10
88.1569020884
 20
103.9473456699
 11
88.1569020884
 21
71.2053478463
  0
LINE
  5
362
100
AcDbEntity
  8
0
100
AcDbLine
 62
7
  6
CONTINUOUS
 10
88.4397489224
 20
129.9118845739
 11
88.4397489224
 21
131.4632391665
  0
LINE
  5
363
100
AcDbEntity
  8
0
100
AcDbLine
 62
7
  6
CONTINUOUS
 10
88.7932920091
 20
132.892088606
 11
88.7932890652
 21
134.5610503979
  0
LINE
  5
364
100
AcDbEntity
  8
0
100
AcDbLine
 62
7
  6
CONTINUOUS
 10
90.4903641814
 20
69.8581533564
 11
90.4903641814
 21
100.4769939988
  0
LINE
  5
365
100
AcDbEntity
  8
0
100
AcDbLine
 62
7
  6
CONTINUOUS
 10
90.6353252583
 20
113.8866565781
 11
90.6353252583
 21
113.5392005718
  0
LINE
  5
366
100
AcDbEntity
  8
0
100
AcDbLine
 62
7
  6
CONTINUOUS
 10
91.5086728408
 20
111.4020214986
 11
91.5086728408
 21
102.0122437016
  0
LINE
  5
367
100
AcDbEntity
  8
0
100
AcDbLine
 62
7
  6
CONTINUOUS
 10
91.9045865756
 20
154.2028827083
 11
91.9045865756
 21
151.753375457
  0
LINE
  5
368
100
AcDbEntity
  8
0
100
AcDbLine
 62
7
  6
CONTINUOUS
 10
91.9752975482
 20
129.4220353939
 11
91.9752975482
 21
127.8706808013
  0
LINE
  5
369
100
AcDbEntity
  8
0
100
AcDbLine
 62
7
  6
CONTINUOUS
 10
92.5056254261
 20
128.9117160921
 11
92.5056254261
 21
129.6057964623
  0
LINE
  5
36A
100
AcDbEntity
  8
0
100
AcDbLine
 62
7
  6
CONTINUOUS
 10
92.6824178716
 20
131.5449836482
 11
92.6824178716
 21
129.5037276054
  0
LINE
  5
36B
100
AcDbEntity
  8
0
100
AcDbLine
 62
7
  6
CONTINUOUS
 10
93.0359621359
 20
127.6665708781
 11
93.0359621359
 21
129.6261766792
  0
LINE
  5
36C
100
AcDbEntity
  8
0
100
AcDbLine
 62
7
  6
CONTINUOUS
 10
93.2126394723
 20
178.9206068671
 11
93.2126394723
 21
180.5552199126
  0
LINE
  5
36D
100
AcDbEntity
  8
0
100
AcDbLine
 62
7
  6
CONTINUOUS
 10
93.7783225421
 20
183.1680220037
 11
93.7783225421
 21
184.4744258711
  0
LINE
  5
36E
100
AcDbEntity
  8
0
100
AcDbLine
 62
7
  6
CONTINUOUS
 10
94.0258392496
 20
172.3234591247
 11
94.025839208
 21
174.7870824042
  0
LINE
  5
36F
100
AcDbEntity
  8
0
100
AcDbLine
 62
7
  6
CONTINUOUS
 10
94.0665601312
 20
132.2155335367
 11
94.0665601312
 21
130.1742774939
  0
LINE
  5
370
100
AcDbEntity
  8
0
100
AcDbLine
 62
7
  6
CONTINUOUS
 10
94.0682363518
 20
184.4703441434
 11
94.0682363518
 21
189.1489029936
  0
LINE
  5
371
100
AcDbEntity
  8
0
100
AcDbLine
 62
7
  6
CONTINUOUS
 10
94.4501815862
 20
143.8333396454
 11
94.4501815862
 21
141.383832394
  0
LINE
  5
372
100
AcDbEntity
  8
0
100
AcDbLine
 62
7
  6
CONTINUOUS
 10
94.7330225323
 20
98.0275494716
 11
94.7330225323
 21
67.4087088293
  0
LINE
  5
373
100
AcDbEntity
  8
0
100
AcDbLine
 62
7
  6
CONTINUOUS
 10
94.8920191816
 20
187.0321326561
 11
94.8920191816
 21
185.4399529427
  0
LINE
  5
374
100
AcDbEntity
  8
0
100
AcDbLine
 62
7
  6
CONTINUOUS
 10
95.6249341975
 20
116.7673914467
 11
95.6249341975
 21
115.8714037504
  0
LINE
  5
375
100
AcDbEntity
  8
0
100
AcDbLine
 62
7
  6
CONTINUOUS
 10
96.1011667432
 20
186.3340467788
 11
96.1011667432
 21
186.1380504459
  0
LINE
  5
376
100
AcDbEntity
  8
0
100
AcDbLine
 62
7
  6
CONTINUOUS
 10
91.4503448952
 20
130.2150491777
 11
91.4508936249
 21
132.2946796967
  0
LINE
  5
377
100
AcDbEntity
  8
0
100
AcDbLine
 62
7
  6
CONTINUOUS
 10
88.7292493965
 20
134.4077439732
 11
88.752387564
 21
135.9517734343
  0
LINE
  5
378
100
AcDbEntity
  8
0
100
AcDbLine
 62
7
  6
CONTINUOUS
 10
89.0612715728
 20
135.7734432031
 11
89.0449992309
 21
134.7063744624
  0
LINE
  5
379
100
AcDbEntity
  8
0
100
AcDbLine
 62
7
  6
CONTINUOUS
 10
94.7046298053
 20
189.5163227321
 11
95.2370197448
 21
193.3101616933
  0
LINE
  5
37A
100
AcDbEntity
  8
0
100
AcDbLine
 62
7
  6
CONTINUOUS
 10
76.2117667666
 20
136.3941998853
 11
76.4188835949
 21
136.8519774008
  0
LINE
  5
37B
100
AcDbEntity
  8
0
100
AcDbLine
 62
7
  6
CONTINUOUS
 10
96.4774370459
 20
176.5019056283
 11
96.5007026382
 21
176.5181287491
  0
LINE
  5
37C
100
AcDbEntity
  8
0
100
AcDbLine
 62
7
  6
CONTINUOUS
 10
104.816304174
 20
182.9436435249
 11
105.4526976275
 21
183.3110632634
  0
LINE
  5
37D
100
AcDbEntity
  8
0
100
AcDbLine
 62
7
  6
CONTINUOUS
 10
102.0762539891
 20
181.2922268768
 11
103.2854015507
 21
181.9903243799
  0
LINE
  5
37E
100
AcDbEntity
  8
0
100
AcDbLine
 62
7
  6
CONTINUOUS
 10
64.578645414
 20
158.6297816886
 11
66.6999569256
 21
159.8545141502
  0
LINE
  5
37F
100
AcDbEntity
  8
0
100
AcDbLine
 62
7
  6
CONTINUOUS
 10
54.3571000948
 20
151.6303595693
 11
53.9327943353
 21
151.3853879871
  0
LINE
  5
380
100
AcDbEntity
  8
0
100
AcDbLine
 62
7
  6
CONTINUOUS
 10
75.5703519248
 20
163.6332441378
 11
77.6916634364
 21
164.8579765994
  0
LINE
  5
381
100
AcDbEntity
  8
0
100
AcDbLine
 62
7
  6
CONTINUOUS
 10
144.442507369
 20
203.1111676125
 11
128.3912502643
 21
193.8440253197
  0
LINE
  5
382
100
AcDbEntity
  8
0
100
AcDbLine
 62
7
  6
CONTINUOUS
 10
141.1898303066
 20
200.7433448053
 11
128.4619612368
 21
193.3949500356
  0
LINE
  5
383
100
AcDbEntity
  8
0
100
AcDbLine
 62
7
  6
CONTINUOUS
 10
57.345459348
 20
151.4777702913
 11
56.2662564282
 21
150.8546959143
  0
LINE
  5
384
100
AcDbEntity
  8
0
100
AcDbLine
 62
7
  6
CONTINUOUS
 10
137.4068315487
 20
197.6202809375
 11
133.8713123626
 21
195.5790601681
  0
LINE
  5
385
100
AcDbEntity
  8
0
100
AcDbLine
 62
7
  6
CONTINUOUS
 10
144.442507369
 20
201.4781627783
 11
143.3579190635
 21
200.8519791659
  0
LINE
  5
386
100
AcDbEntity
  8
0
100
AcDbLine
 62
7
  6
CONTINUOUS
 10
105.9229320715
 20
178.9039927754
 11
104.816304174
 21
178.2650846747
  0
LINE
  5
387
100
AcDbEntity
  8
0
100
AcDbLine
 62
7
  6
CONTINUOUS
 10
56.7965843062
 20
150.3443766125
 11
57.6804641027
 21
150.8546818049
  0
LINE
  5
388
100
AcDbEntity
  8
0
100
AcDbLine
 62
7
  6
CONTINUOUS
 10
137.4068315487
 20
196.8037785203
 11
134.578434307
 21
195.170812359
  0
LINE
  5
389
100
AcDbEntity
  8
0
100
AcDbLine
 62
7
  6
CONTINUOUS
 10
134.7198440328
 20
195.0891712627
 11
138.2553632189
 21
197.130392032
  0
LINE
  5
38A
100
AcDbEntity
  8
0
100
AcDbLine
 62
7
  6
CONTINUOUS
 10
94.2425653025
 20
171.5151595354
 11
95.0511277017
 21
171.9819804677
  0
LINE
  5
38B
100
AcDbEntity
  8
0
100
AcDbLine
 62
7
  6
CONTINUOUS
 10
131.0075562473
 20
192.3335345279
 11
147.0588133521
 21
201.6006768208
  0
LINE
  5
38C
100
AcDbEntity
  8
0
100
AcDbLine
 62
7
  6
CONTINUOUS
 10
57.0794330839
 20
149.3645750718
 11
56.2662564282
 21
148.8950901132
  0
LINE
  5
38D
100
AcDbEntity
  8
0
100
AcDbLine
 62
7
  6
CONTINUOUS
 10
57.326921016
 20
149.4258323654
 11
57.8572488939
 21
149.7320154808
  0
LINE
  5
38E
100
AcDbEntity
  8
0
100
AcDbLine
 62
7
  6
CONTINUOUS
 10
77.6916634364
 20
160.7754645137
 11
75.5703519248
 21
159.5507320521
  0
LINE
  5
38F
100
AcDbEntity
  8
0
100
AcDbLine
 62
7
  6
CONTINUOUS
 10
120.2595864592
 20
184.9443202719
 11
200.515871983
 21
231.2800317363
  0
LINE
  5
390
100
AcDbEntity
  8
0
100
AcDbLine
 62
7
  6
CONTINUOUS
 10
117.5902425364
 20
181.8313513356
 11
117.731681411
 21
181.9130106205
  0
LINE
  5
391
100
AcDbEntity
  8
0
100
AcDbLine
 62
7
  6
CONTINUOUS
 10
58.0340307411
 20
145.833232184
 11
58.7411526855
 21
146.241486792
  0
LINE
  5
392
100
AcDbEntity
  8
0
100
AcDbLine
 62
7
  6
CONTINUOUS
 10
60.8624696417
 20
147.3846285928
 11
61.2867754012
 21
147.629600175
  0
LINE
  5
393
100
AcDbEntity
  8
0
100
AcDbLine
 62
7
  6
CONTINUOUS
 10
57.1895288005
 20
154.1741861917
 11
56.9733732596
 21
154.053667327
  0
LINE
  5
394
100
AcDbEntity
  8
0
100
AcDbLine
 62
7
  6
CONTINUOUS
 10
55.306299855
 20
151.0823512298
 11
57.3520445607
 21
152.2229363758
  0
LINE
  5
395
100
AcDbEntity
  8
0
100
AcDbLine
 62
7
  6
CONTINUOUS
 10
75.7117738698
 20
136.4437157382
 11
76.2117667666
 21
136.3941998853
  0
LINE
  5
396
100
AcDbEntity
  8
0
100
AcDbLine
 62
7
  6
CONTINUOUS
 10
67.9335668932
 20
140.9343640379
 11
68.43355979
 21
140.8848481851
  0
LINE
  5
397
100
AcDbEntity
  8
0
100
AcDbLine
 62
7
  6
CONTINUOUS
 10
60.1553599165
 20
145.4250123376
 11
60.6553528133
 21
145.3754964848
  0
LINE
  5
398
100
AcDbEntity
  8
0
100
AcDbLine
 62
7
  6
CONTINUOUS
 10
94.4501815862
 20
141.383832394
 11
84.1338070334
 21
147.3398592757
  0
LINE
  5
399
100
AcDbEntity
  8
0
100
AcDbLine
 62
7
  6
CONTINUOUS
 10
82.9318983483
 20
148.0337658803
 11
74.4085414455
 21
152.9546169581
  0
LINE
  5
39A
100
AcDbEntity
  8
0
100
AcDbLine
 62
7
  6
CONTINUOUS
 10
73.2066327604
 20
153.6485235627
 11
64.578645414
 21
158.6297816886
  0
LINE
  5
39B
100
AcDbEntity
  8
0
100
AcDbLine
 62
7
  6
CONTINUOUS
 10
63.3767367289
 20
159.3236882932
 11
56.5945377202
 21
163.2393041335
  0
LINE
  5
39C
100
AcDbEntity
  8
0
100
AcDbLine
 62
7
  6
CONTINUOUS
 10
55.3926290352
 20
163.9332107381
 11
48.3528781654
 21
167.9975208508
  0
LINE
  5
39D
100
AcDbEntity
  8
0
100
AcDbLine
 62
7
  6
CONTINUOUS
 10
47.1509694804
 20
168.6914274554
 11
39.6491778873
 21
173.0224908693
  0
LINE
  5
39E
100
AcDbEntity
  8
0
100
AcDbLine
 62
7
  6
CONTINUOUS
 10
39.6491778873
 20
175.4719981207
 11
47.1509694804
 21
171.1409347068
  0
LINE
  5
39F
100
AcDbEntity
  8
0
100
AcDbLine
 62
7
  6
CONTINUOUS
 10
48.3528781654
 20
170.4470281022
 11
55.3926290352
 21
166.3827179895
  0
LINE
  5
3A0
100
AcDbEntity
  8
0
100
AcDbLine
 62
7
  6
CONTINUOUS
 10
56.5945377202
 20
165.6888113849
 11
63.3767367289
 21
161.7731955446
  0
LINE
  5
3A1
100
AcDbEntity
  8
0
100
AcDbLine
 62
7
  6
CONTINUOUS
 10
64.578645414
 20
161.07928894
 11
73.2066327604
 21
156.0980308141
  0
LINE
  5
3A2
100
AcDbEntity
  8
0
100
AcDbLine
 62
7
  6
CONTINUOUS
 10
74.4085414455
 20
155.4041242095
 11
82.9318983483
 21
150.4832731317
  0
LINE
  5
3A3
100
AcDbEntity
  8
0
100
AcDbLine
 62
7
  6
CONTINUOUS
 10
84.1338070334
 20
149.7893665271
 11
94.4501815862
 21
143.8333396454
  0
LINE
  5
3A4
100
AcDbEntity
  8
0
100
AcDbLine
 62
7
  6
CONTINUOUS
 10
36.3964731516
 20
182.1672698525
 11
98.1271521569
 21
146.5278519829
  0
LINE
  5
3A5
100
AcDbEntity
  8
0
100
AcDbLine
 62
7
  6
CONTINUOUS
 10
104.9977939756
 20
70.2765463006
 11
104.0816381983
 21
108.1398697108
  0
LINE
  5
3A6
100
AcDbEntity
  8
0
100
AcDbLine
 62
7
  6
CONTINUOUS
 10
100.1127491503
 20
106.4343172073
 11
100.1120173539
 21
106.4830835828
  0
LINE
  5
3A7
100
AcDbEntity
  8
0
100
AcDbLine
 62
7
  6
CONTINUOUS
 10
103.7430889119
 20
108.3700171478
 11
103.7437765728
 21
108.3214980324
  0
LINE
  5
3A8
100
AcDbEntity
  8
0
100
AcDbLine
 62
7
  6
CONTINUOUS
 10
96.5007026382
 20
176.5181287491
 11
96.5007026382
 21
174.0553476999
  0
LINE
  5
3A9
100
AcDbEntity
  8
0
100
AcDbLine
 62
7
  6
CONTINUOUS
 10
96.8365709258
 20
184.3172908678
 11
96.8365709258
 21
185.9094705812
  0
LINE
  5
3AA
100
AcDbEntity
  8
0
100
AcDbLine
 62
7
  6
CONTINUOUS
 10
98.0564411844
 20
127.8707707061
 11
98.0564411844
 21
146.5686760584
  0
LINE
  5
3AB
100
AcDbEntity
  8
0
100
AcDbLine
 62
7
  6
CONTINUOUS
 10
98.1271521569
 20
146.5278519829
 11
98.1271521569
 21
160.6015134399
  0
LINE
  5
3AC
100
AcDbEntity
  8
0
100
AcDbLine
 62
7
  6
CONTINUOUS
 10
98.3392850745
 20
126.5643710203
 11
98.3392850745
 21
160.3973909719
  0
LINE
  5
3AD
100
AcDbEntity
  8
0
100
AcDbLine
 62
7
  6
CONTINUOUS
 10
98.4841365853
 20
184.9582696232
 11
98.4841365853
 21
183.3660899098
  0
LINE
  5
3AE
100
AcDbEntity
  8
0
100
AcDbLine
 62
7
  6
CONTINUOUS
 10
99.693284147
 20
184.2601837458
 11
99.693284147
 21
184.0641874129
  0
LINE
  5
3AF
100
AcDbEntity
  8
0
100
AcDbLine
 62
7
  6
CONTINUOUS
 10
100.4286883295
 20
182.2434278348
 11
100.4286883295
 21
183.8356075482
  0
LINE
  5
3B0
100
AcDbEntity
  8
0
100
AcDbLine
 62
7
  6
CONTINUOUS
 10
100.4945831011
 20
159.1530572266
 11
100.4945831011
 21
115.6036585112
  0
LINE
  5
3B1
100
AcDbEntity
  8
0
100
AcDbLine
 62
7
  6
CONTINUOUS
 10
102.0762539891
 20
182.8844065902
 11
102.0762539891
 21
181.2922268768
  0
LINE
  5
3B2
100
AcDbEntity
  8
0
100
AcDbLine
 62
7
  6
CONTINUOUS
 10
102.5819404814
 20
64.1019900798
 11
102.5819404814
 21
57.5699707428
  0
LINE
  5
3B3
100
AcDbEntity
  8
0
100
AcDbLine
 62
7
  6
CONTINUOUS
 10
103.1826216399
 20
231.5451553712
 11
103.1826216399
 21
231.4226831449
  0
LINE
  5
3B4
100
AcDbEntity
  8
0
100
AcDbLine
 62
7
  6
CONTINUOUS
 10
103.2854015507
 20
182.1863207128
 11
103.2854015507
 21
181.9903243799
  0
LINE
  5
3B5
100
AcDbEntity
  8
0
100
AcDbLine
 62
7
  6
CONTINUOUS
 10
104.0208057332
 20
180.1695648019
 11
104.0208057332
 21
181.7617445153
  0
LINE
  5
3B6
100
AcDbEntity
  8
0
100
AcDbLine
 62
7
  6
CONTINUOUS
 10
104.1062200805
 20
117.4804926446
 11
104.1062200805
 21
108.5587229828
  0
LINE
  5
3B7
100
AcDbEntity
  8
0
100
AcDbLine
 62
7
  6
CONTINUOUS
 10
104.5119122168
 20
161.7559075578
 11
104.5119122168
 21
117.6913158402
  0
LINE
  5
3B8
100
AcDbEntity
  8
0
100
AcDbLine
 62
7
  6
CONTINUOUS
 10
104.816304174
 20
178.2650846747
 11
104.816304174
 21
182.9436435249
  0
LINE
  5
3B9
100
AcDbEntity
  8
0
100
AcDbLine
 62
7
  6
CONTINUOUS
 10
100.4383675194
 20
106.2463256072
 11
98.2095401086
 21
66.6263395036
  0
LINE
  5
3BA
100
AcDbEntity
  8
0
100
AcDbLine
 62
7
  6
CONTINUOUS
 10
105.9229320715
 20
186.6619788648
 11
105.4526976275
 21
183.3110632634
  0
LINE
  5
3BB
100
AcDbEntity
  8
0
100
AcDbLine
 62
7
  6
CONTINUOUS
 10
83.9899737432
 20
131.9035515856
 11
84.1970905715
 21
132.361329101
  0
LINE
  5
3BC
100
AcDbEntity
  8
0
100
AcDbLine
 62
7
  6
CONTINUOUS
 10
109.794365471
 20
168.4904832147
 11
110.0064983885
 21
168.6390871739
  0
LINE
  5
3BD
100
AcDbEntity
  8
0
100
AcDbLine
 62
7
  6
CONTINUOUS
 10
200.515871983
 20
226.7892684421
 11
120.2595864592
 21
180.4535569777
  0
LINE
  5
3BE
100
AcDbEntity
  8
0
100
AcDbLine
 62
7
  6
CONTINUOUS
 10
61.923116344
 20
146.445635004
 11
60.8624696417
 21
145.8332740002
  0
LINE
  5
3BF
100
AcDbEntity
  8
0
100
AcDbLine
 62
7
  6
CONTINUOUS
 10
60.6553576781
 20
145.3754880586
 11
61.9231342294
 21
146.1074348226
  0
LINE
  5
3C0
100
AcDbEntity
  8
0
100
AcDbLine
 62
7
  6
CONTINUOUS
 10
74.4085414455
 20
152.9546169581
 11
76.5298529571
 21
154.1793494197
  0
LINE
  5
3C1
100
AcDbEntity
  8
0
100
AcDbLine
 62
7
  6
CONTINUOUS
 10
61.569567591
 20
145.4249982282
 11
60.1553599165
 21
144.6085099205
  0
LINE
  5
3C2
100
AcDbEntity
  8
0
100
AcDbLine
 62
7
  6
CONTINUOUS
 10
65.1236663246
 20
146.9871219915
 11
64.0444634049
 21
146.3640476145
  0
LINE
  5
3C3
100
AcDbEntity
  8
0
100
AcDbLine
 62
7
  6
CONTINUOUS
 10
84.8334716604
 20
158.2852377273
 11
82.7121601487
 21
157.0605052657
  0
LINE
  5
3C4
100
AcDbEntity
  8
0
100
AcDbLine
 62
7
  6
CONTINUOUS
 10
64.5747912828
 20
145.8537283128
 11
65.4586710793
 21
146.3640335052
  0
LINE
  5
3C5
100
AcDbEntity
  8
0
100
AcDbLine
 62
7
  6
CONTINUOUS
 10
64.8576400605
 20
144.873926772
 11
64.0444634049
 21
144.4044418134
  0
LINE
  5
3C6
100
AcDbEntity
  8
0
100
AcDbLine
 62
7
  6
CONTINUOUS
 10
65.1051279926
 20
144.9351840656
 11
65.6354558705
 21
145.241367181
  0
LINE
  5
3C7
100
AcDbEntity
  8
0
100
AcDbLine
 62
7
  6
CONTINUOUS
 10
65.8122377177
 20
141.3425838843
 11
66.5193596621
 21
141.7508384923
  0
LINE
  5
3C8
100
AcDbEntity
  8
0
100
AcDbLine
 62
7
  6
CONTINUOUS
 10
68.6406766183
 20
142.893980293
 11
69.0649823779
 21
143.1389518752
  0
LINE
  5
3C9
100
AcDbEntity
  8
0
100
AcDbLine
 62
7
  6
CONTINUOUS
 10
117.5902425364
 20
170.7269184626
 11
118.8453670089
 21
171.4515605892
  0
LINE
  5
3CA
100
AcDbEntity
  8
0
100
AcDbLine
 62
7
  6
CONTINUOUS
 10
64.9677357772
 20
149.683537892
 11
64.7515802362
 21
149.5630190273
  0
LINE
  5
3CB
100
AcDbEntity
  8
0
100
AcDbLine
 62
7
  6
CONTINUOUS
 10
63.0845068316
 20
146.5917029301
 11
65.1302515374
 21
147.7322880761
  0
LINE
  5
3CC
100
AcDbEntity
  8
0
100
AcDbLine
 62
7
  6
CONTINUOUS
 10
72.7039777564
 20
145.1758095141
 11
72.7408143355
 21
145.195850419
  0
LINE
  5
3CD
100
AcDbEntity
  8
0
100
AcDbLine
 62
7
  6
CONTINUOUS
 10
54.3327838674
 20
151.3457835932
 11
53.9327943353
 21
151.3853879871
  0
LINE
  5
3CE
100
AcDbEntity
  8
0
100
AcDbLine
 62
7
  6
CONTINUOUS
 10
46.5545768908
 20
155.8364318929
 11
46.1545873586
 21
155.8760362868
  0
LINE
  5
3CF
100
AcDbEntity
  8
0
100
AcDbLine
 62
7
  6
CONTINUOUS
 10
91.9045865756
 20
151.753375457
 11
82.7121601487
 21
157.0605052657
  0
LINE
  5
3D0
100
AcDbEntity
  8
0
100
AcDbLine
 62
7
  6
CONTINUOUS
 10
53.7206614177
 20
173.7983762011
 11
39.5784669148
 21
181.9631912915
  0
LINE
  5
3D1
100
AcDbEntity
  8
0
100
AcDbLine
 62
7
  6
CONTINUOUS
 10
44.8110618059
 20
181.3100159423
 11
52.5892687825
 21
176.8193676426
  0
LINE
  5
3D2
100
AcDbEntity
  8
0
100
AcDbLine
 62
7
  6
CONTINUOUS
 10
39.5784669148
 20
184.4126985428
 11
53.7206614177
 21
176.2478834524
  0
LINE
  5
3D3
100
AcDbEntity
  8
0
100
AcDbLine
 62
7
  6
CONTINUOUS
 10
82.7121601487
 20
159.5100125171
 11
91.9045865756
 21
154.2028827083
  0
LINE
  5
3D4
100
AcDbEntity
  8
0
100
AcDbLine
 62
7
  6
CONTINUOUS
 10
53.7206614177
 20
178.2891394953
 11
39.5784669148
 21
186.4539545857
  0
LINE
  5
3D5
100
AcDbEntity
  8
0
100
AcDbLine
 62
7
  6
CONTINUOUS
 10
63.5494865973
 20
173.022844216
 11
64.2565963224
 21
172.6146034615
  0
LINE
  5
3D6
100
AcDbEntity
  8
0
100
AcDbLine
 62
7
  6
CONTINUOUS
 10
71.3276935739
 20
168.5321959163
 11
72.034803299
 21
168.1239551618
  0
LINE
  5
3D7
100
AcDbEntity
  8
0
100
AcDbLine
 62
7
  6
CONTINUOUS
 10
77.6916811002
 20
164.8580291256
 11
78.3987908253
 21
164.4497883711
  0
LINE
  5
3D8
100
AcDbEntity
  8
0
100
AcDbLine
 62
7
  6
CONTINUOUS
 10
44.8110618059
 20
185.8007792366
 11
52.5892687825
 21
181.3101309368
  0
LINE
  5
3D9
100
AcDbEntity
  8
0
100
AcDbLine
 62
7
  6
CONTINUOUS
 10
39.5784669148
 20
188.9034618371
 11
53.7206614177
 21
180.7386467467
  0
LINE
  5
3DA
100
AcDbEntity
  8
0
100
AcDbLine
 62
7
  6
CONTINUOUS
 10
53.7206614177
 20
182.7799027895
 11
39.5784669148
 21
190.9447178799
  0
LINE
  5
3DB
100
AcDbEntity
  8
0
100
AcDbLine
 62
7
  6
CONTINUOUS
 10
163.7341240165
 20
93.4182287411
 11
164.453576285
 21
92.7199313388
  0
LINE
  5
3DC
100
AcDbEntity
  8
0
100
AcDbLine
 62
7
  6
CONTINUOUS
 10
114.8463418908
 20
105.1494237503
 11
117.9319140774
 21
66.2123420101
  0
LINE
  5
3DD
100
AcDbEntity
  8
0
100
AcDbLine
 62
7
  6
CONTINUOUS
 10
109.0864877188
 20
108.1424052809
 11
110.0015109666
 21
70.325887595
  0
LINE
  5
3DE
100
AcDbEntity
  8
0
100
AcDbLine
 62
7
  6
CONTINUOUS
 10
105.9229320715
 20
177.4628909122
 11
105.9229320715
 21
188.5673237852
  0
LINE
  5
3DF
100
AcDbEntity
  8
0
100
AcDbLine
 62
7
  6
CONTINUOUS
 10
106.1174891071
 20
55.5287669702
 11
106.1174891071
 21
62.0607863072
  0
LINE
  5
3E0
100
AcDbEntity
  8
0
100
AcDbLine
 62
7
  6
CONTINUOUS
 10
107.5316673419
 20
67.0594638758
 11
107.5316673419
 21
62.9057612301
  0
LINE
  5
3E1
100
AcDbEntity
  8
0
100
AcDbLine
 62
7
  6
CONTINUOUS
 10
108.5923731452
 20
60.6319436664
 11
108.5923731452
 21
54.0999243293
  0
LINE
  5
3E2
100
AcDbEntity
  8
0
100
AcDbLine
 62
7
  6
CONTINUOUS
 10
108.6155008095
 20
117.7164415249
 11
108.6155008095
 21
162.0516909335
  0
LINE
  5
3E3
100
AcDbEntity
  8
0
100
AcDbLine
 62
7
  6
CONTINUOUS
 10
109.0823570235
 20
108.5494761107
 11
109.0823570235
 21
117.4738376836
  0
LINE
  5
3E4
100
AcDbEntity
  8
0
100
AcDbLine
 62
7
  6
CONTINUOUS
 10
109.794365471
 20
168.4904832147
 11
109.794365471
 21
168.8432096419
  0
LINE
  5
3E5
100
AcDbEntity
  8
0
100
AcDbLine
 62
7
  6
CONTINUOUS
 10
109.4059663393
 20
108.3240534683
 11
109.4067718248
 21
108.3808925627
  0
LINE
  5
3E6
100
AcDbEntity
  8
0
100
AcDbLine
 62
7
  6
CONTINUOUS
 10
91.7681807198
 20
127.4129032859
 11
91.9752975482
 21
127.8706808013
  0
LINE
  5
3E7
100
AcDbEntity
  8
0
100
AcDbLine
 62
7
  6
CONTINUOUS
 10
120.9842111423
 20
163.6749630578
 11
119.9903245793
 21
162.9816153861
  0
LINE
  5
3E8
100
AcDbEntity
  8
0
100
AcDbLine
 62
7
  6
CONTINUOUS
 10
69.7013233206
 20
141.9549867043
 11
68.6406766183
 21
141.3426257005
  0
LINE
  5
3E9
100
AcDbEntity
  8
0
100
AcDbLine
 62
7
  6
CONTINUOUS
 10
68.4335646547
 20
140.8848397589
 11
69.701341206
 21
141.6167865229
  0
LINE
  5
3EA
100
AcDbEntity
  8
0
100
AcDbLine
 62
7
  6
CONTINUOUS
 10
73.4885852777
 20
143.6876710619
 11
73.1745939796
 21
143.5063891835
  0
LINE
  5
3EB
100
AcDbEntity
  8
0
100
AcDbLine
 62
7
  6
CONTINUOUS
 10
69.3477745676
 20
140.9343499285
 11
67.9335668932
 21
140.1178616208
  0
LINE
  5
3EC
100
AcDbEntity
  8
0
100
AcDbLine
 62
7
  6
CONTINUOUS
 10
73.2368780559
 20
142.6898876226
 11
71.8226703815
 21
141.8733993148
  0
LINE
  5
3ED
100
AcDbEntity
  8
0
100
AcDbLine
 62
7
  6
CONTINUOUS
 10
72.3529982594
 20
141.3630800131
 11
73.2368780559
 21
141.8733852054
  0
LINE
  5
3EE
100
AcDbEntity
  8
0
100
AcDbLine
 62
7
  6
CONTINUOUS
 10
84.1338070334
 20
147.3398592757
 11
86.2551185451
 21
148.5645917374
  0
LINE
  5
3EF
100
AcDbEntity
  8
0
100
AcDbLine
 62
7
  6
CONTINUOUS
 10
72.6358470371
 20
140.3832784723
 11
71.8226703815
 21
139.9137935137
  0
LINE
  5
3F0
100
AcDbEntity
  8
0
100
AcDbLine
 62
7
  6
CONTINUOUS
 10
72.8833349692
 20
140.4445357659
 11
73.4136628471
 21
140.7507188813
  0
LINE
  5
3F1
100
AcDbEntity
  8
0
100
AcDbLine
 62
7
  6
CONTINUOUS
 10
73.5904446943
 20
136.8519355846
 11
74.2975666387
 21
137.2601901926
  0
LINE
  5
3F2
100
AcDbEntity
  8
0
100
AcDbLine
 62
7
  6
CONTINUOUS
 10
76.4188835949
 20
138.4033319933
 11
76.8431893545
 21
138.6483035755
  0
LINE
  5
3F3
100
AcDbEntity
  8
0
100
AcDbLine
 62
7
  6
CONTINUOUS
 10
127.9318783587
 20
167.8998800539
 11
124.5969875954
 21
165.974491467
  0
LINE
  5
3F4
100
AcDbEntity
  8
0
100
AcDbLine
 62
7
  6
CONTINUOUS
 10
51.0336415182
 20
123.256828101
 11
52.8723759783
 21
124.3184154627
  0
LINE
  5
3F5
100
AcDbEntity
  8
0
100
AcDbLine
 62
7
  6
CONTINUOUS
 10
77.4795302972
 20
137.4643384045
 11
76.4188835949
 21
136.8519774008
  0
LINE
  5
3F6
100
AcDbEntity
  8
0
100
AcDbLine
 62
7
  6
CONTINUOUS
 10
76.2117716313
 20
136.3941914591
 11
77.4795481826
 21
137.1261382232
  0
LINE
  5
3F7
100
AcDbEntity
  8
0
100
AcDbLine
 62
7
  6
CONTINUOUS
 10
81.2667922543
 20
139.1970227621
 11
80.9528009562
 21
139.0157408838
  0
LINE
  5
3F8
100
AcDbEntity
  8
0
100
AcDbLine
 62
7
  6
CONTINUOUS
 10
77.1259815442
 20
136.4437016288
 11
75.7117738698
 21
135.627213321
  0
LINE
  5
3F9
100
AcDbEntity
  8
0
100
AcDbLine
 62
7
  6
CONTINUOUS
 10
81.0150850325
 20
138.1992393228
 11
79.6008773581
 21
137.3827510151
  0
LINE
  5
3FA
100
AcDbEntity
  8
0
100
AcDbLine
 62
7
  6
CONTINUOUS
 10
70.8627138082
 20
142.1010546304
 11
73.1728354433
 21
143.3890405726
  0
LINE
  5
3FB
100
AcDbEntity
  8
0
100
AcDbLine
 62
7
  6
CONTINUOUS
 10
78.6409207848
 20
137.6104063306
 11
80.9510424199
 21
138.8983922729
  0
LINE
  5
3FC
100
AcDbEntity
  8
0
100
AcDbLine
 62
7
  6
CONTINUOUS
 10
80.4803964633
 20
140.684188308
 11
80.5190213121
 21
140.7052021193
  0
LINE
  5
3FD
100
AcDbEntity
  8
0
100
AcDbLine
 62
7
  6
CONTINUOUS
 10
132.987455529
 20
138.7068566576
 11
131.1682334901
 21
139.7571612304
  0
LINE
  5
3FE
100
AcDbEntity
  8
0
100
AcDbLine
 62
7
  6
CONTINUOUS
 10
44.8110618059
 20
190.2915425308
 11
52.5892687825
 21
185.800894231
  0
LINE
  5
3FF
100
AcDbEntity
  8
0
100
AcDbLine
 62
7
  6
CONTINUOUS
 10
39.5784669148
 20
193.3942251313
 11
53.7206614177
 21
185.2294100409
  0
LINE
  5
400
100
AcDbEntity
  8
0
100
AcDbLine
 62
7
  6
CONTINUOUS
 10
98.3392850745
 20
160.3973909719
 11
100.4945831011
 21
159.1530572266
  0
LINE
  5
401
100
AcDbEntity
  8
0
100
AcDbLine
 62
7
  6
CONTINUOUS
 10
56.9733661534
 20
184.361125353
 11
98.1271521569
 21
160.6015134399
  0
LINE
  5
402
100
AcDbEntity
  8
0
100
AcDbLine
 62
7
  6
CONTINUOUS
 10
132.987455529
 20
143.4656513054
 11
131.1677531011
 21
144.5162332247
  0
LINE
  5
403
100
AcDbEntity
  8
0
100
AcDbLine
 62
7
  6
CONTINUOUS
 10
33.9923000861
 20
204.7243569566
 11
36.1136292616
 21
203.499634693
  0
LINE
  5
404
100
AcDbEntity
  8
0
100
AcDbLine
 62
7
  6
CONTINUOUS
 10
36.3964731516
 20
203.3442828482
 11
56.9733661534
 21
191.4644768916
  0
LINE
  5
405
100
AcDbEntity
  8
0
100
AcDbLine
 62
7
  6
CONTINUOUS
 10
118.499798785
 20
128.6805695752
 11
118.4973244395
 21
130.9785300063
  0
LINE
  5
406
100
AcDbEntity
  8
0
100
AcDbLine
 62
7
  6
CONTINUOUS
 10
114.7976078644
 20
105.5224055407
 11
114.7975643527
 21
105.5795440183
  0
LINE
  5
407
100
AcDbEntity
  8
0
100
AcDbLine
 62
7
  6
CONTINUOUS
 10
118.4977619014
 20
133.4433066766
 11
118.495916269
 21
135.7416308806
  0
LINE
  5
408
100
AcDbEntity
  8
0
100
AcDbLine
 62
7
  6
CONTINUOUS
 10
118.4957546862
 20
138.2057555391
 11
118.4945309424
 21
140.504439342
  0
LINE
  5
409
100
AcDbEntity
  8
0
100
AcDbLine
 62
7
  6
CONTINUOUS
 10
118.4937765368
 20
142.9679207534
 11
118.4931679678
 21
145.2669600523
  0
LINE
  5
40A
100
AcDbEntity
  8
0
100
AcDbLine
 62
7
  6
CONTINUOUS
 10
114.4189087638
 20
159.0732491852
 11
114.4189087638
 21
114.700675598
  0
LINE
  5
40B
100
AcDbEntity
  8
0
100
AcDbLine
 62
7
  6
CONTINUOUS
 10
114.8431710661
 20
114.9456220903
 11
114.8431710661
 21
105.5558442934
  0
LINE
  5
40C
100
AcDbEntity
  8
0
100
AcDbLine
 62
7
  6
CONTINUOUS
 10
115.2033859893
 20
238.6077787233
 11
115.2033859893
 21
238.485305987
  0
LINE
  5
40D
100
AcDbEntity
  8
0
100
AcDbLine
 62
7
  6
CONTINUOUS
 10
116.0169281083
 20
182.9030015048
 11
116.0169281083
 21
184.9442575476
  0
LINE
  5
40E
100
AcDbEntity
  8
0
100
AcDbLine
 62
7
  6
CONTINUOUS
 10
117.5902425364
 20
170.7269184626
 11
117.5902425364
 21
181.8313513356
  0
LINE
  5
40F
100
AcDbEntity
  8
0
100
AcDbLine
 62
7
  6
CONTINUOUS
 10
118.4918268661
 20
147.7298068165
 11
118.4918268661
 21
150.0291975782
  0
LINE
  5
410
100
AcDbEntity
  8
0
100
AcDbLine
 62
7
  6
CONTINUOUS
 10
118.8453670089
 20
181.2700384867
 11
118.8453670089
 21
165.7564925613
  0
LINE
  5
411
100
AcDbEntity
  8
0
100
AcDbLine
 62
7
  6
CONTINUOUS
 10
120.2595864592
 20
162.5956390927
 11
120.2595864592
 21
184.9443202719
  0
LINE
  5
412
100
AcDbEntity
  8
0
100
AcDbLine
 62
7
  6
CONTINUOUS
 10
118.4899051021
 20
152.4914181276
 11
118.4905071716
 21
154.791156387
  0
LINE
  5
413
100
AcDbEntity
  8
0
100
AcDbLine
 62
7
  6
CONTINUOUS
 10
90.9146329604
 20
137.6748012327
 11
89.6418460535
 21
136.8113792863
  0
LINE
  5
414
100
AcDbEntity
  8
0
100
AcDbLine
 62
7
  6
CONTINUOUS
 10
80.131205236
 20
136.8724317134
 11
81.0150850325
 21
137.3827369057
  0
LINE
  5
415
100
AcDbEntity
  8
0
100
AcDbLine
 62
7
  6
CONTINUOUS
 10
98.3392850745
 20
146.6503262489
 11
98.1271521569
 21
146.5278519829
  0
LINE
  5
416
100
AcDbEntity
  8
0
100
AcDbLine
 62
7
  6
CONTINUOUS
 10
80.4140540138
 20
135.8926301726
 11
79.6008773581
 21
135.423145214
  0
LINE
  5
417
100
AcDbEntity
  8
0
100
AcDbLine
 62
7
  6
CONTINUOUS
 10
80.6615419458
 20
135.9538874662
 11
81.1918698237
 21
136.2600705816
  0
LINE
  5
418
100
AcDbEntity
  8
0
100
AcDbLine
 62
7
  6
CONTINUOUS
 10
81.368651671
 20
132.3612872849
 11
82.0757736153
 21
132.7695418929
  0
LINE
  5
419
100
AcDbEntity
  8
0
100
AcDbLine
 62
7
  6
CONTINUOUS
 10
84.1970905715
 20
133.9126836936
 11
84.6213963311
 21
134.1576552758
  0
LINE
  5
41A
100
AcDbEntity
  8
0
100
AcDbLine
 62
7
  6
CONTINUOUS
 10
85.2577372738
 20
132.9736901048
 11
84.1970905715
 21
132.361329101
  0
LINE
  5
41B
100
AcDbEntity
  8
0
100
AcDbLine
 62
7
  6
CONTINUOUS
 10
83.989978608
 20
131.9035431594
 11
85.2577551593
 21
132.6354899235
  0
LINE
  5
41C
100
AcDbEntity
  8
0
100
AcDbLine
 62
7
  6
CONTINUOUS
 10
89.0449992309
 20
134.7063744624
 11
88.7310079328
 21
134.5250925841
  0
LINE
  5
41D
100
AcDbEntity
  8
0
100
AcDbLine
 62
7
  6
CONTINUOUS
 10
84.9041885208
 20
131.953053329
 11
83.4899808464
 21
131.1365650213
  0
LINE
  5
41E
100
AcDbEntity
  8
0
100
AcDbLine
 62
7
  6
CONTINUOUS
 10
88.7932920091
 20
133.7085910231
 11
87.3790843347
 21
132.8921027154
  0
LINE
  5
41F
100
AcDbEntity
  8
0
100
AcDbLine
 62
7
  6
CONTINUOUS
 10
87.9094122126
 20
132.3817834137
 11
88.7932920091
 21
132.892088606
  0
LINE
  5
420
100
AcDbEntity
  8
0
100
AcDbLine
 62
7
  6
CONTINUOUS
 10
88.7292493965
 20
134.4077439732
 11
86.4191277614
 21
133.1197580309
  0
LINE
  5
421
100
AcDbEntity
  8
0
100
AcDbLine
 62
7
  6
CONTINUOUS
 10
88.2966956127
 20
136.2148613532
 11
88.2582695471
 21
136.1940052216
  0
LINE
  5
422
100
AcDbEntity
  8
0
100
AcDbLine
 62
7
  6
CONTINUOUS
 10
95.0511277017
 20
171.9819804677
 11
96.4653471519
 21
171.1654989586
  0
LINE
  5
423
100
AcDbEntity
  8
0
100
AcDbLine
 62
7
  6
CONTINUOUS
 10
135.3176165308
 20
150.2484228636
 11
133.9376812167
 21
151.0451108651
  0
LINE
  5
424
100
AcDbEntity
  8
0
100
AcDbLine
 62
7
  6
CONTINUOUS
 10
96.4653505111
 20
176.4568956836
 11
101.3864587695
 21
173.615756781
  0
LINE
  5
425
100
AcDbEntity
  8
0
100
AcDbLine
 62
7
  6
CONTINUOUS
 10
109.7590102791
 20
168.781971268
 11
110.0064983885
 21
168.6390871739
  0
LINE
  5
426
100
AcDbEntity
  8
0
100
AcDbLine
 62
7
  6
CONTINUOUS
 10
96.5007026382
 20
176.5181287491
 11
92.89444304
 21
178.6001565972
  0
LINE
  5
427
100
AcDbEntity
  8
0
100
AcDbLine
 62
7
  6
CONTINUOUS
 10
109.794365471
 20
168.8432096419
 11
101.4504707142
 21
173.6604505453
  0
LINE
  5
428
100
AcDbEntity
  8
0
100
AcDbLine
 62
7
  6
CONTINUOUS
 10
69.4367165857
 20
192.1431819739
 11
68.6405794674
 21
192.602821555
  0
LINE
  5
429
100
AcDbEntity
  8
0
100
AcDbLine
 62
7
  6
CONTINUOUS
 10
135.4406334708
 20
155.0888703643
 11
134.059611207
 21
155.8861859024
  0
LINE
  5
42A
100
AcDbEntity
  8
0
100
AcDbLine
 62
7
  6
CONTINUOUS
 10
93.2126394723
 20
180.5552199126
 11
118.8453670089
 21
165.7564925613
  0
LINE
  5
42B
100
AcDbEntity
  8
0
100
AcDbLine
 62
7
  6
CONTINUOUS
 10
96.4774370455
 20
176.501905628
 11
92.7754383873
 21
178.6402642946
  0
LINE
  5
42C
100
AcDbEntity
  8
0
100
AcDbLine
 62
7
  6
CONTINUOUS
 10
70.9740415604
 20
191.2545779347
 11
70.8507141128
 21
191.3258345652
  0
LINE
  5
42D
100
AcDbEntity
  8
0
100
AcDbLine
 62
7
  6
CONTINUOUS
 10
128.3912502643
 20
193.3145019601
 11
128.3912502643
 21
193.8440253197
  0
LINE
  5
42E
100
AcDbEntity
  8
0
100
AcDbLine
 62
7
  6
CONTINUOUS
 10
88.1922609904
 20
131.4019818729
 11
87.3790843347
 21
130.9324969143
  0
LINE
  5
42F
100
AcDbEntity
  8
0
100
AcDbLine
 62
7
  6
CONTINUOUS
 10
88.4397489224
 20
131.4632391665
 11
88.9700768003
 21
131.7694222819
  0
LINE
  5
430
100
AcDbEntity
  8
0
100
AcDbLine
 62
7
  6
CONTINUOUS
 10
40.6173708029
 20
101.8108691793
 11
37.8814006305
 21
100.2312654927
  0
LINE
  5
431
100
AcDbEntity
  8
0
100
AcDbLine
 62
7
  6
CONTINUOUS
 10
89.1468586476
 20
127.8706389851
 11
89.853980592
 21
128.2788935931
  0
LINE
  5
432
100
AcDbEntity
  8
0
100
AcDbLine
 62
7
  6
CONTINUOUS
 10
91.9752975482
 20
129.4220353939
 11
92.3996033077
 21
129.6670069761
  0
LINE
  5
433
100
AcDbEntity
  8
0
100
AcDbLine
 62
7
  6
CONTINUOUS
 10
93.5615648668
 20
129.929631746
 11
93.0359621359
 21
129.6261766792
  0
LINE
  5
434
100
AcDbEntity
  8
0
100
AcDbLine
 62
7
  6
CONTINUOUS
 10
93.0359442505
 20
128.4830418051
 11
91.9752975482
 21
127.8706808013
  0
LINE
  5
435
100
AcDbEntity
  8
0
100
AcDbLine
 62
7
  6
CONTINUOUS
 10
91.7681855846
 20
127.4128948597
 11
93.0359621359
 21
128.1448416237
  0
LINE
  5
436
100
AcDbEntity
  8
0
100
AcDbLine
 62
7
  6
CONTINUOUS
 10
92.6823954974
 20
127.4624050293
 11
91.268187823
 21
126.6459167216
  0
LINE
  5
437
100
AcDbEntity
  8
0
100
AcDbLine
 62
7
  6
CONTINUOUS
 10
98.3392850745
 20
128.0340697274
 11
98.0564411844
 21
127.8707707061
  0
LINE
  5
438
100
AcDbEntity
  8
0
100
AcDbLine
 62
7
  6
CONTINUOUS
 10
47.1934912468
 20
98.0142301623
 11
44.4575210743
 21
96.4346264757
  0
LINE
  5
439
100
AcDbEntity
  8
0
100
AcDbLine
 62
7
  6
CONTINUOUS
 10
92.6824178716
 20
131.5449836482
 11
94.0665601312
 21
132.2155335367
  0
LINE
  5
43A
100
AcDbEntity
  8
0
100
AcDbLine
 62
7
  6
CONTINUOUS
 10
94.0665601312
 20
130.1742774939
 11
92.6824178716
 21
129.5037276054
  0
LINE
  5
43B
100
AcDbEntity
  8
0
100
AcDbLine
 62
7
  6
CONTINUOUS
 10
93.7783225421
 20
183.1680220037
 11
118.8453670089
 21
168.6958845365
  0
LINE
  5
43C
100
AcDbEntity
  8
0
100
AcDbLine
 62
7
  6
CONTINUOUS
 10
93.7783225421
 20
183.3990866059
 11
75.3461481691
 21
194.0406666972
  0
LINE
  5
43D
100
AcDbEntity
  8
0
100
AcDbLine
 62
7
  6
CONTINUOUS
 10
75.8064165603
 20
194.1431035289
 11
75.5055673098
 21
194.3167949953
  0
LINE
  5
43E
100
AcDbEntity
  8
0
100
AcDbLine
 62
7
  6
CONTINUOUS
 10
135.4550405887
 20
159.8556460182
 11
134.0734933373
 21
160.6532646512
  0
LINE
  5
43F
100
AcDbEntity
  8
0
100
AcDbLine
 62
7
  6
CONTINUOUS
 10
93.7783225421
 20
184.4744258711
 11
105.9229320715
 21
177.4628909122
  0
LINE
  5
440
100
AcDbEntity
  8
0
100
AcDbLine
 62
7
  6
CONTINUOUS
 10
117.5902425364
 20
170.7269184626
 11
118.8453670089
 21
170.0022884039
  0
LINE
  5
441
100
AcDbEntity
  8
0
100
AcDbLine
 62
7
  6
CONTINUOUS
 10
104.816304174
 20
178.2650846747
 11
94.0682363518
 21
184.4703441434
  0
LINE
  5
442
100
AcDbEntity
  8
0
100
AcDbLine
 62
7
  6
CONTINUOUS
 10
94.8920191816
 20
185.4399529427
 11
96.8365709258
 21
184.3172908678
  0
LINE
  5
443
100
AcDbEntity
  8
0
100
AcDbLine
 62
7
  6
CONTINUOUS
 10
98.4841365853
 20
183.3660899098
 11
100.4286883295
 21
182.2434278348
  0
LINE
  5
444
100
AcDbEntity
  8
0
100
AcDbLine
 62
7
  6
CONTINUOUS
 10
102.0762539891
 20
181.2922268768
 11
104.0208057332
 21
180.1695648019
  0
LINE
  5
445
100
AcDbEntity
  8
0
100
AcDbLine
 62
7
  6
CONTINUOUS
 10
96.1011667432
 20
186.1380504459
 11
96.8365709258
 21
185.7134742483
  0
LINE
  5
446
100
AcDbEntity
  8
0
100
AcDbLine
 62
7
  6
CONTINUOUS
 10
99.693284147
 20
184.0641874129
 11
100.4286883295
 21
183.6396112154
  0
LINE
  5
447
100
AcDbEntity
  8
0
100
AcDbLine
 62
7
  6
CONTINUOUS
 10
103.2854015507
 20
181.9903243799
 11
104.0208057332
 21
181.5657481824
  0
LINE
  5
448
100
AcDbEntity
  8
0
100
AcDbLine
 62
7
  6
CONTINUOUS
 10
78.4342198124
 20
196.4767200454
 11
78.8584634335
 21
196.2317884176
  0
LINE
  5
449
100
AcDbEntity
  8
0
100
AcDbLine
 62
7
  6
CONTINUOUS
 10
104.0208057332
 20
181.7617445153
 11
102.0762539891
 21
182.8844065902
  0
LINE
  5
44A
100
AcDbEntity
  8
0
100
AcDbLine
 62
7
  6
CONTINUOUS
 10
100.4286883295
 20
183.8356075482
 11
98.4841365853
 21
184.9582696232
  0
LINE
  5
44B
100
AcDbEntity
  8
0
100
AcDbLine
 62
7
  6
CONTINUOUS
 10
96.8365709258
 20
185.9094705812
 11
94.8920191816
 21
187.0321326561
  0
LINE
  5
44C
100
AcDbEntity
  8
0
100
AcDbLine
 62
7
  6
CONTINUOUS
 10
135.3615895169
 20
164.5493848032
 11
133.9800819514
 21
165.3469805241
  0
LINE
  5
44D
100
AcDbEntity
  8
0
100
AcDbLine
 62
7
  6
CONTINUOUS
 10
94.0682363518
 20
189.1489029936
 11
104.816304174
 21
182.9436435249
  0
LINE
  5
44E
100
AcDbEntity
  8
0
100
AcDbLine
 62
7
  6
CONTINUOUS
 10
94.7046298053
 20
189.5163227321
 11
105.4526976275
 21
183.3110632634
  0
LINE
  5
44F
100
AcDbEntity
  8
0
100
AcDbLine
 62
7
  6
CONTINUOUS
 10
132.9870904772
 20
242.9147793619
 11
132.9870904772
 21
241.2817745276
  0
LINE
  5
450
100
AcDbEntity
  8
0
100
AcDbLine
 62
7
  6
CONTINUOUS
 10
132.987455529
 20
138.7068566576
 11
132.987455529
 21
141.0022296134
  0
LINE
  5
451
100
AcDbEntity
  8
0
100
AcDbLine
 62
7
  6
CONTINUOUS
 10
132.987455529
 20
143.4656513054
 11
132.987455529
 21
145.7609590755
  0
LINE
  5
452
100
AcDbEntity
  8
0
100
AcDbLine
 62
7
  6
CONTINUOUS
 10
133.5883398212
 20
213.9908029268
 11
133.5883398212
 21
213.8683307005
  0
LINE
  5
453
100
AcDbEntity
  8
0
100
AcDbLine
 62
7
  6
CONTINUOUS
 10
134.260242436
 20
168.1108755304
 11
134.260242436
 21
170.405477175
  0
LINE
  5
454
100
AcDbEntity
  8
0
100
AcDbLine
 62
7
  6
CONTINUOUS
 10
135.3176165308
 20
150.2484228636
 11
135.3176165308
 21
151.9869811837
  0
LINE
  5
455
100
AcDbEntity
  8
0
100
AcDbLine
 62
7
  6
CONTINUOUS
 10
135.3615895169
 20
164.5493848032
 11
135.3615895169
 21
166.2884492935
  0
LINE
  5
456
100
AcDbEntity
  8
0
100
AcDbLine
 62
7
  6
CONTINUOUS
 10
135.4406334708
 20
155.0888703643
 11
135.4406334708
 21
156.8283013939
  0
LINE
  5
457
100
AcDbEntity
  8
0
100
AcDbLine
 62
7
  6
CONTINUOUS
 10
135.4550405887
 20
159.8556460182
 11
135.4550405887
 21
161.5952467357
  0
LINE
  5
458
100
AcDbEntity
  8
0
100
AcDbLine
 62
7
  6
CONTINUOUS
 10
137.4068315487
 20
197.6202809375
 11
137.4068315487
 21
196.8037785203
  0
LINE
  5
459
100
AcDbEntity
  8
0
100
AcDbLine
 62
7
  6
CONTINUOUS
 10
138.8531357168
 20
154.4001381978
 11
138.8531357168
 21
152.6294756708
  0
LINE
  5
45A
100
AcDbEntity
  8
0
100
AcDbLine
 62
7
  6
CONTINUOUS
 10
138.897108703
 20
168.6978323329
 11
138.897108703
 21
166.9264094285
  0
LINE
  5
45B
100
AcDbEntity
  8
0
100
AcDbLine
 62
7
  6
CONTINUOUS
 10
138.9761526568
 20
159.2401867654
 11
138.9761526568
 21
157.4679832785
  0
LINE
  5
45C
100
AcDbEntity
  8
0
100
AcDbLine
 62
7
  6
CONTINUOUS
 10
138.9905597747
 20
164.0058741895
 11
138.9905597747
 21
162.2334176756
  0
LINE
  5
45D
100
AcDbEntity
  8
0
100
AcDbLine
 62
7
  6
CONTINUOUS
 10
139.6065400039
 20
237.023765505
 11
139.075047848
 21
230.8253729219
  0
LINE
  5
45E
100
AcDbEntity
  8
0
100
AcDbLine
 62
7
  6
CONTINUOUS
 10
53.7696116906
 20
94.2175911452
 11
51.0336415182
 21
92.6379874586
  0
LINE
  5
45F
100
AcDbEntity
  8
0
100
AcDbLine
 62
7
  6
CONTINUOUS
 10
95.6249341975
 20
116.7673914467
 11
90.6353252583
 21
113.8866565781
  0
LINE
  5
460
100
AcDbEntity
  8
0
100
AcDbLine
 62
7
  6
CONTINUOUS
 10
94.9875904393
 20
191.5327152257
 11
82.994806793
 21
198.4565954531
  0
LINE
  5
461
100
AcDbEntity
  8
0
100
AcDbLine
 62
7
  6
CONTINUOUS
 10
95.0190825973
 20
191.757130015
 11
82.2876982455
 21
199.1074319116
  0
LINE
  5
462
100
AcDbEntity
  8
0
100
AcDbLine
 62
7
  6
CONTINUOUS
 10
82.2876982455
 20
200.1712435768
 11
95.1571791531
 21
192.7412134001
  0
LINE
  5
463
100
AcDbEntity
  8
0
100
AcDbLine
 62
7
  6
CONTINUOUS
 10
95.2370197448
 20
193.3101616933
 11
105.9229320715
 21
187.1407869049
  0
LINE
  5
464
100
AcDbEntity
  8
0
100
AcDbLine
 62
7
  6
CONTINUOUS
 10
105.9229320715
 20
188.5673237852
 11
117.5902425364
 21
181.8313513356
  0
LINE
  5
465
100
AcDbEntity
  8
0
100
AcDbLine
 62
7
  6
CONTINUOUS
 10
69.3476862486
 20
209.8468913032
 11
73.5903445995
 21
207.397446776
  0
LINE
  5
466
100
AcDbEntity
  8
0
100
AcDbLine
 62
7
  6
CONTINUOUS
 10
116.0169281083
 20
182.9030015048
 11
120.2595864592
 21
180.4535569777
  0
LINE
  5
467
100
AcDbEntity
  8
0
100
AcDbLine
 62
7
  6
CONTINUOUS
 10
82.8180305393
 20
202.1512697788
 11
96.6843105063
 21
194.1457504163
  0
LINE
  5
468
100
AcDbEntity
  8
0
100
AcDbLine
 62
7
  6
CONTINUOUS
 10
82.8180305393
 20
203.4576736462
 11
97.8157056173
 21
194.7989577891
  0
LINE
  5
469
100
AcDbEntity
  8
0
100
AcDbLine
 62
7
  6
CONTINUOUS
 10
97.9712684615
 20
194.8887715029
 11
83.3412904406
 21
203.3352021677
  0
LINE
  5
46A
100
AcDbEntity
  8
0
100
AcDbLine
 62
7
  6
CONTINUOUS
 10
116.0169281083
 20
184.9442575476
 11
73.5903445995
 21
209.4387028189
  0
LINE
  5
46B
100
AcDbEntity
  8
0
100
AcDbLine
 62
7
  6
CONTINUOUS
 10
69.3476862486
 20
213.6301823113
 11
59.0237959425
 21
219.5905483172
  0
LINE
  5
46C
100
AcDbEntity
  8
0
100
AcDbLine
 62
7
  6
CONTINUOUS
 10
58.7409520524
 20
219.7600668128
 11
69.3476862486
 21
213.6364045051
  0
LINE
  5
46D
100
AcDbEntity
  8
0
100
AcDbLine
 62
7
  6
CONTINUOUS
 10
69.3476862486
 20
214.3376545974
 11
120.2595864592
 21
184.9443202719
  0
LINE
  5
46E
100
AcDbEntity
  8
0
100
AcDbLine
 62
7
  6
CONTINUOUS
 10
141.614122343
 20
173.0451846173
 11
139.7715946586
 21
174.1089444065
  0
LINE
  5
46F
100
AcDbEntity
  8
0
100
AcDbLine
 62
7
  6
CONTINUOUS
 10
141.614122343
 20
175.3380184825
 11
141.614122343
 21
173.0451846173
  0
LINE
  5
470
100
AcDbEntity
  8
0
100
AcDbLine
 62
7
  6
CONTINUOUS
 10
144.442507369
 20
203.1111676125
 11
144.442507369
 21
201.4781627783
  0
LINE
  5
471
100
AcDbEntity
  8
0
100
AcDbLine
 62
7
  6
CONTINUOUS
 10
144.6546688431
 20
88.229365576
 11
144.6546688431
 21
81.2890950304
  0
LINE
  5
472
100
AcDbEntity
  8
0
100
AcDbLine
 62
7
  6
CONTINUOUS
 10
145.6091050538
 20
220.9309535427
 11
145.6091050538
 21
220.6451826349
  0
LINE
  5
473
100
AcDbEntity
  8
0
100
AcDbLine
 62
7
  6
CONTINUOUS
 10
145.7153245989
 20
175.7616612386
 11
145.7153245989
 21
178.0536010176
  0
LINE
  5
474
100
AcDbEntity
  8
0
100
AcDbLine
 62
7
  6
CONTINUOUS
 10
60.3457321345
 20
90.4209521282
 11
57.6097619621
 21
88.8413484416
  0
LINE
  5
475
100
AcDbEntity
  8
0
100
AcDbLine
 62
7
  6
CONTINUOUS
 10
97.943697884
 20
117.0763794606
 11
90.8729842883
 21
113.4019911709
  0
LINE
  5
476
100
AcDbEntity
  8
0
100
AcDbLine
 62
7
  6
CONTINUOUS
 10
91.5086728408
 20
111.4020214986
 11
100.0679577197
 21
115.8499652178
  0
LINE
  5
477
100
AcDbEntity
  8
0
100
AcDbLine
 62
7
  6
CONTINUOUS
 10
104.5119122168
 20
117.6913158402
 11
100.4945831011
 21
115.6036585112
  0
LINE
  5
478
100
AcDbEntity
  8
0
100
AcDbLine
 62
7
  6
CONTINUOUS
 10
165.8059871996
 20
170.1572803588
 11
164.335159464
 21
171.0064439372
  0
LINE
  5
479
100
AcDbEntity
  8
0
100
AcDbLine
 62
7
  6
CONTINUOUS
 10
155.4376461406
 20
254.6518038847
 11
155.4376461406
 21
253.0187990505
  0
LINE
  5
47A
100
AcDbEntity
  8
0
100
AcDbLine
 62
7
  6
CONTINUOUS
 10
157.5590106437
 20
246.8951673366
 11
157.5590106437
 21
246.7318668531
  0
LINE
  5
47B
100
AcDbEntity
  8
0
100
AcDbLine
 62
7
  6
CONTINUOUS
 10
200.515871983
 20
164.4084837734
 11
114.4189087638
 21
114.700675598
  0
LINE
  5
47C
100
AcDbEntity
  8
0
100
AcDbLine
 62
7
  6
CONTINUOUS
 10
90.4903641814
 20
100.4769939988
 11
92.59017742
 21
101.6893145008
  0
LINE
  5
47D
100
AcDbEntity
  8
0
100
AcDbLine
 62
7
  6
CONTINUOUS
 10
66.9218525784
 20
86.6243131112
 11
64.1858824059
 21
85.0447094246
  0
LINE
  5
47E
100
AcDbEntity
  8
0
100
AcDbLine
 62
7
  6
CONTINUOUS
 10
73.4979730222
 20
82.8276740941
 11
70.7620028498
 21
81.2480704075
  0
LINE
  5
47F
100
AcDbEntity
  8
0
100
AcDbLine
 62
7
  6
CONTINUOUS
 10
200.515871983
 20
155.0187059764
 11
114.8431710661
 21
105.5558442934
  0
LINE
  5
480
100
AcDbEntity
  8
0
100
AcDbLine
 62
7
  6
CONTINUOUS
 10
114.7976078643
 20
105.5224055407
 11
114.8462597291
 21
105.5504945402
  0
LINE
  5
481
100
AcDbEntity
  8
0
100
AcDbLine
 62
7
  6
CONTINUOUS
 10
104.1062200805
 20
108.5587229828
 11
91.5086728408
 21
102.0122437016
  0
LINE
  5
482
100
AcDbEntity
  8
0
100
AcDbLine
 62
7
  6
CONTINUOUS
 10
103.7437765727
 20
108.3214980324
 11
100.1127491503
 21
106.4343172073
  0
LINE
  5
483
100
AcDbEntity
  8
0
100
AcDbLine
 62
7
  6
CONTINUOUS
 10
100.4383675194
 20
106.2463256072
 11
104.0816381983
 21
108.1398697108
  0
LINE
  5
484
100
AcDbEntity
  8
0
100
AcDbLine
 62
7
  6
CONTINUOUS
 10
165.8664756104
 20
174.9417059464
 11
164.3944530601
 21
175.7915593359
  0
LINE
  5
485
100
AcDbEntity
  8
0
100
AcDbLine
 62
7
  6
CONTINUOUS
 10
133.8713123626
 20
195.5790601681
 11
134.7198440328
 21
195.0891712627
  0
LINE
  5
486
100
AcDbEntity
  8
0
100
AcDbLine
 62
7
  6
CONTINUOUS
 10
165.8367680965
 20
179.6692289028
 11
164.3645741147
 21
180.519181266
  0
LINE
  5
487
100
AcDbEntity
  8
0
100
AcDbLine
 62
7
  6
CONTINUOUS
 10
137.5482412745
 20
196.7221374241
 11
137.4068315487
 21
196.8037785203
  0
LINE
  5
488
100
AcDbEntity
  8
0
100
AcDbLine
 62
7
  6
CONTINUOUS
 10
138.2553632189
 20
197.130392032
 11
137.4068315487
 21
197.6202809375
  0
LINE
  5
489
100
AcDbEntity
  8
0
100
AcDbLine
 62
7
  6
CONTINUOUS
 10
161.0160351464
 20
237.023765505
 11
161.5475273024
 21
230.8253729219
  0
LINE
  5
48A
100
AcDbEntity
  8
0
100
AcDbLine
 62
7
  6
CONTINUOUS
 10
164.453576285
 20
99.6602018844
 11
164.453576285
 21
92.7199313388
  0
LINE
  5
48B
100
AcDbEntity
  8
0
100
AcDbLine
 62
7
  6
CONTINUOUS
 10
165.5080815739
 20
188.9433886783
 11
165.5080815739
 21
190.7733518489
  0
LINE
  5
48C
100
AcDbEntity
  8
0
100
AcDbLine
 62
7
  6
CONTINUOUS
 10
165.717079526
 20
184.3400697549
 11
165.717079526
 21
186.1349754522
  0
LINE
  5
48D
100
AcDbEntity
  8
0
100
AcDbLine
 62
7
  6
CONTINUOUS
 10
165.8059871996
 20
170.1572803588
 11
165.8059871996
 21
171.9531070891
  0
LINE
  5
48E
100
AcDbEntity
  8
0
100
AcDbLine
 62
7
  6
CONTINUOUS
 10
165.8367680965
 20
179.6692289028
 11
165.8367680965
 21
181.4656756653
  0
LINE
  5
48F
100
AcDbEntity
  8
0
100
AcDbLine
 62
7
  6
CONTINUOUS
 10
165.8664756104
 20
174.9417059464
 11
165.8664756104
 21
176.738464673
  0
LINE
  5
490
100
AcDbEntity
  8
0
100
AcDbLine
 62
7
  6
CONTINUOUS
 10
114.8463418908
 20
105.1494237503
 11
200.1623200643
 21
154.4063326909
  0
LINE
  5
491
100
AcDbEntity
  8
0
100
AcDbLine
 62
7
  6
CONTINUOUS
 10
80.0740934661
 20
79.0310350771
 11
77.3381232937
 21
77.4514313905
  0
LINE
  5
492
100
AcDbEntity
  8
0
100
AcDbLine
 62
7
  6
CONTINUOUS
 10
165.717079526
 20
184.3400697549
 11
164.2457261331
 21
185.1895368149
  0
LINE
  5
493
100
AcDbEntity
  8
0
100
AcDbLine
 62
7
  6
CONTINUOUS
 10
165.5080815739
 20
188.9433886783
 11
163.9820699644
 21
189.8244119605
  0
LINE
  5
494
100
AcDbEntity
  8
0
100
AcDbLine
 62
7
  6
CONTINUOUS
 10
195.5692373515
 20
173.6178287681
 11
193.6104685307
 21
174.7486988903
  0
LINE
  5
495
100
AcDbEntity
  8
0
100
AcDbLine
 62
7
  6
CONTINUOUS
 10
169.04360076
 20
192.971890288
 11
169.04360076
 21
191.1581658865
  0
LINE
  5
496
100
AcDbEntity
  8
0
100
AcDbLine
 62
7
  6
CONTINUOUS
 10
169.252598712
 20
188.4067726002
 11
169.252598712
 21
186.5543509437
  0
LINE
  5
497
100
AcDbEntity
  8
0
100
AcDbLine
 62
7
  6
CONTINUOUS
 10
169.3415063856
 20
174.228659593
 11
169.3415063856
 21
172.3748495806
  0
LINE
  5
498
100
AcDbEntity
  8
0
100
AcDbLine
 62
7
  6
CONTINUOUS
 10
169.3722872826
 20
183.738711114
 11
169.3722872826
 21
181.884111389
  0
LINE
  5
499
100
AcDbEntity
  8
0
100
AcDbLine
 62
7
  6
CONTINUOUS
 10
169.4019947965
 20
179.0127518338
 11
169.4019947965
 21
177.157683971
  0
LINE
  5
49A
100
AcDbEntity
  8
0
100
AcDbLine
 62
7
  6
CONTINUOUS
 10
164.453576285
 20
99.6602018844
 11
163.7341240165
 21
93.4182287411
  0
LINE
  5
49B
100
AcDbEntity
  8
0
100
AcDbLine
 62
7
  6
CONTINUOUS
 10
86.65021391
 20
75.23439606
 11
83.9142437375
 21
73.6547923734
  0
LINE
  5
49C
100
AcDbEntity
  8
0
100
AcDbLine
 62
7
  6
CONTINUOUS
 10
102.9704896055
 20
231.5451548613
 11
133.7297626494
 21
213.7866820397
  0
LINE
  5
49D
100
AcDbEntity
  8
0
100
AcDbLine
 62
7
  6
CONTINUOUS
 10
103.1826216399
 20
231.5451553712
 11
133.5883398212
 21
213.9908029268
  0
LINE
  5
49E
100
AcDbEntity
  8
0
100
AcDbLine
 62
7
  6
CONTINUOUS
 10
195.5686053321
 20
178.3532801162
 11
193.6092243288
 21
179.4845036742
  0
LINE
  5
49F
100
AcDbEntity
  8
0
100
AcDbLine
 62
7
  6
CONTINUOUS
 10
195.5679802108
 20
183.0887345667
 11
193.6079931344
 21
184.2203080332
  0
LINE
  5
4A0
100
AcDbEntity
  8
0
100
AcDbLine
 62
7
  6
CONTINUOUS
 10
182.484724134
 20
177.5813912627
 11
182.484724134
 21
175.2945016952
  0
LINE
  5
4A1
100
AcDbEntity
  8
0
100
AcDbLine
 62
7
  6
CONTINUOUS
 10
182.484724134
 20
172.8408040594
 11
182.484724134
 21
170.5538967018
  0
LINE
  5
4A2
100
AcDbEntity
  8
0
100
AcDbLine
 62
7
  6
CONTINUOUS
 10
182.484724134
 20
168.1001630236
 11
182.484724134
 21
165.8132374467
  0
LINE
  5
4A3
100
AcDbEntity
  8
0
100
AcDbLine
 62
7
  6
CONTINUOUS
 10
200.1623200643
 20
154.4063326909
 11
200.3087543553
 21
154.6104530682
  0
LINE
  5
4A4
100
AcDbEntity
  8
0
100
AcDbLine
 62
7
  6
CONTINUOUS
 10
93.2263343538
 20
71.437757043
 11
90.4903641814
 21
69.8581533564
  0
LINE
  5
4A5
100
AcDbEntity
  8
0
100
AcDbLine
 62
7
  6
CONTINUOUS
 10
98.2095401086
 20
66.6263395036
 11
104.9977939756
 21
70.2765463006
  0
LINE
  5
4A6
100
AcDbEntity
  8
0
100
AcDbLine
 62
7
  6
CONTINUOUS
 10
195.567361875
 20
187.824192065
 11
193.633423141
 21
188.9407268543
  0
LINE
  5
4A7
100
AcDbEntity
  8
0
100
AcDbLine
 62
7
  6
CONTINUOUS
 10
145.6091050538
 20
220.9309535427
 11
115.2033868725
 21
238.485305987
  0
LINE
  5
4A8
100
AcDbEntity
  8
0
100
AcDbLine
 62
7
  6
CONTINUOUS
 10
145.9626590332
 20
220.8493059017
 11
115.2033859893
 21
238.6077787233
  0
LINE
  5
4A9
100
AcDbEntity
  8
0
100
AcDbLine
 62
7
  6
CONTINUOUS
 10
195.5667502148
 20
192.5596525581
 11
193.6322415583
 21
193.6765163848
  0
LINE
  5
4AA
100
AcDbEntity
  8
0
100
AcDbLine
 62
7
  6
CONTINUOUS
 10
200.3087543553
 20
154.6104530682
 11
200.1623171204
 21
154.8145751451
  0
LINE
  5
4AB
100
AcDbEntity
  8
0
100
AcDbLine
 62
7
  6
CONTINUOUS
 10
195.5661451225
 20
175.9022950581
 11
195.5692373515
 21
173.6178287682
  0
LINE
  5
4AC
100
AcDbEntity
  8
0
100
AcDbLine
 62
7
  6
CONTINUOUS
 10
195.5661451225
 20
180.6381123241
 11
195.5686053321
 21
178.3532801165
  0
LINE
  5
4AD
100
AcDbEntity
  8
0
100
AcDbLine
 62
7
  6
CONTINUOUS
 10
195.5661451225
 20
185.3739284693
 11
195.5679802108
 21
183.0887345668
  0
LINE
  5
4AE
100
AcDbEntity
  8
0
100
AcDbLine
 62
7
  6
CONTINUOUS
 10
195.5661451224
 20
190.1097435123
 11
195.567361875
 21
187.8241920654
  0
LINE
  5
4AF
100
AcDbEntity
  8
0
100
AcDbLine
 62
7
  6
CONTINUOUS
 10
195.5661451224
 20
194.8455574696
 11
195.5667502148
 21
192.5596525577
  0
LINE
  5
4B0
100
AcDbEntity
  8
0
100
AcDbLine
 62
7
  6
CONTINUOUS
 10
195.5661451225
 20
209.052993008
 11
195.5661451225
 21
206.7667396431
  0
LINE
  5
4B1
100
AcDbEntity
  8
0
100
AcDbLine
 62
7
  6
CONTINUOUS
 10
195.5661451225
 20
199.5813703608
 11
195.5661451225
 21
197.295115994
  0
LINE
  5
4B2
100
AcDbEntity
  8
0
100
AcDbLine
 62
7
  6
CONTINUOUS
 10
195.5661451225
 20
204.3171822016
 11
195.5655464927
 21
202.0305823222
  0
LINE
  5
4B3
100
AcDbEntity
  8
0
100
AcDbLine
 62
7
  6
CONTINUOUS
 10
107.5316673419
 20
67.0594638758
 11
102.5819404814
 21
64.1019900798
  0
LINE
  5
4B4
100
AcDbEntity
  8
0
100
AcDbLine
 62
7
  6
CONTINUOUS
 10
106.1174891071
 20
62.0607863072
 11
111.0672159676
 21
65.0182601032
  0
LINE
  5
4B5
100
AcDbEntity
  8
0
100
AcDbLine
 62
7
  6
CONTINUOUS
 10
117.9319140774
 20
66.2123420101
 11
108.5923731452
 21
60.6319436664
  0
LINE
  5
4B6
100
AcDbEntity
  8
0
100
AcDbLine
 62
7
  6
CONTINUOUS
 10
164.453576285
 20
99.6602018844
 11
144.6546688431
 21
88.229365576
  0
LINE
  5
4B7
100
AcDbEntity
  8
0
100
AcDbLine
 62
7
  6
CONTINUOUS
 10
144.6546688431
 20
82.4027659142
 11
163.7341240165
 21
93.4182287411
  0
LINE
  5
4B8
100
AcDbEntity
  8
0
100
AcDbLine
 62
7
  6
CONTINUOUS
 10
106.1174891071
 20
59.611208509
 11
102.5819404814
 21
57.5699707428
  0
LINE
  5
4B9
100
AcDbEntity
  8
0
100
AcDbLine
 62
7
  6
CONTINUOUS
 10
164.453576285
 20
92.7199313388
 11
144.6546688431
 21
81.2890950304
  0
LINE
  5
4BA
100
AcDbEntity
  8
0
100
AcDbLine
 62
7
  6
CONTINUOUS
 10
124.5018444306
 20
238.0158495154
 11
132.9871611324
 21
233.1169604612
  0
LINE
  5
4BB
100
AcDbEntity
  8
0
100
AcDbLine
 62
7
  6
CONTINUOUS
 10
195.5661451225
 20
197.295115994
 11
193.63107215
 21
198.4123056213
  0
LINE
  5
4BC
100
AcDbEntity
  8
0
100
AcDbLine
 62
7
  6
CONTINUOUS
 10
195.5655464927
 20
202.0305823219
 11
193.6299147293
 21
203.14809456
  0
LINE
  5
4BD
100
AcDbEntity
  8
0
100
AcDbLine
 62
7
  6
CONTINUOUS
 10
139.2096441177
 20
236.7094912433
 11
132.9870993091
 21
240.3019978902
  0
LINE
  5
4BE
100
AcDbEntity
  8
0
100
AcDbLine
 62
7
  6
CONTINUOUS
 10
139.6819000993
 20
237.4166118318
 11
132.9870904772
 21
241.2817745276
  0
LINE
  5
4BF
100
AcDbEntity
  8
0
100
AcDbLine
 62
7
  6
CONTINUOUS
 10
200.1623200643
 20
154.4063326909
 11
200.1623200643
 21
106.9675422557
  0
LINE
  5
4C0
100
AcDbEntity
  8
0
100
AcDbLine
 62
7
  6
CONTINUOUS
 10
200.3087652018
 20
107.171662633
 11
200.3087652018
 21
154.6104530682
  0
LINE
  5
4C1
100
AcDbEntity
  8
0
100
AcDbLine
 62
7
  6
CONTINUOUS
 10
200.515871983
 20
155.0187059764
 11
200.515871983
 21
231.2800317363
  0
LINE
  5
4C2
100
AcDbEntity
  8
0
100
AcDbLine
 62
7
  6
CONTINUOUS
 10
108.5923731452
 20
54.0999243293
 11
200.1623200643
 21
106.9675422557
  0
LINE
  5
4C3
100
AcDbEntity
  8
0
100
AcDbLine
 62
7
  6
CONTINUOUS
 10
195.5661451225
 20
206.7667396431
 11
193.6194356022
 21
207.8906474825
  0
LINE
  5
4C4
100
AcDbEntity
  8
0
100
AcDbLine
 62
7
  6
CONTINUOUS
 10
140.2670361889
 20
238.7117958298
 11
132.9870904772
 21
242.9147793619
  0
LINE
  5
4C5
100
AcDbEntity
  8
0
100
AcDbLine
 62
7
  6
CONTINUOUS
 10
200.3087543553
 20
107.171662633
 11
200.1623200643
 21
106.9675422557
  0
LINE
  5
4C6
100
AcDbEntity
  8
0
100
AcDbLine
 62
7
  6
CONTINUOUS
 10
143.4522360998
 20
247.7320654766
 11
152.0165049063
 21
242.7875944346
  0
LINE
  5
4C7
100
AcDbEntity
  8
0
100
AcDbLine
 62
7
  6
CONTINUOUS
 10
160.7461709647
 20
237.7476334051
 11
178.100612632
 21
227.7282685051
  0
LINE
  5
4C8
100
AcDbEntity
  8
0
100
AcDbLine
 62
7
  6
CONTINUOUS
 10
179.3379877343
 20
234.1580530248
 11
157.5590106437
 21
246.7318668531
  0
LINE
  5
4C9
100
AcDbEntity
  8
0
100
AcDbLine
 62
7
  6
CONTINUOUS
 10
179.4794121232
 20
234.2397039464
 11
157.5590106437
 21
246.8951673366
  0
LINE
  5
4CA
100
AcDbEntity
  8
0
100
AcDbLine
 62
7
  6
CONTINUOUS
 10
142.0377669675
 20
256.3050417563
 11
133.9961583938
 21
260.9477615987
  0
LINE
  5
4CB
100
AcDbEntity
  8
0
100
AcDbLine
 62
7
  6
CONTINUOUS
 10
188.671778784
 20
233.8314976973
 11
155.4376461406
 21
253.0187990505
  0
LINE
  5
4CC
100
AcDbEntity
  8
0
100
AcDbLine
 62
7
  6
CONTINUOUS
 10
190.0860226728
 20
234.6480069132
 11
155.4376461406
 21
254.6518038847
  0
LINE
  5
4CD
100
AcDbEntity
  8
0
100
AcDbLine
 62
7
  6
CONTINUOUS
 10
200.515871983
 20
231.2800317363
 11
149.6039717724
 21
260.6733660618
  0
ARC
  5
4CE
100
AcDbEntity
  8
0
100
AcDbCircle
 62
7
  6
CONTINUOUS
 10
-301.3243839517
 20
855.2173557883
 40
817.7833246509
100
AcDbArc
 50
298.3033048179
 51
298.4498000087
  0
ARC
  5
4CF
100
AcDbEntity
  8
0
100
AcDbCircle
 62
7
  6
CONTINUOUS
 10
130.1466694021
 20
125.1525985212
 40
65.1488283334
100
AcDbArc
 50
124.5360104488
 51
124.8759762626
  0
ARC
  5
4D0
100
AcDbEntity
  8
0
100
AcDbCircle
 62
7
  6
CONTINUOUS
 10
99.5674040309
 20
152.9888461056
 40
47.5211261404
100
AcDbArc
 50
120.0005908571
 51
120.5372891923
  0
ARC
  5
4D1
100
AcDbEntity
  8
0
100
AcDbCircle
 62
7
  6
CONTINUOUS
 10
107.3136870764
 20
104.2929680152
 40
4.5417268129
100
AcDbArc
 50
62.5690536002
 51
66.9169956719
  0
ARC
  5
4D2
100
AcDbEntity
  8
0
100
AcDbCircle
 62
7
  6
CONTINUOUS
 10
146.0547432987
 20
199.7142663511
 40
2.0299409562
100
AcDbArc
 50
63.9048807823
 51
66.4474436924
  0
ARC
  5
4D3
100
AcDbEntity
  8
0
100
AcDbCircle
 62
7
  6
CONTINUOUS
 10
146.1108760423
 20
199.8291679932
 40
1.9020611134
100
AcDbArc
 50
61.768990244
 51
63.9009621438
  0
ARC
  5
4D4
100
AcDbEntity
  8
0
100
AcDbCircle
 62
7
  6
CONTINUOUS
 10
50.8971230461
 20
156.3285140934
 40
1.3659693084
100
AcDbArc
 50
202.5840965898
 51
210.0199708707
  0
ARC
  5
4D5
100
AcDbEntity
  8
0
100
AcDbCircle
 62
7
  6
CONTINUOUS
 10
128.6006212835
 20
192.6652644922
 40
0.653077222
100
AcDbArc
 50
156.601843254
 51
164.9057428162
  0
ARC
  5
4D6
100
AcDbEntity
  8
0
100
AcDbCircle
 62
7
  6
CONTINUOUS
 10
143.5851257656
 20
200.0292271136
 40
0.5920746753
100
AcDbArc
 50
350.258354188
 51
359.9706133285
  0
ARC
  5
4D7
100
AcDbEntity
  8
0
100
AcDbCircle
 62
7
  6
CONTINUOUS
 10
805.9757440942
 20
-828.9755892699
 40
1216.391488036
100
AcDbArc
 50
124.91309907
 51
125.5737638464
  0
ARC
  5
4D8
100
AcDbEntity
  8
0
100
AcDbCircle
 62
7
  6
CONTINUOUS
 10
764.503644917
 20
-804.8626675691
 40
1216.2083735325
100
AcDbArc
 50
124.9008307865
 51
125.573783928
  0
ARC
  5
4D9
100
AcDbEntity
  8
0
100
AcDbCircle
 62
7
  6
CONTINUOUS
 10
803.3369421351
 20
-825.3373200528
 40
1212.1865496985
100
AcDbArc
 50
124.899714403
 51
125.5749003116
  0
ARC
  5
4DA
100
AcDbEntity
  8
0
100
AcDbCircle
 62
7
  6
CONTINUOUS
 10
810.3389106769
 20
-826.8157599187
 40
1206.7650091607
100
AcDbArc
 50
124.8943874803
 51
125.2175289059
  0
ARC
  5
4DB
100
AcDbEntity
  8
0
100
AcDbCircle
 62
7
  6
CONTINUOUS
 10
790.9449916296
 20
-814.7351126527
 40
1205.1259202763
100
AcDbArc
 50
124.8992289373
 51
125.042818651
  0
ARC
  5
4DC
100
AcDbEntity
  8
0
100
AcDbCircle
 62
7
  6
CONTINUOUS
 10
785.5226487593
 20
-811.2017846313
 40
1204.3014089246
100
AcDbArc
 50
124.9005296335
 51
125.0428680503
  0
ARC
  5
4DD
100
AcDbEntity
  8
0
100
AcDbCircle
 62
7
  6
CONTINUOUS
 10
784.6007619576
 20
-811.8717277163
 40
1202.3035763376
100
AcDbArc
 50
124.9120303492
 51
125.0559799458
  0
ARC
  5
4DE
100
AcDbEntity
  8
0
100
AcDbCircle
 62
7
  6
CONTINUOUS
 10
797.5437734984
 20
-835.1570502274
 40
1180.8988268996
100
AcDbArc
 50
124.246515732
 51
125.1013889762
  0
ARC
  5
4DF
100
AcDbEntity
  8
0
100
AcDbCircle
 62
7
  6
CONTINUOUS
 10
797.0168242392
 20
-830.1531241752
 40
1180.3996358848
100
AcDbArc
 50
124.2320702709
 51
125.0872405717
  0
ARC
  5
4E0
100
AcDbEntity
  8
0
100
AcDbCircle
 62
7
  6
CONTINUOUS
 10
746.2905318131
 20
-777.2987919856
 40
1180.3505228879
100
AcDbArc
 50
124.2165134178
 51
124.4337145765
  0
ARC
  5
4E1
100
AcDbEntity
  8
0
100
AcDbCircle
 62
7
  6
CONTINUOUS
 10
793.4011316113
 20
-831.0495330453
 40
1173.2747670203
100
AcDbArc
 50
124.2552496645
 51
125.1156505957
  0
ARC
  5
4E2
100
AcDbEntity
  8
0
100
AcDbCircle
 62
7
  6
CONTINUOUS
 10
792.8752744061
 20
-826.0451758047
 40
1172.7758427706
100
AcDbArc
 50
124.2407681791
 51
125.1015073962
  0
ARC
  5
4E3
100
AcDbEntity
  8
0
100
AcDbCircle
 62
7
  6
CONTINUOUS
 10
786.035649518
 20
-793.3722221778
 40
1163.4769593965
100
AcDbArc
 50
123.6333054452
 51
124.0693694838
  0
ARC
  5
4E4
100
AcDbEntity
  8
0
100
AcDbCircle
 62
7
  6
CONTINUOUS
 10
783.321459194
 20
-791.2746593171
 40
1158.3182065279
100
AcDbArc
 50
123.6418084366
 51
124.07986328
  0
ARC
  5
4E5
100
AcDbEntity
  8
0
100
AcDbCircle
 62
7
  6
CONTINUOUS
 10
780.180376137
 20
-803.4641524742
 40
1151.2669781962
100
AcDbArc
 50
123.8528672774
 51
124.0650040858
  0
ARC
  5
4E6
100
AcDbEntity
  8
0
100
AcDbCircle
 62
7
  6
CONTINUOUS
 10
779.5285373123
 20
-798.2518017042
 40
1150.5249518782
100
AcDbArc
 50
123.831192401
 51
124.0434120774
  0
ARC
  5
4E7
100
AcDbEntity
  8
0
100
AcDbCircle
 62
7
  6
CONTINUOUS
 10
779.0073093873
 20
-793.2276912712
 40
1150.0119001535
100
AcDbArc
 50
123.8161997566
 51
124.0284768104
  0
ARC
  5
4E8
100
AcDbEntity
  8
0
100
AcDbCircle
 62
7
  6
CONTINUOUS
 10
778.615566301
 20
-788.3905558924
 40
1149.7261453155
100
AcDbArc
 50
123.8078470933
 51
124.0201561334
  0
ARC
  5
4E9
100
AcDbEntity
  8
0
100
AcDbCircle
 62
7
  6
CONTINUOUS
 10
774.3988990072
 20
-792.558415963
 40
1140.5278005903
100
AcDbArc
 50
123.1960652146
 51
123.8506217534
  0
ARC
  5
4EA
100
AcDbEntity
  8
0
100
AcDbCircle
 62
7
  6
CONTINUOUS
 10
759.8808804437
 20
-751.7653332486
 40
1115.8456052262
100
AcDbArc
 50
122.2536918717
 51
122.6677380807
  0
ARC
  5
4EB
100
AcDbEntity
  8
0
100
AcDbCircle
 62
7
  6
CONTINUOUS
 10
758.1337137347
 20
-767.6925022604
 40
1110.8146737994
100
AcDbArc
 50
121.9971207777
 51
123.1962453693
  0
ARC
  5
4EC
100
AcDbEntity
  8
0
100
AcDbCircle
 62
7
  6
CONTINUOUS
 10
750.8963863825
 20
-741.6012314958
 40
1099.3601582473
100
AcDbArc
 50
121.955803071
 51
122.1732341319
  0
ARC
  5
4ED
100
AcDbEntity
  8
0
100
AcDbCircle
 62
7
  6
CONTINUOUS
 10
746.1029992896
 20
-751.0957949715
 40
1088.7845751326
100
AcDbArc
 50
121.9871914907
 51
122.2068125402
  0
ARC
  5
4EE
100
AcDbEntity
  8
0
100
AcDbCircle
 62
7
  6
CONTINUOUS
 10
745.5433516712
 20
-745.985066396
 40
1088.178018826
100
AcDbArc
 50
121.9686427337
 51
122.1883416953
  0
ARC
  5
4EF
100
AcDbEntity
  8
0
100
AcDbCircle
 62
7
  6
CONTINUOUS
 10
745.0867845637
 20
-741.0327764124
 40
1087.7604350999
100
AcDbArc
 50
121.9558675365
 51
122.1756201982
  0
ARC
  5
4F0
100
AcDbEntity
  8
0
100
AcDbCircle
 62
7
  6
CONTINUOUS
 10
744.7328458807
 20
-736.2385327994
 40
1087.5312506631
100
AcDbArc
 50
121.9488542183
 51
122.1686363739
  0
ARC
  5
4F1
100
AcDbEntity
  8
0
100
AcDbCircle
 62
7
  6
CONTINUOUS
 10
687.8261701109
 20
-663.1939683586
 40
1062.2694188852
100
AcDbArc
 50
125.6071805536
 51
126.4323108295
  0
ARC
  5
4F2
100
AcDbEntity
  8
0
100
AcDbCircle
 62
7
  6
CONTINUOUS
 10
727.746890804
 20
-731.2444649102
 40
1051.7279069204
100
AcDbArc
 50
120.3981629055
 51
121.2279450095
  0
ARC
  5
4F3
100
AcDbEntity
  8
0
100
AcDbCircle
 62
7
  6
CONTINUOUS
 10
727.2479956784
 20
-726.2280361981
 40
1051.2334667172
100
AcDbArc
 50
120.3824484436
 51
121.2124861902
  0
ARC
  5
4F4
100
AcDbEntity
  8
0
100
AcDbCircle
 62
7
  6
CONTINUOUS
 10
726.7546929601
 20
-721.2145724203
 40
1050.744490016
100
AcDbArc
 50
120.3669006033
 51
121.1971914484
  0
ARC
  5
4F5
100
AcDbEntity
  8
0
100
AcDbCircle
 62
7
  6
CONTINUOUS
 10
723.1719120075
 20
-691.5189981132
 40
1045.2925180477
100
AcDbArc
 50
120.0006190686
 51
120.4479281346
  0
ARC
  5
4F6
100
AcDbEntity
  8
0
100
AcDbCircle
 62
7
  6
CONTINUOUS
 10
724.1744557119
 20
-727.4671534887
 40
1044.690203901
100
AcDbArc
 50
120.3972468528
 51
121.2328337496
  0
ARC
  5
4F7
100
AcDbEntity
  8
0
100
AcDbCircle
 62
7
  6
CONTINUOUS
 10
723.6772694273
 20
-722.4512850368
 40
1044.1971201327
100
AcDbArc
 50
120.3815314574
 51
121.2173367928
  0
ARC
  5
4F8
100
AcDbEntity
  8
0
100
AcDbCircle
 62
7
  6
CONTINUOUS
 10
723.1856577721
 20
-717.438376916
 40
1043.7094864908
100
AcDbArc
 50
120.3659826932
 51
121.2020043071
  0
ARC
  5
4F9
100
AcDbEntity
  8
0
100
AcDbCircle
 62
7
  6
CONTINUOUS
 10
721.9664250212
 20
-689.4495268191
 40
1042.8975597824
100
AcDbArc
 50
120.0001124852
 51
120.4507687747
  0
SPLINE
  5
4FA
100
AcDbEntity
  8
0
100
AcDbSpline
 62
7
  6
CONTINUOUS
 70
0
 71
3
 72
11
 73
7
 74
0
 42
0.0000001
 43
0.0000001
 44
0.0000000001
 40
0.0
 40
0.0
 40
0.0
 40
0.0
 40
0.261651817
 40
0.5129145417
 40
0.7575790609
 40
1.0
 40
1.0
 40
1.0
 40
1.0
 10
139.7051859045
 20
228.3383857784
 30
0.0
 10
139.5863892969
 20
228.5323066278
 30
0.0
 10
139.3787303264
 20
228.9288402813
 30
0.0
 10
139.1641451397
 20
229.5541681129
 30
0.0
 10
139.0564519368
 20
230.1897044387
 30
0.0
 10
139.057045618
 20
230.6154424926
 30
0.0
 10
139.0750527078
 20
230.8253727821
 30
0.0
  0
SPLINE
  5
4FB
100
AcDbEntity
  8
0
100
AcDbSpline
 62
7
  6
CONTINUOUS
 70
0
 71
3
 72
24
 73
20
 74
0
 42
0.0000001
 43
0.0000001
 44
0.0000000001
 40
0.0
 40
0.0
 40
0.0
 40
0.0
 40
0.0619213756
 40
0.1276999385
 40
0.1966767705
 40
0.2680283835
 40
0.3408258288
 40
0.4140761418
 40
0.4867678997
 40
0.5579131987
 40
0.6265912577
 40
0.6919946153
 40
0.7534817917
 40
0.8106390142
 40
0.8633537588
 40
0.9118991021
 40
0.9570126635
 40
0.9786868429
 40
1.0
 40
1.0
 40
1.0
 40
1.0
 10
157.8899253591
 20
241.0933108495
 30
0.0
 10
157.513185192
 20
241.3108169657
 30
0.0
 10
156.7069152072
 20
241.7097553731
 30
0.0
 10
155.407349916
 20
242.1856211533
 30
0.0
 10
154.0036339364
 20
242.5495463077
 30
0.0
 10
152.5245366125
 20
242.7940421793
 30
0.0
 10
151.0001639155
 20
242.9141982989
 30
0.0
 10
149.4616993702
 20
242.9075419647
 30
0.0
 10
147.940618201
 20
242.7742163001
 30
0.0
 10
146.4680150619
 20
242.5169404851
 30
0.0
 10
145.0739168774
 20
242.1409357373
 30
0.0
 10
143.7866294454
 20
241.6537560566
 30
0.0
 10
142.6321402989
 20
241.0649887715
 30
0.0
 10
141.6336580045
 20
240.3859298227
 30
0.0
 10
140.8114173686
 20
239.6288422321
 30
0.0
 10
140.183047152
 20
238.8074399838
 30
0.0
 10
139.8293305422
 20
238.0703288193
 30
0.0
 10
139.6640679439
 20
237.4725586559
 30
0.0
 10
139.6193410284
 20
237.1729500536
 30
0.0
 10
139.6065446476
 20
237.0237653716
 30
0.0
  0
SPLINE
  5
4FC
100
AcDbEntity
  8
0
100
AcDbSpline
 62
7
  6
CONTINUOUS
 70
0
 71
3
 72
14
 73
10
 74
0
 42
0.0000001
 43
0.0000001
 44
0.0000000001
 40
0.0
 40
0.0
 40
0.0
 40
0.0
 40
0.1077541465
 40
0.2181888485
 40
0.3328140074
 40
0.4528509879
 40
0.5791888728
 40
0.712395105
 40
1.0
 40
1.0
 40
1.0
 40
1.0
 10
161.0160239799
 20
237.0237651905
 30
0.0
 10
160.9996766721
 20
237.2144588134
 30
0.0
 10
160.9354525245
 20
237.5985624967
 30
0.0
 10
160.7489307921
 20
238.1617115482
 30
0.0
 10
160.4735939112
 20
238.7115857675
 30
0.0
 10
160.1123625813
 20
239.2433849711
 30
0.0
 10
159.6686153945
 20
239.7529740247
 30
0.0
 10
158.954227739
 20
240.4139169936
 30
0.0
 10
158.3323318499
 20
240.8378931212
 30
0.0
 10
157.8899253591
 20
241.0933108495
 30
0.0
  0
SPLINE
  5
4FD
100
AcDbEntity
  8
0
100
AcDbSpline
 62
7
  6
CONTINUOUS
 70
0
 71
3
 72
11
 73
7
 74
0
 42
0.0000001
 43
0.0000001
 44
0.0000000001
 40
0.0
 40
0.0
 40
0.0
 40
0.0
 40
0.2409456489
 40
0.4847126626
 40
0.7363166507
 40
1.0
 40
1.0
 40
1.0
 40
1.0
 10
161.5475156012
 20
230.8253725935
 30
0.0
 10
161.5670165179
 20
230.5978939131
 30
0.0
 10
161.5644051748
 20
230.1355595908
 30
0.0
 10
161.4325774537
 20
229.4467247628
 30
0.0
 10
161.1754090372
 20
228.7714543681
 30
0.0
 10
160.9296243358
 20
228.3470065786
 30
0.0
 10
160.789566583
 20
228.1400932025
 30
0.0
  0
SPLINE
  5
4FE
100
AcDbEntity
  8
0
100
AcDbSpline
 62
7
  6
CONTINUOUS
 70
0
 71
3
 72
25
 73
21
 74
0
 42
0.0000001
 43
0.0000001
 44
0.0000000001
 40
0.0
 40
0.0
 40
0.0
 40
0.0
 40
0.0628403756
 40
0.1297299275
 40
0.1999308407
 40
0.2725199446
 40
0.3464603046
 40
0.4206501698
 40
0.4939770243
 40
0.5653681064
 40
0.6338432846
 40
0.6985724705
 40
0.7589425378
 40
0.8146366927
 40
0.8657293005
 40
0.9127875749
 40
0.9351749057
 40
0.9570235013
 40
0.9785530594
 40
1.0
 40
1.0
 40
1.0
 40
1.0
 10
142.7326497913
 20
232.3423059567
 30
0.0
 10
143.1260799986
 20
232.1151640592
 30
0.0
 10
143.9702945369
 20
231.7003877009
 30
0.0
 10
145.333215825
 20
231.2118044557
 30
0.0
 10
146.8066381661
 20
230.8456375142
 30
0.0
 10
148.3577715721
 20
230.6100857186
 30
0.0
 10
149.952313524
 20
230.5102797296
 30
0.0
 10
151.5548297025
 20
230.5484573544
 30
0.0
 10
153.1297150249
 20
230.7237624108
 30
0.0
 10
154.6420261087
 20
231.0323190711
 30
0.0
 10
156.05832276
 20
231.4673471796
 30
0.0
 10
157.3474624939
 20
232.0194497944
 30
0.0
 10
158.4812734108
 20
232.6769422933
 30
0.0
 10
159.4350403179
 20
233.4266971859
 30
0.0
 10
160.187281458
 20
234.2538451823
 30
0.0
 10
160.6379942791
 20
235.0085245417
 30
0.0
 10
160.8717037222
 20
235.627289005
 30
0.0
 10
160.9841411442
 20
236.0905740026
 30
0.0
 10
161.0357433986
 20
236.5576196457
 30
0.0
 10
161.0292668252
 20
236.8692855536
 30
0.0
 10
161.0160239799
 20
237.0237651905
 30
0.0
  0
SPLINE
  5
4FF
100
AcDbEntity
  8
0
100
AcDbSpline
 62
7
  6
CONTINUOUS
 70
0
 71
3
 72
15
 73
11
 74
0
 42
0.0000001
 43
0.0000001
 44
0.0000000001
 40
0.0
 40
0.0
 40
0.0
 40
0.0
 40
0.1086460792
 40
0.2185254258
 40
0.3318544097
 40
0.4505173396
 40
0.5759466215
 40
0.7090732539
 40
0.8504172933
 40
1.0
 40
1.0
 40
1.0
 40
1.0
 10
139.6065446476
 20
237.0237653716
 30
0.0
 10
139.5881571581
 20
236.8093975879
 30
0.0
 10
139.590213218
 20
236.3738389784
 30
0.0
 10
139.7124173554
 20
235.724748762
 30
0.0
 10
139.9515470917
 20
235.0879652367
 30
0.0
 10
140.3039382237
 20
234.4709951226
 30
0.0
 10
140.7648670607
 20
233.8802429808
 30
0.0
 10
141.3288106533
 20
233.3215375047
 30
0.0
 10
141.9894114558
 20
232.8005997953
 30
0.0
 10
142.4761117756
 20
232.4904148984
 30
0.0
 10
142.7326497913
 20
232.3423059567
 30
0.0
  0
SPLINE
  5
500
100
AcDbEntity
  8
0
100
AcDbSpline
 62
7
  6
CONTINUOUS
 70
0
 71
3
 72
9
 73
5
 74
0
 42
0.0000001
 43
0.0000001
 44
0.0000000001
 40
0.0
 40
0.0
 40
0.0
 40
0.0
 40
0.2225529044
 40
1.0
 40
1.0
 40
1.0
 40
1.0
 10
65.2905177163
 20
149.5014127659
 30
0.0
 10
65.262147249
 20
149.466432025
 30
0.0
 10
65.1535250114
 20
149.2937575507
 30
0.0
 10
65.121913702
 20
149.0822646731
 30
0.0
 10
65.1243518237
 20
148.9249472766
 30
0.0
  0
SPLINE
  5
501
100
AcDbEntity
  8
0
100
AcDbSpline
 62
7
  6
CONTINUOUS
 70
0
 71
3
 72
9
 73
5
 74
0
 42
0.0000001
 43
0.0000001
 44
0.0000000001
 40
0.0
 40
0.0
 40
0.0
 40
0.0
 40
0.2225529044
 40
1.0
 40
1.0
 40
1.0
 40
1.0
 10
57.5123107395
 20
153.9920610653
 30
0.0
 10
57.4839402722
 20
153.9570803245
 30
0.0
 10
57.3753180348
 20
153.7844058502
 30
0.0
 10
57.3437067254
 20
153.5729129727
 30
0.0
 10
57.3461448471
 20
153.4155955763
 30
0.0
  0
SPLINE
  5
502
100
AcDbEntity
  8
0
100
AcDbSpline
 62
7
  6
CONTINUOUS
 70
0
 71
3
 72
9
 73
5
 74
0
 42
0.0000001
 43
0.0000001
 44
0.0000000001
 40
0.0
 40
0.0
 40
0.0
 40
0.0
 40
0.2225529044
 40
1.0
 40
1.0
 40
1.0
 40
1.0
 10
41.9558967876
 20
162.9733576665
 30
0.0
 10
41.9275263201
 20
162.9383769256
 30
0.0
 10
41.8189040818
 20
162.765702451
 30
0.0
 10
41.7872927722
 20
162.5542095727
 30
0.0
 10
41.7897308938
 20
162.3968921758
 30
0.0
  0
SPLINE
  5
503
100
AcDbEntity
  8
0
100
AcDbSpline
 62
7
  6
CONTINUOUS
 70
0
 71
3
 72
11
 73
7
 74
0
 42
0.0000001
 43
0.0000001
 44
0.0000000001
 40
0.0
 40
0.0
 40
0.0
 40
0.0
 40
0.2180008508
 40
0.4528045692
 40
0.7124940362
 40
1.0
 40
1.0
 40
1.0
 40
1.0
 10
39.279511766
 20
164.7007617634
 30
0.0
 10
39.1560148351
 20
164.6106383413
 30
0.0
 10
38.9288185191
 20
164.3806657873
 30
0.0
 10
38.6891234376
 20
163.9362371206
 30
0.0
 10
38.5462207166
 20
163.4026783621
 30
0.0
 10
38.5178129253
 20
163.0178542684
 30
0.0
 10
38.5178129253
 20
162.8162254444
 30
0.0
  0
SPLINE
  5
504
100
AcDbEntity
  8
0
100
AcDbSpline
 62
7
  6
CONTINUOUS
 70
0
 71
3
 72
11
 73
7
 74
0
 42
0.0000001
 43
0.0000001
 44
0.0000000001
 40
0.0
 40
0.0
 40
0.0
 40
0.0
 40
0.2885163535
 40
0.5476235431
 40
0.7818441301
 40
1.0
 40
1.0
 40
1.0
 40
1.0
 10
88.2242477256
 20
136.2566882141
 30
0.0
 10
88.1154978562
 20
136.3194651162
 30
0.0
 10
87.8982487595
 20
136.4213900135
 30
0.0
 10
87.5650716003
 20
136.5023903555
 30
0.0
 10
87.2518101828
 20
136.5016106765
 30
0.0
 10
87.060231459
 20
136.4404934084
 30
0.0
 10
86.9762335017
 20
136.3962314451
 30
0.0
  0
SPLINE
  5
505
100
AcDbEntity
  8
0
100
AcDbSpline
 62
7
  6
CONTINUOUS
 70
0
 71
3
 72
13
 73
9
 74
0
 42
0.0000001
 43
0.0000001
 44
0.0000000001
 40
0.0
 40
0.0
 40
0.0
 40
0.0
 40
0.1142396961
 40
0.23747935
 40
0.4996775001
 40
0.7620638502
 40
0.8855185545
 40
1.0
 40
1.0
 40
1.0
 40
1.0
 10
91.45089456
 20
132.2982238172
 30
0.0
 10
91.4514764671
 20
132.4412658749
 30
0.0
 10
91.4240995149
 20
132.7389251097
 30
0.0
 10
91.2822823656
 20
133.3495673384
 30
0.0
 10
90.9563367379
 20
134.1010116662
 30
0.0
 10
90.4701797477
 20
134.7604564692
 30
0.0
 10
90.0133203132
 20
135.1909101198
 30
0.0
 10
89.7693643979
 20
135.3646252299
 30
0.0
 10
89.6452266409
 20
135.4363042144
 30
0.0
  0
SPLINE
  5
506
100
AcDbEntity
  8
0
100
AcDbSpline
 62
7
  6
CONTINUOUS
 70
0
 71
3
 72
11
 73
7
 74
0
 42
0.0000001
 43
0.0000001
 44
0.0000000001
 40
0.0
 40
0.0
 40
0.0
 40
0.0
 40
0.2885194995
 40
0.5476280747
 40
0.7818473322
 40
1.0
 40
1.0
 40
1.0
 40
1.0
 10
41.5550861801
 20
163.2005316441
 30
0.0
 10
41.4463270063
 20
163.2633137355
 30
0.0
 10
41.2290680489
 20
163.3652620963
 30
0.0
 10
40.8958670558
 20
163.4462823891
 30
0.0
 10
40.5825836201
 20
163.445509471
 30
0.0
 10
40.3909916956
 20
163.3843882985
 30
0.0
 10
40.3069898752
 20
163.3401215991
 30
0.0
  0
SPLINE
  5
507
100
AcDbEntity
  8
0
100
AcDbSpline
 62
7
  6
CONTINUOUS
 70
0
 71
3
 72
13
 73
9
 74
0
 42
0.0000001
 43
0.0000001
 44
0.0000000001
 40
0.0
 40
0.0
 40
0.0
 40
0.0
 40
0.1142425136
 40
0.2374829295
 40
0.4996813345
 40
0.7620673519
 40
0.885520558
 40
1.0
 40
1.0
 40
1.0
 40
1.0
 10
44.7816526991
 20
159.2421091263
 30
0.0
 10
44.7822285251
 20
159.3851582678
 30
0.0
 10
44.7548366095
 20
159.6828276098
 30
0.0
 10
44.613016834
 20
160.2934889961
 30
0.0
 10
44.2870693637
 20
161.0449569777
 30
0.0
 10
43.8008894688
 20
161.7044083466
 30
0.0
 10
43.344012241
 20
162.1348604843
 30
0.0
 10
43.1000429546
 20
162.3085607669
 30
0.0
 10
42.9759043956
 20
162.3802404223
 30
0.0
  0
SPLINE
  5
508
100
AcDbEntity
  8
0
100
AcDbSpline
 62
7
  6
CONTINUOUS
 70
0
 71
3
 72
11
 73
7
 74
0
 42
0.0000001
 43
0.0000001
 44
0.0000000001
 40
0.0
 40
0.0
 40
0.0
 40
0.0
 40
0.2885163653
 40
0.5476235549
 40
0.7818441353
 40
1.0
 40
1.0
 40
1.0
 40
1.0
 10
80.4460407409
 20
140.7473365185
 30
0.0
 10
80.3372908658
 20
140.8101134241
 30
0.0
 10
80.1200417805
 20
140.9120383615
 30
0.0
 10
79.7868646124
 20
140.9930387139
 30
0.0
 10
79.4736031951
 20
140.9922590107
 30
0.0
 10
79.2820244798
 20
140.9311417243
 30
0.0
 10
79.1980265281
 20
140.8868797528
 30
0.0
  0
SPLINE
  5
509
100
AcDbEntity
  8
0
100
AcDbSpline
 62
7
  6
CONTINUOUS
 70
0
 71
3
 72
13
 73
9
 74
0
 42
0.0000001
 43
0.0000001
 44
0.0000000001
 40
0.0
 40
0.0
 40
0.0
 40
0.0
 40
0.1142396909
 40
0.2374793436
 40
0.4996774957
 40
0.7620638442
 40
0.8855185497
 40
1.0
 40
1.0
 40
1.0
 40
1.0
 10
83.6726875834
 20
136.7888721181
 30
0.0
 10
83.6732694899
 20
136.9319141695
 30
0.0
 10
83.6458925882
 20
137.2295734006
 30
0.0
 10
83.5040754268
 20
137.8402156269
 30
0.0
 10
83.1781297736
 20
138.5916599425
 30
0.0
 10
82.6919727584
 20
139.2511047332
 30
0.0
 10
82.2351133163
 20
139.6815583799
 30
0.0
 10
81.9911574189
 20
139.8552735308
 30
0.0
 10
81.8670196565
 20
139.9269525186
 30
0.0
  0
SPLINE
  5
50A
100
AcDbEntity
  8
0
100
AcDbSpline
 62
7
  6
CONTINUOUS
 70
0
 71
3
 72
11
 73
7
 74
0
 42
0.0000001
 43
0.0000001
 44
0.0000000001
 40
0.0
 40
0.0
 40
0.0
 40
0.0
 40
0.2885163654
 40
0.547623555
 40
0.7818441354
 40
1.0
 40
1.0
 40
1.0
 40
1.0
 10
49.3332128377
 20
158.7099297155
 30
0.0
 10
49.2244629623
 20
158.7727066213
 30
0.0
 10
49.0072138765
 20
158.8746315596
 30
0.0
 10
48.6740367075
 20
158.9556319127
 30
0.0
 10
48.3607752893
 20
158.9548522098
 30
0.0
 10
48.1691965736
 20
158.8937349233
 30
0.0
 10
48.0851986216
 20
158.8494729517
 30
0.0
  0
SPLINE
  5
50B
100
AcDbEntity
  8
0
100
AcDbSpline
 62
7
  6
CONTINUOUS
 70
0
 71
3
 72
13
 73
9
 74
0
 42
0.0000001
 43
0.0000001
 44
0.0000000001
 40
0.0
 40
0.0
 40
0.0
 40
0.0
 40
0.1142396909
 40
0.2374793437
 40
0.4996774957
 40
0.7620638441
 40
0.8855185497
 40
1.0
 40
1.0
 40
1.0
 40
1.0
 10
52.5598596769
 20
154.7514653178
 30
0.0
 10
52.5604415834
 20
154.8945073692
 30
0.0
 10
52.5330646816
 20
155.1921666001
 30
0.0
 10
52.3912475201
 20
155.8028088262
 30
0.0
 10
52.065301867
 20
156.5542531415
 30
0.0
 10
51.579144852
 20
157.2136979319
 30
0.0
 10
51.1222854101
 20
157.6441515785
 30
0.0
 10
50.8783295129
 20
157.8178667294
 30
0.0
 10
50.7541917505
 20
157.8895457172
 30
0.0
  0
SPLINE
  5
50C
100
AcDbEntity
  8
0
100
AcDbSpline
 62
7
  6
CONTINUOUS
 70
0
 71
3
 72
13
 73
9
 74
0
 42
0.0000001
 43
0.0000001
 44
0.0000000001
 40
0.0
 40
0.0
 40
0.0
 40
0.0
 40
0.1142396909
 40
0.2374793437
 40
0.4996774957
 40
0.7620638441
 40
0.8855185497
 40
1.0
 40
1.0
 40
1.0
 40
1.0
 10
75.8944806068
 20
141.2795204186
 30
0.0
 10
75.8950625133
 20
141.42256247
 30
0.0
 10
75.8676856114
 20
141.720221701
 30
0.0
 10
75.72586845
 20
142.3308639271
 30
0.0
 10
75.3999227969
 20
143.0823082423
 30
0.0
 10
74.9137657819
 20
143.7417530328
 30
0.0
 10
74.45690634
 20
144.1722066793
 30
0.0
 10
74.2129504427
 20
144.3459218302
 30
0.0
 10
74.0888126804
 20
144.417600818
 30
0.0
  0
SPLINE
  5
50D
100
AcDbEntity
  8
0
100
AcDbSpline
 62
7
  6
CONTINUOUS
 70
0
 71
3
 72
11
 73
7
 74
0
 42
0.0000001
 43
0.0000001
 44
0.0000000001
 40
0.0
 40
0.0
 40
0.0
 40
0.0
 40
0.2885163654
 40
0.547623555
 40
0.7818441354
 40
1.0
 40
1.0
 40
1.0
 40
1.0
 10
72.6678337668
 20
145.2379848167
 30
0.0
 10
72.5590838915
 20
145.3007617225
 30
0.0
 10
72.3418348058
 20
145.4026866606
 30
0.0
 10
72.008657637
 20
145.4836870136
 30
0.0
 10
71.695396219
 20
145.4829073106
 30
0.0
 10
71.5038175034
 20
145.4217900241
 30
0.0
 10
71.4198195515
 20
145.3775280525
 30
0.0
  0
SPLINE
  5
50E
100
AcDbEntity
  8
0
100
AcDbSpline
 62
7
  6
CONTINUOUS
 70
0
 71
3
 72
11
 73
7
 74
0
 42
0.0000001
 43
0.0000001
 44
0.0000000001
 40
0.0
 40
0.0
 40
0.0
 40
0.0
 40
0.2885194996
 40
0.5476280748
 40
0.7818473323
 40
1.0
 40
1.0
 40
1.0
 40
1.0
 10
57.1115001368
 20
154.2192350426
 30
0.0
 10
57.0027409627
 20
154.2820171342
 30
0.0
 10
56.7854820049
 20
154.3839654959
 30
0.0
 10
56.4522810108
 20
154.4649857896
 30
0.0
 10
56.1389975741
 20
154.4642128717
 30
0.0
 10
55.947405649
 20
154.4030916992
 30
0.0
 10
55.8634038284
 20
154.3588249996
 30
0.0
  0
SPLINE
  5
50F
100
AcDbEntity
  8
0
100
AcDbSpline
 62
7
  6
CONTINUOUS
 70
0
 71
3
 72
13
 73
9
 74
0
 42
0.0000001
 43
0.0000001
 44
0.0000000001
 40
0.0
 40
0.0
 40
0.0
 40
0.0
 40
0.1142425136
 40
0.2374829295
 40
0.4996813345
 40
0.7620673519
 40
0.8855205579
 40
1.0
 40
1.0
 40
1.0
 40
1.0
 10
68.116273629
 20
145.7701642284
 30
0.0
 10
68.1168494549
 20
145.9132133698
 30
0.0
 10
68.0894575392
 20
146.2108827117
 30
0.0
 10
67.9476377636
 20
146.8215440976
 30
0.0
 10
67.6216902934
 20
147.5730120787
 30
0.0
 10
67.1355103988
 20
148.2324634473
 30
0.0
 10
66.6786331713
 20
148.6629155847
 30
0.0
 10
66.4346638851
 20
148.8366158674
 30
0.0
 10
66.3105253262
 20
148.9082955227
 30
0.0
  0
SPLINE
  5
510
100
AcDbEntity
  8
0
100
AcDbSpline
 62
7
  6
CONTINUOUS
 70
0
 71
3
 72
13
 73
9
 74
0
 42
0.0000001
 43
0.0000001
 44
0.0000000001
 40
0.0
 40
0.0
 40
0.0
 40
0.0
 40
0.1142425136
 40
0.2374829295
 40
0.4996813345
 40
0.7620673519
 40
0.885520558
 40
1.0
 40
1.0
 40
1.0
 40
1.0
 10
60.3380666524
 20
150.2608125259
 30
0.0
 10
60.3386424783
 20
150.4038616674
 30
0.0
 10
60.3112505629
 20
150.7015310096
 30
0.0
 10
60.1694307875
 20
151.3121923961
 30
0.0
 10
59.8434833171
 20
152.0636603781
 30
0.0
 10
59.3573034219
 20
152.7231117474
 30
0.0
 10
58.9004261938
 20
153.1535638852
 30
0.0
 10
58.6564569072
 20
153.3272641678
 30
0.0
 10
58.5323183482
 20
153.3989438233
 30
0.0
  0
SPLINE
  5
511
100
AcDbEntity
  8
0
100
AcDbSpline
 62
7
  6
CONTINUOUS
 70
0
 71
3
 72
11
 73
7
 74
0
 42
0.0000001
 43
0.0000001
 44
0.0000000001
 40
0.0
 40
0.0
 40
0.0
 40
0.0
 40
0.2885194995
 40
0.5476280747
 40
0.7818473322
 40
1.0
 40
1.0
 40
1.0
 40
1.0
 10
64.8897071103
 20
149.7285867447
 30
0.0
 10
64.7809479365
 20
149.7913688361
 30
0.0
 10
64.563688979
 20
149.893317197
 30
0.0
 10
64.2304879859
 20
149.9743374899
 30
0.0
 10
63.91720455
 20
149.9735645718
 30
0.0
 10
63.7256126254
 20
149.9124433994
 30
0.0
 10
63.641610805
 20
149.8681766999
 30
0.0
  0
SPLINE
  5
512
100
AcDbEntity
  8
0
100
AcDbSpline
 62
7
  6
CONTINUOUS
 70
0
 71
3
 72
9
 73
5
 74
0
 42
0.0000001
 43
0.0000001
 44
0.0000000001
 40
0.0
 40
0.0
 40
0.0
 40
0.0
 40
0.5001586246
 40
1.0
 40
1.0
 40
1.0
 40
1.0
 10
78.6403720551
 20
139.6906704538
 30
0.0
 10
78.9468005069
 20
139.8568232881
 30
0.0
 10
79.5598557237
 20
140.1882994448
 30
0.0
 10
80.1742702584
 20
140.5172588434
 30
0.0
 10
80.4803891893
 20
140.6835184858
 30
0.0
  0
SPLINE
  5
513
100
AcDbEntity
  8
0
100
AcDbSpline
 62
7
  6
CONTINUOUS
 70
0
 71
3
 72
11
 73
7
 74
0
 42
0.0000001
 43
0.0000001
 44
0.0000000001
 40
0.0
 40
0.0
 40
0.0
 40
0.0
 40
0.2178921551
 40
0.4509309204
 40
0.7098660102
 40
1.0
 40
1.0
 40
1.0
 40
1.0
 10
40.3069898752
 20
163.3401215991
 30
0.0
 10
40.218415582
 20
163.2934453295
 30
0.0
 10
40.0520867591
 20
163.1612502051
 30
0.0
 10
39.8768109607
 20
162.8806081058
 30
0.0
 10
39.7705317011
 20
162.5340708735
 30
0.0
 10
39.7488021428
 20
162.2807681705
 30
0.0
 10
39.7493362377
 20
162.1474541632
 30
0.0
  0
SPLINE
  5
514
100
AcDbEntity
  8
0
100
AcDbSpline
 62
7
  6
CONTINUOUS
 70
0
 71
3
 72
12
 73
8
 74
0
 42
0.0000001
 43
0.0000001
 44
0.0000000001
 40
0.0
 40
0.0
 40
0.0
 40
0.0
 40
0.1090463235
 40
0.2191022525
 40
0.4503889081
 40
0.7086686662
 40
1.0
 40
1.0
 40
1.0
 40
1.0
 10
40.46883914
 20
165.5689085067
 30
0.0
 10
40.5422011806
 20
165.6224453688
 30
0.0
 10
40.6998472694
 20
165.7167734824
 30
0.0
 10
41.053264752
 20
165.8478904605
 30
0.0
 10
41.5608934237
 20
165.890506955
 30
0.0
 10
42.2032998973
 20
165.7523112387
 30
0.0
 10
42.6210414651
 20
165.5564885146
 30
0.0
 10
42.8311716504
 20
165.4351725401
 30
0.0
  0
SPLINE
  5
515
100
AcDbEntity
  8
0
100
AcDbSpline
 62
7
  6
CONTINUOUS
 70
0
 71
3
 72
9
 73
5
 74
0
 42
0.0000001
 43
0.0000001
 44
0.0000000001
 40
0.0
 40
0.0
 40
0.0
 40
0.0
 40
0.5001586246
 40
1.0
 40
1.0
 40
1.0
 40
1.0
 10
47.5275441487
 20
157.6532636526
 30
0.0
 10
47.8339726007
 20
157.8194164872
 30
0.0
 10
48.4470278181
 20
158.1508926442
 30
0.0
 10
49.0614423533
 20
158.479852043
 30
0.0
 10
49.3675612845
 20
158.6461116856
 30
0.0
  0
SPLINE
  5
516
100
AcDbEntity
  8
0
100
AcDbSpline
 62
7
  6
CONTINUOUS
 70
0
 71
3
 72
11
 73
7
 74
0
 42
0.0000001
 43
0.0000001
 44
0.0000000001
 40
0.0
 40
0.0
 40
0.0
 40
0.0
 40
0.2178921551
 40
0.4509309204
 40
0.7098660102
 40
1.0
 40
1.0
 40
1.0
 40
1.0
 10
63.641610805
 20
149.8681766999
 30
0.0
 10
63.5530365118
 20
149.8215004303
 30
0.0
 10
63.3867076889
 20
149.6893053058
 30
0.0
 10
63.2114318904
 20
149.4086632064
 30
0.0
 10
63.1051526309
 20
149.062125974
 30
0.0
 10
63.0834230727
 20
148.8088232708
 30
0.0
 10
63.0839571675
 20
148.6755092635
 30
0.0
  0
SPLINE
  5
517
100
AcDbEntity
  8
0
100
AcDbSpline
 62
7
  6
CONTINUOUS
 70
0
 71
3
 72
9
 73
5
 74
0
 42
0.0000001
 43
0.0000001
 44
0.0000000001
 40
0.0
 40
0.0
 40
0.0
 40
0.0
 40
0.5001572705
 40
1.0
 40
1.0
 40
1.0
 40
1.0
 10
70.8621650785
 20
144.1813187535
 30
0.0
 10
71.1688909494
 20
144.3476328556
 30
0.0
 10
71.7825451658
 20
144.6794273494
 30
0.0
 10
72.3975551716
 20
145.0087116983
 30
0.0
 10
72.7039704741
 20
145.1751380448
 30
0.0
  0
SPLINE
  5
518
100
AcDbEntity
  8
0
100
AcDbSpline
 62
7
  6
CONTINUOUS
 70
0
 71
3
 72
11
 73
7
 74
0
 42
0.0000001
 43
0.0000001
 44
0.0000000001
 40
0.0
 40
0.0
 40
0.0
 40
0.0
 40
0.2178921551
 40
0.4509309203
 40
0.7098660102
 40
1.0
 40
1.0
 40
1.0
 40
1.0
 10
55.8634038284
 20
154.3588249996
 30
0.0
 10
55.7748295351
 20
154.31214873
 30
0.0
 10
55.608500712
 20
154.1799536052
 30
0.0
 10
55.4332249133
 20
153.8993115053
 30
0.0
 10
55.3269456539
 20
153.5527742721
 30
0.0
 10
55.305216096
 20
153.2994715684
 30
0.0
 10
55.3057501909
 20
153.1661575609
 30
0.0
  0
SPLINE
  5
519
100
AcDbEntity
  8
0
100
AcDbSpline
 62
7
  6
CONTINUOUS
 70
0
 71
3
 72
10
 73
6
 74
0
 42
0.0000001
 43
0.0000001
 44
0.0000000001
 40
0.0
 40
0.0
 40
0.0
 40
0.0
 40
0.2485950906
 40
0.6241187832
 40
1.0
 40
1.0
 40
1.0
 40
1.0
 10
41.4169491521
 20
163.034970085
 30
0.0
 10
41.2776793359
 20
162.96319864
 30
0.0
 10
40.9286453865
 20
162.7817928516
 30
0.0
 10
40.3747329155
 20
162.4811061566
 30
0.0
 10
39.9578311167
 20
162.2564823343
 30
0.0
 10
39.7493371466
 20
162.1440084568
 30
0.0
  0
SPLINE
  5
51A
100
AcDbEntity
  8
0
100
AcDbSpline
 62
7
  6
CONTINUOUS
 70
0
 71
3
 72
15
 73
11
 74
0
 42
0.0000001
 43
0.0000001
 44
0.0000000001
 40
0.0
 40
0.0
 40
0.0
 40
0.0
 40
0.1141465952
 40
0.2373352439
 40
0.366975646
 40
0.4999989181
 40
0.6330223406
 40
0.7626631822
 40
0.8858525235
 40
1.0
 40
1.0
 40
1.0
 40
1.0
 10
90.9146329604
 20
137.6748012327
 30
0.0
 10
91.130391942
 20
137.5502355446
 30
0.0
 10
91.5565837017
 20
137.2514483791
 30
0.0
 10
92.1430359011
 20
136.7028470827
 30
0.0
 10
92.6834157704
 20
136.0542656275
 30
0.0
 10
93.157497469
 20
135.3302132515
 30
0.0
 10
93.5475084648
 20
134.557621267
 30
0.0
 10
93.8390116678
 20
133.765346769
 30
0.0
 10
94.0208941805
 20
132.9831605228
 30
0.0
 10
94.0665601312
 20
132.4646710634
 30
0.0
 10
94.0665601312
 20
132.2155335367
 30
0.0
  0
SPLINE
  5
51B
100
AcDbEntity
  8
0
100
AcDbSpline
 62
7
  6
CONTINUOUS
 70
0
 71
3
 72
10
 73
6
 74
0
 42
0.0000001
 43
0.0000001
 44
0.0000000001
 40
0.0
 40
0.0
 40
0.0
 40
0.0
 40
0.2485950906
 40
0.6241187832
 40
1.0
 40
1.0
 40
1.0
 40
1.0
 10
56.9733631053
 20
154.0536734855
 30
0.0
 10
56.8340932891
 20
153.9819020405
 30
0.0
 10
56.4850593397
 20
153.8004962522
 30
0.0
 10
55.9311468688
 20
153.4998095571
 30
0.0
 10
55.5142450699
 20
153.2751857348
 30
0.0
 10
55.3057510998
 20
153.1627118574
 30
0.0
  0
SPLINE
  5
51C
100
AcDbEntity
  8
0
100
AcDbSpline
 62
7
  6
CONTINUOUS
 70
0
 71
3
 72
11
 73
7
 74
0
 42
0.0000001
 43
0.0000001
 44
0.0000000001
 40
0.0
 40
0.0
 40
0.0
 40
0.0
 40
0.2178908567
 40
0.4509262982
 40
0.7098600162
 40
1.0
 40
1.0
 40
1.0
 40
1.0
 10
48.0851986216
 20
158.8494729517
 30
0.0
 10
47.996623088
 20
158.8027988643
 30
0.0
 10
47.8302896856
 20
158.6706116452
 30
0.0
 10
47.6550009526
 20
158.3899776361
 30
0.0
 10
47.548717813
 20
158.0434364422
 30
0.0
 10
47.5270034014
 20
157.7901280463
 30
0.0
 10
47.5275432131
 20
157.6568104068
 30
0.0
  0
SPLINE
  5
51D
100
AcDbEntity
  8
0
100
AcDbSpline
 62
7
  6
CONTINUOUS
 70
0
 71
3
 72
12
 73
8
 74
0
 42
0.0000001
 43
0.0000001
 44
0.0000000001
 40
0.0
 40
0.0
 40
0.0
 40
0.0
 40
0.2913313338
 40
0.5496110919
 40
0.7808977475
 40
0.8909536765
 40
1.0
 40
1.0
 40
1.0
 40
1.0
 10
41.5583847435
 20
164.5717505937
 30
0.0
 10
41.3556783086
 20
164.6887805608
 30
0.0
 10
40.9526952543
 20
164.8776850069
 30
0.0
 10
40.332984546
 20
165.0109983665
 30
0.0
 10
39.8432900354
 20
164.9698874825
 30
0.0
 10
39.502358542
 20
164.8434027743
 30
0.0
 10
39.3502819778
 20
164.7524072061
 30
0.0
 10
39.279511766
 20
164.7007617634
 30
0.0
  0
SPLINE
  5
51E
100
AcDbEntity
  8
0
100
AcDbSpline
 62
7
  6
CONTINUOUS
 70
0
 71
3
 72
15
 73
11
 74
0
 42
0.0000001
 43
0.0000001
 44
0.0000000001
 40
0.0
 40
0.0
 40
0.0
 40
0.0
 40
0.1141474765
 40
0.2373368178
 40
0.3669776594
 40
0.5000010819
 40
0.633024354
 40
0.7626647561
 40
0.8858534048
 40
1.0
 40
1.0
 40
1.0
 40
1.0
 10
92.6824178716
 20
131.5449836482
 30
0.0
 10
92.6824178716
 20
131.7853193227
 30
0.0
 10
92.6383652665
 20
132.2854909169
 30
0.0
 10
92.462908534
 20
133.0400430775
 30
0.0
 10
92.1817039326
 20
133.8043270792
 30
0.0
 10
91.8054717488
 20
134.5496239364
 30
0.0
 10
91.3481390205
 20
135.2480960553
 30
0.0
 10
90.826850389
 20
135.8737635875
 30
0.0
 10
90.2611171301
 20
136.4029831889
 30
0.0
 10
89.8499824232
 20
136.6912144157
 30
0.0
 10
89.6418460535
 20
136.8113792863
 30
0.0
  0
SPLINE
  5
51F
100
AcDbEntity
  8
0
100
AcDbSpline
 62
7
  6
CONTINUOUS
 70
0
 71
3
 72
10
 73
6
 74
0
 42
0.0000001
 43
0.0000001
 44
0.0000000001
 40
0.0
 40
0.0
 40
0.0
 40
0.0
 40
0.2485950906
 40
0.6241187832
 40
1.0
 40
1.0
 40
1.0
 40
1.0
 10
64.7515700819
 20
149.5630251858
 30
0.0
 10
64.6123002657
 20
149.4912537408
 30
0.0
 10
64.2632663164
 20
149.3098479524
 30
0.0
 10
63.7093538454
 20
149.0091612574
 30
0.0
 10
63.2924520465
 20
148.7845374351
 30
0.0
 10
63.0839580764
 20
148.6720635576
 30
0.0
  0
SPLINE
  5
520
100
AcDbEntity
  8
0
100
AcDbSpline
 62
7
  6
CONTINUOUS
 70
0
 71
3
 72
11
 73
7
 74
0
 42
0.0000001
 43
0.0000001
 44
0.0000000001
 40
0.0
 40
0.0
 40
0.0
 40
0.0
 40
0.2178908568
 40
0.4509262983
 40
0.7098600163
 40
1.0
 40
1.0
 40
1.0
 40
1.0
 10
79.1980265281
 20
140.8868797528
 30
0.0
 10
79.1094509946
 20
140.8402056654
 30
0.0
 10
78.9431175925
 20
140.7080184466
 30
0.0
 10
78.7678288596
 20
140.4273844382
 30
0.0
 10
78.6615457199
 20
140.0808432451
 30
0.0
 10
78.6398313079
 20
139.8275348498
 30
0.0
 10
78.6403711196
 20
139.6942172106
 30
0.0
  0
SPLINE
  5
521
100
AcDbEntity
  8
0
100
AcDbSpline
 62
7
  6
CONTINUOUS
 70
0
 71
3
 72
11
 73
7
 74
0
 42
0.0000001
 43
0.0000001
 44
0.0000000001
 40
0.0
 40
0.0
 40
0.0
 40
0.0
 40
0.2178908567
 40
0.4509262983
 40
0.7098600163
 40
1.0
 40
1.0
 40
1.0
 40
1.0
 10
71.4198195515
 20
145.3775280525
 30
0.0
 10
71.3312440179
 20
145.3308539651
 30
0.0
 10
71.1649106156
 20
145.1986667462
 30
0.0
 10
70.9896218827
 20
144.9180327373
 30
0.0
 10
70.8833387431
 20
144.5714915438
 30
0.0
 10
70.8616243313
 20
144.3181831482
 30
0.0
 10
70.862164143
 20
144.1848655089
 30
0.0
  0
SPLINE
  5
522
100
AcDbEntity
  8
0
100
AcDbSpline
 62
7
  6
CONTINUOUS
 70
0
 71
3
 72
11
 73
7
 74
0
 42
0.0000001
 43
0.0000001
 44
0.0000000001
 40
0.0
 40
0.0
 40
0.0
 40
0.0
 40
0.2178908524
 40
0.4509262867
 40
0.7098600029
 40
1.0
 40
1.0
 40
1.0
 40
1.0
 10
86.9762335017
 20
136.3962314451
 30
0.0
 10
86.8876579636
 20
136.3495573672
 30
0.0
 10
86.7213245485
 20
136.2173701671
 30
0.0
 10
86.5460357913
 20
135.9367361736
 30
0.0
 10
86.4397526453
 20
135.5901949676
 30
0.0
 10
86.418038285
 20
135.3368865592
 30
0.0
 10
86.4185780962
 20
135.2035689115
 30
0.0
  0
SPLINE
  5
523
100
AcDbEntity
  8
0
100
AcDbSpline
 62
7
  6
CONTINUOUS
 70
0
 71
3
 72
11
 73
7
 74
0
 42
0.0000001
 43
0.0000001
 44
0.0000000001
 40
0.0
 40
0.0
 40
0.0
 40
0.0
 40
0.2177827477
 40
0.4509152641
 40
0.7103063952
 40
1.0
 40
1.0
 40
1.0
 40
1.0
 10
104.1998190014
 20
191.1575504026
 30
0.0
 10
104.1998090354
 20
191.0846115788
 30
0.0
 10
104.1728704542
 20
190.9325822389
 30
0.0
 10
104.0576110517
 20
190.720755546
 30
0.0
 10
103.8754131698
 20
190.5292800399
 30
0.0
 10
103.7229673405
 20
190.4242805623
 30
0.0
 10
103.6389429299
 20
190.3757693359
 30
0.0
  0
SPLINE
  5
524
100
AcDbEntity
  8
0
100
AcDbSpline
 62
7
  6
CONTINUOUS
 70
0
 71
3
 72
11
 73
7
 74
0
 42
0.0000001
 43
0.0000001
 44
0.0000000001
 40
0.0
 40
0.0
 40
0.0
 40
0.0
 40
0.2177827477
 40
0.4509152641
 40
0.7103063952
 40
1.0
 40
1.0
 40
1.0
 40
1.0
 10
100.6077015977
 20
193.2314134356
 30
0.0
 10
100.6076916317
 20
193.1584746118
 30
0.0
 10
100.5807530504
 20
193.0064452718
 30
0.0
 10
100.4654936479
 20
192.794618579
 30
0.0
 10
100.283295766
 20
192.6031430728
 30
0.0
 10
100.1308499367
 20
192.4981435953
 30
0.0
 10
100.0468255262
 20
192.4496323688
 30
0.0
  0
SPLINE
  5
525
100
AcDbEntity
  8
0
100
AcDbSpline
 62
7
  6
CONTINUOUS
 70
0
 71
3
 72
17
 73
13
 74
0
 42
0.0000001
 43
0.0000001
 44
0.0000000001
 40
0.0
 40
0.0
 40
0.0
 40
0.0
 40
0.1286926208
 40
0.2702795078
 40
0.4174383051
 40
0.5617803148
 40
0.6954501289
 40
0.8127134773
 40
0.8646759206
 40
0.9125113962
 40
0.9571388332
 40
1.0
 40
1.0
 40
1.0
 40
1.0
 10
100.0468255262
 20
192.4496323688
 30
0.0
 10
99.9050661603
 20
192.3677880493
 30
0.0
 10
99.5841092322
 20
192.2353558341
 30
0.0
 10
99.061005422
 20
192.1307181138
 30
0.0
 10
98.5077383769
 20
192.1153950692
 30
0.0
 10
97.9694505277
 20
192.1910420231
 30
0.0
 10
97.4897915476
 20
192.3512576921
 30
0.0
 10
97.1561779067
 20
192.5543142867
 30
0.0
 10
96.9604104647
 20
192.7508082801
 30
0.0
 10
96.8563830759
 20
192.903772658
 30
0.0
 10
96.7923329685
 20
193.0651478056
 30
0.0
 10
96.7777117585
 20
193.1768965333
 30
0.0
 10
96.7777192074
 20
193.2314133919
 30
0.0
  0
SPLINE
  5
526
100
AcDbEntity
  8
0
100
AcDbSpline
 62
7
  6
CONTINUOUS
 70
0
 71
3
 72
17
 73
13
 74
0
 42
0.0000001
 43
0.0000001
 44
0.0000000001
 40
0.0
 40
0.0
 40
0.0
 40
0.0
 40
0.1286926208
 40
0.2702795078
 40
0.4174383051
 40
0.5617803148
 40
0.6954501289
 40
0.8127134773
 40
0.8646759206
 40
0.9125113962
 40
0.9571388332
 40
1.0
 40
1.0
 40
1.0
 40
1.0
 10
103.6389429299
 20
190.3757693359
 30
0.0
 10
103.497183564
 20
190.2939250164
 30
0.0
 10
103.176226636
 20
190.1614928011
 30
0.0
 10
102.6531228257
 20
190.0568550809
 30
0.0
 10
102.0998557806
 20
190.0415320362
 30
0.0
 10
101.5615679315
 20
190.1171789902
 30
0.0
 10
101.0819089513
 20
190.2773946591
 30
0.0
 10
100.7482953104
 20
190.4804512538
 30
0.0
 10
100.5525278685
 20
190.6769452472
 30
0.0
 10
100.4485004797
 20
190.829909625
 30
0.0
 10
100.3844503723
 20
190.9912847727
 30
0.0
 10
100.3698291622
 20
191.1030335004
 30
0.0
 10
100.3698366111
 20
191.1575503589
 30
0.0
  0
SPLINE
  5
527
100
AcDbEntity
  8
0
100
AcDbSpline
 62
7
  6
CONTINUOUS
 70
0
 71
3
 72
13
 73
9
 74
0
 42
0.0000001
 43
0.0000001
 44
0.0000000001
 40
0.0
 40
0.0
 40
0.0
 40
0.0
 40
0.3058958034
 40
0.5829443383
 40
0.7040991027
 40
0.8123288778
 40
0.9094595589
 40
1.0
 40
1.0
 40
1.0
 40
1.0
 10
105.9245331039
 20
187.9784254572
 30
0.0
 10
105.6741700182
 20
187.9748103403
 30
0.0
 10
105.1949132106
 20
188.0210331326
 30
0.0
 10
104.6425246236
 20
188.2138242849
 30
0.0
 10
104.2966025745
 20
188.4463928607
 30
0.0
 10
104.1088752062
 20
188.640101911
 30
0.0
 10
103.9898316425
 20
188.8548950616
 30
0.0
 10
103.9619438887
 20
189.0095759888
 30
0.0
 10
103.9619540149
 20
189.083687326
 30
0.0
  0
SPLINE
  5
528
100
AcDbEntity
  8
0
100
AcDbSpline
 62
7
  6
CONTINUOUS
 70
0
 71
3
 72
11
 73
7
 74
0
 42
0.0000001
 43
0.0000001
 44
0.0000000001
 40
0.0
 40
0.0
 40
0.0
 40
0.0
 40
0.2446005043
 40
0.5073686278
 40
0.7661659871
 40
1.0
 40
1.0
 40
1.0
 40
1.0
 10
107.0496683099
 20
189.2228584257
 30
0.0
 10
106.8557476544
 20
189.3095874842
 30
0.0
 10
106.4270298061
 20
189.4318279191
 30
0.0
 10
105.7587681895
 20
189.4751879292
 30
0.0
 10
105.1045617269
 20
189.3856313544
 30
0.0
 10
104.698703652
 20
189.2321562617
 30
0.0
 10
104.5228300864
 20
189.1306162173
 30
0.0
  0
SPLINE
  5
529
100
AcDbEntity
  8
0
100
AcDbSpline
 62
7
  6
CONTINUOUS
 70
0
 71
3
 72
11
 73
7
 74
0
 42
0.0000001
 43
0.0000001
 44
0.0000000001
 40
0.0
 40
0.0
 40
0.0
 40
0.0
 40
0.2177827477
 40
0.4509152641
 40
0.7103063952
 40
1.0
 40
1.0
 40
1.0
 40
1.0
 10
103.9619540149
 20
189.083687326
 30
0.0
 10
103.9619639809
 20
189.1566261497
 30
0.0
 10
103.9889025621
 20
189.3086554897
 30
0.0
 10
104.1041619646
 20
189.5204821826
 30
0.0
 10
104.2863598465
 20
189.7119576887
 30
0.0
 10
104.4388056758
 20
189.8169571662
 30
0.0
 10
104.5228300864
 20
189.8654683927
 30
0.0
  0
SPLINE
  5
52A
100
AcDbEntity
  8
0
100
AcDbSpline
 62
7
  6
CONTINUOUS
 70
0
 71
3
 72
14
 73
10
 74
0
 42
0.0000001
 43
0.0000001
 44
0.0000000001
 40
0.0
 40
0.0
 40
0.0
 40
0.0
 40
0.2057853731
 40
0.3306924684
 40
0.4657801118
 40
0.6059279367
 40
0.7453361925
 40
0.8783106472
 40
1.0
 40
1.0
 40
1.0
 40
1.0
 10
104.0859940363
 20
190.7981540221
 30
0.0
 10
103.9618069878
 20
190.9966606054
 30
0.0
 10
103.640220392
 20
191.2348598489
 30
0.0
 10
103.1461382899
 20
191.4226543064
 30
0.0
 10
102.6972705093
 20
191.5140796959
 30
0.0
 10
102.2247836048
 20
191.5390959107
 30
0.0
 10
101.755498913
 20
191.4970555138
 30
0.0
 10
101.3182764417
 20
191.3903120263
 30
0.0
 10
101.0506260877
 20
191.2737108737
 30
0.0
 10
100.9307126826
 20
191.2044792503
 30
0.0
  0
SPLINE
  5
52B
100
AcDbEntity
  8
0
100
AcDbSpline
 62
7
  6
CONTINUOUS
 70
0
 71
3
 72
11
 73
7
 74
0
 42
0.0000001
 43
0.0000001
 44
0.0000000001
 40
0.0
 40
0.0
 40
0.0
 40
0.0
 40
0.2177827477
 40
0.4509152641
 40
0.7103063952
 40
1.0
 40
1.0
 40
1.0
 40
1.0
 10
100.3698366111
 20
191.1575503589
 30
0.0
 10
100.3698465771
 20
191.2304891827
 30
0.0
 10
100.3967851584
 20
191.3825185227
 30
0.0
 10
100.5120445609
 20
191.5943452155
 30
0.0
 10
100.6942424428
 20
191.7858207217
 30
0.0
 10
100.8466882721
 20
191.8908201992
 30
0.0
 10
100.9307126826
 20
191.9393314257
 30
0.0
  0
SPLINE
  5
52C
100
AcDbEntity
  8
0
100
AcDbSpline
 62
7
  6
CONTINUOUS
 70
0
 71
3
 72
14
 73
10
 74
0
 42
0.0000001
 43
0.0000001
 44
0.0000000001
 40
0.0
 40
0.0
 40
0.0
 40
0.0
 40
0.2057853731
 40
0.3306924684
 40
0.4657801118
 40
0.6059279367
 40
0.7453361925
 40
0.8783106472
 40
1.0
 40
1.0
 40
1.0
 40
1.0
 10
100.4938766326
 20
192.8720170551
 30
0.0
 10
100.3696895841
 20
193.0705236384
 30
0.0
 10
100.0481029883
 20
193.3087228818
 30
0.0
 10
99.5540208861
 20
193.4965173394
 30
0.0
 10
99.1051531056
 20
193.5879427288
 30
0.0
 10
98.632666201
 20
193.6129589437
 30
0.0
 10
98.1633815092
 20
193.5709185468
 30
0.0
 10
97.726159038
 20
193.4641750592
 30
0.0
 10
97.458508684
 20
193.3475739067
 30
0.0
 10
97.3385952789
 20
193.2783422832
 30
0.0
  0
SPLINE
  5
52D
100
AcDbEntity
  8
0
100
AcDbSpline
 62
7
  6
CONTINUOUS
 70
0
 71
3
 72
9
 73
5
 74
0
 42
0.0000001
 43
0.0000001
 44
0.0000000001
 40
0.0
 40
0.0
 40
0.0
 40
0.0
 40
0.274366605
 40
1.0
 40
1.0
 40
1.0
 40
1.0
 10
104.5228300864
 20
189.1306162173
 30
0.0
 10
104.47447919
 20
189.1027009809
 30
0.0
 10
104.3034284868
 20
188.9931227832
 30
0.0
 10
104.1518405518
 20
188.8469923836
 30
0.0
 10
104.0740173573
 20
188.72150667
 30
0.0
  0
SPLINE
  5
52E
100
AcDbEntity
  8
0
100
AcDbSpline
 62
7
  6
CONTINUOUS
 70
0
 71
3
 72
9
 73
5
 74
0
 42
0.0000001
 43
0.0000001
 44
0.0000000001
 40
0.0
 40
0.0
 40
0.0
 40
0.0
 40
0.274366605
 40
1.0
 40
1.0
 40
1.0
 40
1.0
 10
100.9307126826
 20
191.2044792503
 30
0.0
 10
100.8823617863
 20
191.1765640139
 30
0.0
 10
100.7113110831
 20
191.0669858161
 30
0.0
 10
100.5597231481
 20
190.9208554166
 30
0.0
 10
100.4818999536
 20
190.7953697029
 30
0.0
  0
SPLINE
  5
52F
100
AcDbEntity
  8
0
100
AcDbSpline
 62
7
  6
CONTINUOUS
 70
0
 71
3
 72
9
 73
5
 74
0
 42
0.0000001
 43
0.0000001
 44
0.0000000001
 40
0.0
 40
0.0
 40
0.0
 40
0.0
 40
0.274366605
 40
1.0
 40
1.0
 40
1.0
 40
1.0
 10
97.3385952789
 20
193.2783422832
 30
0.0
 10
97.2902443825
 20
193.2504270468
 30
0.0
 10
97.1191936793
 20
193.1408488491
 30
0.0
 10
96.9676057443
 20
192.9947184496
 30
0.0
 10
96.8897825498
 20
192.8692327359
 30
0.0
  0
SPLINE
  5
530
100
AcDbEntity
  8
0
100
AcDbSpline
 62
7
  6
CONTINUOUS
 70
0
 71
3
 72
14
 73
10
 74
0
 42
0.0000001
 43
0.0000001
 44
0.0000000001
 40
0.0
 40
0.0
 40
0.0
 40
0.0
 40
0.1200888117
 40
0.2510799843
 40
0.526699298
 40
0.6614798337
 40
0.7873717936
 40
0.9007235974
 40
1.0
 40
1.0
 40
1.0
 40
1.0
 10
104.5228300864
 20
189.8654683927
 30
0.0
 10
104.6381410336
 20
189.9320428017
 30
0.0
 10
104.8947468561
 20
190.0451239151
 30
0.0
 10
105.4623707832
 20
190.1890048029
 30
0.0
 10
106.0720420022
 20
190.2083104116
 30
0.0
 10
106.6590266054
 20
190.1044727921
 30
0.0
 10
107.053345966
 20
189.9693832038
 30
0.0
 10
107.3824210784
 20
189.7842303959
 30
0.0
 10
107.5580531574
 20
189.6216655174
 30
0.0
 10
107.6254032534
 20
189.5346015283
 30
0.0
  0
SPLINE
  5
531
100
AcDbEntity
  8
0
100
AcDbSpline
 62
7
  6
CONTINUOUS
 70
0
 71
3
 72
11
 73
7
 74
0
 42
0.0000001
 43
0.0000001
 44
0.0000000001
 40
0.0
 40
0.0
 40
0.0
 40
0.0
 40
0.2177827477
 40
0.4509152641
 40
0.7103063952
 40
1.0
 40
1.0
 40
1.0
 40
1.0
 10
96.7777192074
 20
193.2314133919
 30
0.0
 10
96.7777291734
 20
193.3043522157
 30
0.0
 10
96.8046677546
 20
193.4563815556
 30
0.0
 10
96.9199271571
 20
193.6682082485
 30
0.0
 10
97.102125039
 20
193.8596837546
 30
0.0
 10
97.2545708683
 20
193.9646832322
 30
0.0
 10
97.3385952789
 20
194.0131944586
 30
0.0
  0
SPLINE
  5
532
100
AcDbEntity
  8
0
100
AcDbSpline
 62
7
  6
CONTINUOUS
 70
0
 71
3
 72
17
 73
13
 74
0
 42
0.0000001
 43
0.0000001
 44
0.0000000001
 40
0.0
 40
0.0
 40
0.0
 40
0.0
 40
0.1286926208
 40
0.2702795078
 40
0.4174383051
 40
0.5617803148
 40
0.6954501289
 40
0.8127134773
 40
0.8646759206
 40
0.9125113962
 40
0.9571388332
 40
1.0
 40
1.0
 40
1.0
 40
1.0
 10
97.3385952789
 20
194.0131944586
 30
0.0
 10
97.4803546448
 20
194.0950387782
 30
0.0
 10
97.8013115728
 20
194.2274709934
 30
0.0
 10
98.3244153831
 20
194.3321087136
 30
0.0
 10
98.8776824282
 20
194.3474317583
 30
0.0
 10
99.4159702773
 20
194.2717848043
 30
0.0
 10
99.8956292575
 20
194.1115691354
 30
0.0
 10
100.2292428984
 20
193.9085125407
 30
0.0
 10
100.4250103404
 20
193.7120185474
 30
0.0
 10
100.5290377291
 20
193.5590541695
 30
0.0
 10
100.5930878365
 20
193.3976790218
 30
0.0
 10
100.6077090466
 20
193.2859302941
 30
0.0
 10
100.6077015977
 20
193.2314134356
 30
0.0
  0
SPLINE
  5
533
100
AcDbEntity
  8
0
100
AcDbSpline
 62
7
  6
CONTINUOUS
 70
0
 71
3
 72
17
 73
13
 74
0
 42
0.0000001
 43
0.0000001
 44
0.0000000001
 40
0.0
 40
0.0
 40
0.0
 40
0.0
 40
0.1286926208
 40
0.2702795078
 40
0.4174383051
 40
0.5617803148
 40
0.6954501289
 40
0.8127134773
 40
0.8646759206
 40
0.9125113962
 40
0.9571388332
 40
1.0
 40
1.0
 40
1.0
 40
1.0
 10
100.9307126826
 20
191.9393314257
 30
0.0
 10
101.0724720485
 20
192.0211757452
 30
0.0
 10
101.3934289766
 20
192.1536079605
 30
0.0
 10
101.9165327868
 20
192.2582456807
 30
0.0
 10
102.4697998319
 20
192.2735687254
 30
0.0
 10
103.0080876811
 20
192.1979217714
 30
0.0
 10
103.4877466612
 20
192.0377061024
 30
0.0
 10
103.8213603022
 20
191.8346495078
 30
0.0
 10
104.0171277441
 20
191.6381555144
 30
0.0
 10
104.1211551329
 20
191.4851911365
 30
0.0
 10
104.1852052403
 20
191.3238159889
 30
0.0
 10
104.1998264503
 20
191.2120672612
 30
0.0
 10
104.1998190014
 20
191.1575504026
 30
0.0
  0
SPLINE
  5
534
100
AcDbEntity
  8
0
100
AcDbSpline
 62
7
  6
CONTINUOUS
 70
0
 71
3
 72
11
 73
7
 74
0
 42
0.0000001
 43
0.0000001
 44
0.0000000001
 40
0.0
 40
0.0
 40
0.0
 40
0.0
 40
0.2372278993
 40
0.4999989081
 40
0.7627705112
 40
1.0
 40
1.0
 40
1.0
 40
1.0
 10
64.2565963224
 20
172.6146034615
 30
0.0
 10
64.5577503377
 20
172.4407360431
 30
0.0
 10
65.1276824585
 20
171.9610876379
 30
0.0
 10
65.7928555018
 20
171.0520797227
 30
0.0
 10
66.2474985373
 20
170.0215189275
 30
0.0
 10
66.3779254978
 20
169.2881170133
 30
0.0
 10
66.3779254978
 20
168.9403739465
 30
0.0
  0
SPLINE
  5
535
100
AcDbEntity
  8
0
100
AcDbSpline
 62
7
  6
CONTINUOUS
 70
0
 71
3
 72
11
 73
7
 74
0
 42
0.0000001
 43
0.0000001
 44
0.0000000001
 40
0.0
 40
0.0
 40
0.0
 40
0.0
 40
0.2372278993
 40
0.4999989081
 40
0.7627705112
 40
1.0
 40
1.0
 40
1.0
 40
1.0
 10
78.3987908253
 20
164.4497883711
 30
0.0
 10
78.6999448406
 20
164.2759209527
 30
0.0
 10
79.2698769614
 20
163.7962725475
 30
0.0
 10
79.9350500048
 20
162.8872646323
 30
0.0
 10
80.3896930402
 20
161.8567038371
 30
0.0
 10
80.5201200008
 20
161.1233019229
 30
0.0
 10
80.5201200008
 20
160.7755588561
 30
0.0
  0
SPLINE
  5
536
100
AcDbEntity
  8
0
100
AcDbSpline
 62
7
  6
CONTINUOUS
 70
0
 71
3
 72
11
 73
7
 74
0
 42
0.0000001
 43
0.0000001
 44
0.0000000001
 40
0.0
 40
0.0
 40
0.0
 40
0.0
 40
0.2372278993
 40
0.4999989081
 40
0.7627705112
 40
1.0
 40
1.0
 40
1.0
 40
1.0
 10
72.034803299
 20
168.1239551618
 30
0.0
 10
72.3359573143
 20
167.9500877434
 30
0.0
 10
72.9058894351
 20
167.4704393381
 30
0.0
 10
73.5710624785
 20
166.561431423
 30
0.0
 10
74.0257055139
 20
165.5308706277
 30
0.0
 10
74.1561324745
 20
164.7974687136
 30
0.0
 10
74.1561324745
 20
164.4497256468
 30
0.0
  0
SPLINE
  5
537
100
AcDbEntity
  8
0
100
AcDbSpline
 62
7
  6
CONTINUOUS
 70
0
 71
3
 72
11
 73
7
 74
0
 42
0.0000001
 43
0.0000001
 44
0.0000000001
 40
0.0
 40
0.0
 40
0.0
 40
0.0
 40
0.217774924
 40
0.4509311967
 40
0.710224778
 40
1.0
 40
1.0
 40
1.0
 40
1.0
 10
62.0495043387
 20
173.1713979551
 30
0.0
 10
62.1484583505
 20
173.2285287429
 30
0.0
 10
62.3758309366
 20
173.3110779883
 30
0.0
 10
62.7534550547
 20
173.3206021682
 30
0.0
 10
63.1559748585
 20
173.2234881784
 30
0.0
 10
63.4178160632
 20
173.0988625145
 30
0.0
 10
63.5494865973
 20
173.022844216
 30
0.0
  0
SPLINE
  5
538
100
AcDbEntity
  8
0
100
AcDbSpline
 62
7
  6
CONTINUOUS
 70
0
 71
3
 72
11
 73
7
 74
0
 42
0.0000001
 43
0.0000001
 44
0.0000000001
 40
0.0
 40
0.0
 40
0.0
 40
0.0
 40
0.217774924
 40
0.4509311967
 40
0.710224778
 40
1.0
 40
1.0
 40
1.0
 40
1.0
 10
69.8277113153
 20
168.6807496554
 30
0.0
 10
69.9266653271
 20
168.7378804432
 30
0.0
 10
70.1540379133
 20
168.8204296886
 30
0.0
 10
70.5316620313
 20
168.8299538685
 30
0.0
 10
70.9341818351
 20
168.7328398787
 30
0.0
 10
71.1960230398
 20
168.6082142148
 30
0.0
 10
71.3276935739
 20
168.5321959163
 30
0.0
  0
SPLINE
  5
539
100
AcDbEntity
  8
0
100
AcDbSpline
 62
7
  6
CONTINUOUS
 70
0
 71
3
 72
11
 73
7
 74
0
 42
0.0000001
 43
0.0000001
 44
0.0000000001
 40
0.0
 40
0.0
 40
0.0
 40
0.0
 40
0.217774924
 40
0.4509311967
 40
0.710224778
 40
1.0
 40
1.0
 40
1.0
 40
1.0
 10
76.1916988417
 20
165.0065828647
 30
0.0
 10
76.2906528534
 20
165.0637136525
 30
0.0
 10
76.5180254396
 20
165.1462628979
 30
0.0
 10
76.8956495576
 20
165.1557870778
 30
0.0
 10
77.2981693614
 20
165.058673088
 30
0.0
 10
77.5600105661
 20
164.9340474241
 30
0.0
 10
77.6916811002
 20
164.8580291256
 30
0.0
  0
SPLINE
  5
53A
100
AcDbEntity
  8
0
100
AcDbSpline
 62
7
  6
CONTINUOUS
 70
0
 71
3
 72
9
 73
5
 74
0
 42
0.0000001
 43
0.0000001
 44
0.0000000001
 40
0.0
 40
0.0
 40
0.0
 40
0.0
 40
0.2421671282
 40
1.0
 40
1.0
 40
1.0
 40
1.0
 10
93.5791716997
 20
171.9453185407
 30
0.0
 10
93.6120744364
 20
171.9792744062
 30
0.0
 10
93.7516052439
 20
172.1159220608
 30
0.0
 10
93.9047176151
 20
172.2384724431
 30
0.0
 10
94.0258392288
 20
172.3234591101
 30
0.0
  0
SPLINE
  5
53B
100
AcDbEntity
  8
0
100
AcDbSpline
 62
7
  6
CONTINUOUS
 70
0
 71
3
 72
18
 73
14
 74
0
 42
0.0000001
 43
0.0000001
 44
0.0000000001
 40
0.0
 40
0.0
 40
0.0
 40
0.0
 40
0.046258452
 40
0.0933479256
 40
0.1425775431
 40
0.1949390029
 40
0.2510115174
 40
0.3109817566
 40
0.4414728819
 40
0.5824683776
 40
0.7273339703
 40
0.8687030175
 40
1.0
 40
1.0
 40
1.0
 40
1.0
 10
93.0007363144
 20
173.1389784175
 30
0.0
 10
93.0007535022
 20
173.0293948213
 30
0.0
 10
93.0264576842
 20
172.8073810965
 30
0.0
 10
93.1426142356
 20
172.4872954688
 30
0.0
 10
93.3324718008
 20
172.1876349379
 30
0.0
 10
93.5910056852
 20
171.9152593966
 30
0.0
 10
93.9117972813
 20
171.6752917226
 30
0.0
 10
94.4273271628
 20
171.3972007074
 30
0.0
 10
95.1857448934
 20
171.1649034867
 30
0.0
 10
96.1737788787
 20
171.0757788699
 30
0.0
 10
97.1871228344
 20
171.1732855969
 30
0.0
 10
98.1429092598
 20
171.4481441688
 30
0.0
 10
98.7209556788
 20
171.7508045547
 30
0.0
 10
98.975607284
 20
171.9293971226
 30
0.0
  0
SPLINE
  5
53C
100
AcDbEntity
  8
0
100
AcDbSpline
 62
7
  6
CONTINUOUS
 70
0
 71
3
 72
9
 73
5
 74
0
 42
0.0000001
 43
0.0000001
 44
0.0000000001
 40
0.0
 40
0.0
 40
0.0
 40
0.0
 40
0.2513878352
 40
1.0
 40
1.0
 40
1.0
 40
1.0
 10
36.3964731516
 20
203.3442828482
 30
0.0
 10
38.2745571925
 20
204.7304361594
 30
0.0
 10
45.7633202408
 20
210.2201394713
 30
0.0
 10
53.3238571738
 20
215.6119785868
 30
0.0
 10
59.0237959425
 20
219.5905483172
 30
0.0
  0
SPLINE
  5
53D
100
AcDbEntity
  8
0
100
AcDbSpline
 62
7
  6
CONTINUOUS
 70
0
 71
3
 72
8
 73
4
 74
0
 42
0.0000001
 43
0.0000001
 44
0.0000000001
 40
0.0
 40
0.0
 40
0.0
 40
0.0
 40
1.0
 40
1.0
 40
1.0
 40
1.0
 10
70.8507141128
 20
191.3258345652
 30
0.0
 10
70.3794116402
 20
191.598335848
 30
0.0
 10
69.9082508322
 20
191.8710825199
 30
0.0
 10
69.4367165855
 20
192.1431825458
 30
0.0
  0
SPLINE
  5
53E
100
AcDbEntity
  8
0
100
AcDbSpline
 62
7
  6
CONTINUOUS
 70
0
 71
3
 72
9
 73
5
 74
0
 42
0.0000001
 43
0.0000001
 44
0.0000000001
 40
0.0
 40
0.0
 40
0.0
 40
0.0
 40
0.2545764788
 40
1.0
 40
1.0
 40
1.0
 40
1.0
 10
70.9736238957
 20
191.2553288825
 30
0.0
 10
71.334602242
 20
191.5069274543
 30
0.0
 10
72.7624665243
 20
192.4808992379
 30
0.0
 10
74.2303725747
 20
193.3964772027
 30
0.0
 10
75.3461481691
 20
194.0406666972
 30
0.0
  0
SPLINE
  5
53F
100
AcDbEntity
  8
0
100
AcDbSpline
 62
7
  6
CONTINUOUS
 70
0
 71
3
 72
11
 73
7
 74
0
 42
0.0000001
 43
0.0000001
 44
0.0000000001
 40
0.0
 40
0.0
 40
0.0
 40
0.0
 40
0.2897762172
 40
0.5490701576
 40
0.7822260326
 40
1.0
 40
1.0
 40
1.0
 40
1.0
 10
69.2063643984
 20
167.3074109284
 30
0.0
 10
69.2063643984
 20
167.459454692
 30
0.0
 10
69.229353929
 20
167.7485373384
 30
0.0
 10
69.346510685
 20
168.1456988274
 30
0.0
 10
69.5435743122
 20
168.467978152
 30
0.0
 10
69.7287550928
 20
168.6236175912
 30
0.0
 10
69.8277113153
 20
168.6807496554
 30
0.0
  0
SPLINE
  5
540
100
AcDbEntity
  8
0
100
AcDbSpline
 62
7
  6
CONTINUOUS
 70
0
 71
3
 72
11
 73
7
 74
0
 42
0.0000001
 43
0.0000001
 44
0.0000000001
 40
0.0
 40
0.0
 40
0.0
 40
0.0
 40
0.2823953399
 40
0.5408778527
 40
0.777723963
 40
1.0
 40
1.0
 40
1.0
 40
1.0
 10
94.0258392288
 20
174.7870824188
 30
0.0
 10
93.8707649482
 20
174.6783255408
 30
0.0
 10
93.5895820697
 20
174.44549588
 30
0.0
 10
93.258458538
 20
174.0371999068
 30
0.0
 10
93.0500748434
 20
173.5975541389
 30
0.0
 10
93.0007129308
 20
173.2880646955
 30
0.0
 10
93.0007363144
 20
173.1389784175
 30
0.0
  0
SPLINE
  5
541
100
AcDbEntity
  8
0
100
AcDbSpline
 62
7
  6
CONTINUOUS
 70
0
 71
3
 72
9
 73
5
 74
0
 42
0.0000001
 43
0.0000001
 44
0.0000000001
 40
0.0
 40
0.0
 40
0.0
 40
0.0
 40
0.7499647211
 40
1.0
 40
1.0
 40
1.0
 40
1.0
 10
92.7754383873
 20
178.6402642946
 30
0.0
 10
87.3225480208
 20
181.7913688072
 30
0.0
 10
80.0548134488
 20
185.9984495725
 30
0.0
 10
72.7837146634
 20
190.1997119726
 30
0.0
 10
70.9653167967
 20
191.2495407201
 30
0.0
  0
SPLINE
  5
542
100
AcDbEntity
  8
0
100
AcDbSpline
 62
7
  6
CONTINUOUS
 70
0
 71
3
 72
11
 73
7
 74
0
 42
0.0000001
 43
0.0000001
 44
0.0000000001
 40
0.0
 40
0.0
 40
0.0
 40
0.0
 40
0.2897762172
 40
0.5490701576
 40
0.7822260326
 40
1.0
 40
1.0
 40
1.0
 40
1.0
 10
75.5703519248
 20
163.6332441378
 30
0.0
 10
75.5703519248
 20
163.7852879013
 30
0.0
 10
75.5933414553
 20
164.0743705477
 30
0.0
 10
75.7104982113
 20
164.4715320367
 30
0.0
 10
75.9075618386
 20
164.7938113613
 30
0.0
 10
76.0927426191
 20
164.9494508005
 30
0.0
 10
76.1916988417
 20
165.0065828647
 30
0.0
  0
SPLINE
  5
543
100
AcDbEntity
  8
0
100
AcDbSpline
 62
7
  6
CONTINUOUS
 70
0
 71
3
 72
11
 73
7
 74
0
 42
0.0000001
 43
0.0000001
 44
0.0000000001
 40
0.0
 40
0.0
 40
0.0
 40
0.0
 40
0.2897762172
 40
0.5490701576
 40
0.7822260326
 40
1.0
 40
1.0
 40
1.0
 40
1.0
 10
61.4281574218
 20
171.7980592282
 30
0.0
 10
61.4281574218
 20
171.9501029917
 30
0.0
 10
61.4511469524
 20
172.2391856381
 30
0.0
 10
61.5683037084
 20
172.6363471272
 30
0.0
 10
61.7653673356
 20
172.9586264517
 30
0.0
 10
61.9505481162
 20
173.1142658909
 30
0.0
 10
62.0495043387
 20
173.1713979551
 30
0.0
  0
SPLINE
  5
544
100
AcDbEntity
  8
0
100
AcDbSpline
 62
7
  6
CONTINUOUS
 70
0
 71
3
 72
16
 73
12
 74
0
 42
0.0000001
 43
0.0000001
 44
0.0000000001
 40
0.0
 40
0.0
 40
0.0
 40
0.0
 40
0.0428749215
 40
0.0875218052
 40
0.1869210508
 40
0.3042319763
 40
0.4379526978
 40
0.5823548967
 40
0.7295670544
 40
0.8712583699
 40
1.0
 40
1.0
 40
1.0
 40
1.0
 10
144.177200363
 20
200.0289234419
 30
0.0
 10
144.177201271
 20
200.0787368499
 30
0.0
 10
144.1639729408
 20
200.1808699175
 30
0.0
 10
144.0830016378
 20
200.3844337018
 30
0.0
 10
143.8783214228
 20
200.6195771251
 30
0.0
 10
143.5268398802
 20
200.8328849514
 30
0.0
 10
143.0881906245
 20
200.9797415884
 30
0.0
 10
142.5964153953
 20
201.0487210629
 30
0.0
 10
142.0907565823
 20
201.0348279108
 30
0.0
 10
141.6127177389
 20
200.9391345525
 30
0.0
 10
141.3193671176
 20
200.8181324716
 30
0.0
 10
141.1898303066
 20
200.7433448053
 30
0.0
  0
SPLINE
  5
545
100
AcDbEntity
  8
0
100
AcDbSpline
 62
7
  6
CONTINUOUS
 70
0
 71
3
 72
11
 73
7
 74
0
 42
0.0000001
 43
0.0000001
 44
0.0000000001
 40
0.0
 40
0.0
 40
0.0
 40
0.0
 40
0.2177648073
 40
0.4508950352
 40
0.7103684932
 40
1.0
 40
1.0
 40
1.0
 40
1.0
 10
147.6006215812
 20
202.3559223415
 30
0.0
 10
147.6005935945
 20
202.2854653901
 30
0.0
 10
147.5746667079
 20
202.1385924459
 30
0.0
 10
147.4632646613
 20
201.9339423392
 30
0.0
 10
147.2872249891
 20
201.7489972406
 30
0.0
 10
147.1399679762
 20
201.6475311852
 30
0.0
 10
147.0588133521
 20
201.6006768208
 30
0.0
  0
SPLINE
  5
546
100
AcDbEntity
  8
0
100
AcDbSpline
 62
7
  6
CONTINUOUS
 70
0
 71
3
 72
9
 73
5
 74
0
 42
0.0000001
 43
0.0000001
 44
0.0000000001
 40
0.0
 40
0.0
 40
0.0
 40
0.0
 40
0.4833843925
 40
1.0
 40
1.0
 40
1.0
 40
1.0
 10
162.482458147
 20
230.8560960309
 30
0.0
 10
162.4110684039
 20
231.2178467473
 30
0.0
 10
162.163596392
 20
231.9487995673
 30
0.0
 10
161.7555355353
 20
232.6007956696
 30
0.0
 10
161.5160184025
 20
232.9137299673
 30
0.0
  0
SPLINE
  5
547
100
AcDbEntity
  8
0
100
AcDbSpline
 62
7
  6
CONTINUOUS
 70
0
 71
3
 72
12
 73
8
 74
0
 42
0.0000001
 43
0.0000001
 44
0.0000000001
 40
0.0
 40
0.0
 40
0.0
 40
0.0
 40
0.1081594453
 40
0.2183582921
 40
0.451362939
 40
0.7104102874
 40
1.0
 40
1.0
 40
1.0
 40
1.0
 10
162.5612534108
 20
231.6881533946
 30
0.0
 10
162.5612750189
 20
231.456252558
 30
0.0
 10
162.520914292
 20
230.987109164
 30
0.0
 10
162.2772771684
 20
230.0465428424
 30
0.0
 10
161.6516057414
 20
228.8932991646
 30
0.0
 10
160.4864413398
 20
227.6693708492
 30
0.0
 10
159.5110968617
 20
226.9976524062
 30
0.0
 10
158.9733817082
 20
226.6872042707
 30
0.0
  0
SPLINE
  5
548
100
AcDbEntity
  8
0
100
AcDbSpline
 62
7
  6
CONTINUOUS
 70
0
 71
3
 72
9
 73
5
 74
0
 42
0.0000001
 43
0.0000001
 44
0.0000000001
 40
0.0
 40
0.0
 40
0.0
 40
0.0
 40
0.5180549464
 40
1.0
 40
1.0
 40
1.0
 40
1.0
 10
139.2213873117
 20
233.0593612142
 30
0.0
 10
138.9581616194
 20
232.735474887
 30
0.0
 10
138.5082370253
 20
232.058665767
 30
0.0
 10
138.2316614602
 20
231.2911695414
 30
0.0
 10
138.1514076176
 20
230.91128449
 30
0.0
  0
SPLINE
  5
549
100
AcDbEntity
  8
0
100
AcDbSpline
 62
7
  6
CONTINUOUS
 70
0
 71
3
 72
9
 73
5
 74
0
 42
0.0000001
 43
0.0000001
 44
0.0000000001
 40
0.0
 40
0.0
 40
0.0
 40
0.0
 40
0.280476285
 40
1.0
 40
1.0
 40
1.0
 40
1.0
 10
128.4619612368
 20
193.3949500356
 30
0.0
 10
128.408189477
 20
193.363905081
 30
0.0
 10
128.2235612836
 20
193.2432638212
 30
0.0
 10
128.0643317369
 20
193.0708729706
 30
0.0
 10
128.0012482983
 20
192.9246134511
 30
0.0
  0
SPLINE
  5
54A
100
AcDbEntity
  8
0
100
AcDbSpline
 62
7
  6
CONTINUOUS
 70
0
 71
3
 72
8
 73
4
 74
0
 42
0.0000001
 43
0.0000001
 44
0.0000000001
 40
0.0
 40
0.0
 40
0.0
 40
0.0
 40
1.0
 40
1.0
 40
1.0
 40
1.0
 10
127.9700760507
 20
192.8353308537
 30
0.0
 10
127.9565887934
 20
192.7850528177
 30
0.0
 10
127.9494761673
 20
192.7325843727
 30
0.0
 10
127.9494752184
 20
192.6805287582
 30
0.0
  0
SPLINE
  5
54B
100
AcDbEntity
  8
0
100
AcDbSpline
 62
7
  6
CONTINUOUS
 70
0
 71
3
 72
19
 73
15
 74
0
 42
0.0000001
 43
0.0000001
 44
0.0000000001
 40
0.0
 40
0.0
 40
0.0
 40
0.0
 40
0.1286270646
 40
0.2701535496
 40
0.4172436725
 40
0.5615281849
 40
0.6301803385
 40
0.6953198077
 40
0.756315244
 40
0.8127965131
 40
0.8647376737
 40
0.9125501121
 40
0.9571594976
 40
1.0
 40
1.0
 40
1.0
 40
1.0
 10
158.9733817082
 20
226.6872042707
 30
0.0
 10
158.0666199054
 20
226.1636882247
 30
0.0
 10
156.0135507737
 20
225.3166143687
 30
0.0
 10
152.6672854117
 20
224.6469979108
 30
0.0
 10
149.1285803513
 20
224.5491879358
 30
0.0
 10
146.2098213435
 20
224.9586660283
 30
0.0
 10
144.0316355853
 20
225.5861217319
 30
0.0
 10
142.5579853733
 20
226.1798324076
 30
0.0
 10
141.2488474032
 20
226.8918728414
 30
0.0
 10
140.1315368003
 20
227.7083262651
 30
0.0
 10
139.2298394991
 20
228.6138046845
 30
0.0
 10
138.5645491754
 20
229.5923218156
 30
0.0
 10
138.1545099821
 20
230.6245411268
 30
0.0
 10
138.0613542332
 20
231.33942779
 30
0.0
 10
138.0613217396
 20
231.6881536325
 30
0.0
  0
SPLINE
  5
54C
100
AcDbEntity
  8
0
100
AcDbSpline
 62
7
  6
CONTINUOUS
 70
0
 71
3
 72
16
 73
12
 74
0
 42
0.0000001
 43
0.0000001
 44
0.0000000001
 40
0.0
 40
0.0
 40
0.0
 40
0.0
 40
0.1287443602
 40
0.2703971121
 40
0.4176139114
 40
0.5620190713
 40
0.6957499754
 40
0.8130650626
 40
0.9124721117
 40
0.9571211941
 40
1.0
 40
1.0
 40
1.0
 40
1.0
 10
131.0075562473
 20
192.3335345279
 30
0.0
 10
130.8706131629
 20
192.2544708732
 30
0.0
 10
130.5605475377
 20
192.1265414624
 30
0.0
 10
130.055219177
 20
192.0254256701
 30
0.0
 10
129.5207012817
 20
192.0106671531
 30
0.0
 10
129.000800124
 20
192.0836034822
 30
0.0
 10
128.5370430692
 20
192.2388249602
 30
0.0
 10
128.165466433
 20
192.4643316473
 30
0.0
 10
127.94900366
 20
192.7129058239
 30
0.0
 10
127.8635138034
 20
192.9281493848
 30
0.0
 10
127.8494211157
 20
193.0361146568
 30
0.0
 10
127.8494420352
 20
193.0887797989
 30
0.0
  0
SPLINE
  5
54D
100
AcDbEntity
  8
0
100
AcDbSpline
 62
7
  6
CONTINUOUS
 70
0
 71
3
 72
10
 73
6
 74
0
 42
0.0000001
 43
0.0000001
 44
0.0000000001
 40
0.0
 40
0.0
 40
0.0
 40
0.0
 40
0.2363160146
 40
0.4786942256
 40
1.0
 40
1.0
 40
1.0
 40
1.0
 10
138.0613217396
 20
231.6881536325
 30
0.0
 10
138.0612964156
 20
231.9599338206
 30
0.0
 10
138.1171648606
 20
232.5120801722
 30
0.0
 10
138.4544760456
 20
233.6173992053
 30
0.0
 10
138.9436098219
 20
234.3721523292
 30
0.0
 10
139.3339870287
 20
234.8271822375
 30
0.0
  0
SPLINE
  5
54E
100
AcDbEntity
  8
0
100
AcDbSpline
 62
7
  6
CONTINUOUS
 70
0
 71
3
 72
10
 73
6
 74
0
 42
0.0000001
 43
0.0000001
 44
0.0000000001
 40
0.0
 40
0.0
 40
0.0
 40
0.0
 40
0.2271243056
 40
0.4647818616
 40
1.0
 40
1.0
 40
1.0
 40
1.0
 10
127.8494420352
 20
193.0887797989
 30
0.0
 10
127.8494643621
 20
193.1449880784
 30
0.0
 10
127.8655725864
 20
193.2605852687
 30
0.0
 10
127.9633044258
 20
193.4903343846
 30
0.0
 10
128.0992128129
 20
193.6342829416
 30
0.0
 10
128.2029261334
 20
193.7166710953
 30
0.0
  0
SPLINE
  5
54F
100
AcDbEntity
  8
0
100
AcDbSpline
 62
7
  6
CONTINUOUS
 70
0
 71
3
 72
9
 73
5
 74
0
 42
0.0000001
 43
0.0000001
 44
0.0000000001
 40
0.0
 40
0.0
 40
0.0
 40
0.0
 40
0.2425673463
 40
1.0
 40
1.0
 40
1.0
 40
1.0
 10
128.2029261334
 20
193.7166710953
 30
0.0
 10
128.2173269139
 20
193.7281108381
 30
0.0
 10
128.2776451166
 20
193.7740702968
 30
0.0
 10
128.341515279
 20
193.8153109839
 30
0.0
 10
128.3912502643
 20
193.8440253197
 30
0.0
  0
SPLINE
  5
550
100
AcDbEntity
  8
0
100
AcDbSpline
 62
7
  6
CONTINUOUS
 70
0
 71
3
 72
10
 73
6
 74
0
 42
0.0000001
 43
0.0000001
 44
0.0000000001
 40
0.0
 40
0.0
 40
0.0
 40
0.0
 40
0.5199462949
 40
0.7627947221
 40
1.0
 40
1.0
 40
1.0
 40
1.0
 10
161.381834995
 20
234.7159967222
 30
0.0
 10
161.7452823192
 20
234.2730191475
 30
0.0
 10
162.198275326
 20
233.5422998268
 30
0.0
 10
162.5097428431
 20
232.4800469284
 30
0.0
 10
162.5612290534
 20
231.9495600081
 30
0.0
 10
162.5612534108
 20
231.6881533946
 30
0.0
  0
SPLINE
  5
551
100
AcDbEntity
  8
0
100
AcDbSpline
 62
7
  6
CONTINUOUS
 70
0
 71
3
 72
16
 73
12
 74
0
 42
0.0000001
 43
0.0000001
 44
0.0000000001
 40
0.0
 40
0.0
 40
0.0
 40
0.0
 40
0.1287443602
 40
0.2703971121
 40
0.4176139114
 40
0.5620190713
 40
0.6957499754
 40
0.8130650626
 40
0.9124721117
 40
0.9571211941
 40
1.0
 40
1.0
 40
1.0
 40
1.0
 10
144.442507369
 20
203.1111676125
 30
0.0
 10
144.5794504535
 20
203.1902312673
 30
0.0
 10
144.8895160786
 20
203.3181606781
 30
0.0
 10
145.3948444393
 20
203.4192764704
 30
0.0
 10
145.9293623346
 20
203.4340349874
 30
0.0
 10
146.4492634924
 20
203.3610986582
 30
0.0
 10
146.9130205472
 20
203.2058771803
 30
0.0
 10
147.2845971833
 20
202.9803704932
 30
0.0
 10
147.5010599564
 20
202.7317963166
 30
0.0
 10
147.586549813
 20
202.5165527556
 30
0.0
 10
147.6006425007
 20
202.4085874836
 30
0.0
 10
147.6006215812
 20
202.3559223415
 30
0.0
  0
SPLINE
  5
552
100
AcDbEntity
  8
0
100
AcDbSpline
 62
7
  6
CONTINUOUS
 70
0
 71
3
 72
11
 73
7
 74
0
 42
0.0000001
 43
0.0000001
 44
0.0000000001
 40
0.0
 40
0.0
 40
0.0
 40
0.0
 40
0.2452616914
 40
0.5080159621
 40
0.7664479743
 40
1.0
 40
1.0
 40
1.0
 40
1.0
 10
146.8658876135
 20
201.5751008914
 30
0.0
 10
146.6787130579
 20
201.656746788
 30
0.0
 10
146.2665659334
 20
201.7713540608
 30
0.0
 10
145.6255701577
 20
201.8102659087
 30
0.0
 10
144.9992174619
 20
201.722831971
 30
0.0
 10
144.6109124289
 20
201.5753909046
 30
0.0
 10
144.442507369
 20
201.4781627783
 30
0.0
  0
SPLINE
  5
553
100
AcDbEntity
  8
0
100
AcDbSpline
 62
7
  6
CONTINUOUS
 70
0
 71
3
 72
9
 73
5
 74
0
 42
0.0000001
 43
0.0000001
 44
0.0000000001
 40
0.0
 40
0.0
 40
0.0
 40
0.0
 40
0.2541578736
 40
1.0
 40
1.0
 40
1.0
 40
1.0
 10
120.2595864592
 20
162.5956390927
 30
0.0
 10
126.3071791459
 20
166.8116071887
 30
0.0
 10
150.2538512343
 20
183.1799384993
 30
0.0
 10
174.8142237225
 20
198.6543101035
 30
0.0
 10
193.4646153557
 20
209.6173002126
 30
0.0
  0
SPLINE
  5
554
100
AcDbEntity
  8
0
100
AcDbSpline
 62
7
  6
CONTINUOUS
 70
0
 71
3
 72
16
 73
12
 74
0
 42
0.0000001
 43
0.0000001
 44
0.0000000001
 40
0.0
 40
0.0
 40
0.0
 40
0.0
 40
0.0428757442
 40
0.087521923
 40
0.1869262484
 40
0.3042380343
 40
0.4379641723
 40
0.5823700573
 40
0.7295935095
 40
0.87125452
 40
1.0
 40
1.0
 40
1.0
 40
1.0
 10
85.6442753939
 20
123.2936972259
 30
0.0
 10
85.6443039826
 20
123.3648613194
 30
0.0
 10
85.6252494994
 20
123.5107483321
 30
0.0
 10
85.5097537101
 20
123.8016130591
 30
0.0
 10
85.2172434072
 20
124.1375169281
 30
0.0
 10
84.7151384133
 20
124.4422583984
 30
0.0
 10
84.0884541684
 20
124.6520274553
 30
0.0
 10
83.3858819364
 20
124.7506017702
 30
0.0
 10
82.6635330123
 20
124.7306702675
 30
0.0
 10
81.9806290192
 20
124.5940247757
 30
0.0
 10
81.5616057994
 20
124.4211428347
 30
0.0
 10
81.3765458002
 20
124.3142990321
 30
0.0
  0
SPLINE
  5
555
100
AcDbEntity
  8
0
100
AcDbSpline
 62
7
  6
CONTINUOUS
 70
0
 71
3
 72
12
 73
8
 74
0
 42
0.0000001
 43
0.0000001
 44
0.0000000001
 40
0.0
 40
0.0
 40
0.0
 40
0.0
 40
0.2384109722
 40
0.4993416137
 40
0.7604270719
 40
0.8842278684
 40
1.0
 40
1.0
 40
1.0
 40
1.0
 10
109.0823570235
 20
108.5494761108
 30
0.0
 10
108.7202803781
 20
108.7376307982
 30
0.0
 10
107.900706957
 20
109.0172930353
 30
0.0
 10
106.5979139722
 20
109.1516979988
 30
0.0
 10
105.4885379149
 20
109.0400741481
 30
0.0
 10
104.6616217137
 20
108.8095485321
 30
0.0
 10
104.2820435144
 20
108.6500919172
 30
0.0
 10
104.1062200805
 20
108.5587229828
 30
0.0
  0
SPLINE
  5
556
100
AcDbEntity
  8
0
100
AcDbSpline
 62
7
  6
CONTINUOUS
 70
0
 71
3
 72
16
 73
12
 74
0
 42
0.0000001
 43
0.0000001
 44
0.0000000001
 40
0.0
 40
0.0
 40
0.0
 40
0.0
 40
0.0428757442
 40
0.087521923
 40
0.1869262484
 40
0.3042380343
 40
0.4379641723
 40
0.5823700573
 40
0.7295935095
 40
0.87125452
 40
1.0
 40
1.0
 40
1.0
 40
1.0
 10
66.5353240066
 20
134.6146693256
 30
0.0
 10
66.535358313
 20
134.7000662378
 30
0.0
 10
66.5124929331
 20
134.875130653
 30
0.0
 10
66.373897986
 20
135.2241683254
 30
0.0
 10
66.0228856226
 20
135.6272529683
 30
0.0
 10
65.4203596298
 20
135.9929427326
 30
0.0
 10
64.668338536
 20
136.2446656008
 30
0.0
 10
63.8252518575
 20
136.3629547788
 30
0.0
 10
62.9584331486
 20
136.3390369755
 30
0.0
 10
62.1389483569
 20
136.1750623853
 30
0.0
 10
61.6361204932
 20
135.9676040562
 30
0.0
 10
61.4140484941
 20
135.8393914931
 30
0.0
  0
SPLINE
  5
557
100
AcDbEntity
  8
0
100
AcDbSpline
 62
7
  6
CONTINUOUS
 70
0
 71
3
 72
16
 73
12
 74
0
 42
0.0000001
 43
0.0000001
 44
0.0000000001
 40
0.0
 40
0.0
 40
0.0
 40
0.0
 40
0.0428757442
 40
0.087521923
 40
0.1869262484
 40
0.3042380343
 40
0.4379641723
 40
0.5823700573
 40
0.7295935095
 40
0.87125452
 40
1.0
 40
1.0
 40
1.0
 40
1.0
 10
44.9988186273
 20
146.7598317566
 30
0.0
 10
44.9988472159
 20
146.8309958501
 30
0.0
 10
44.9797927327
 20
146.9768828627
 30
0.0
 10
44.8642969435
 20
147.2677475897
 30
0.0
 10
44.5717866406
 20
147.6036514588
 30
0.0
 10
44.0696816467
 20
147.9083929291
 30
0.0
 10
43.4429974018
 20
148.1181619859
 30
0.0
 10
42.7404251698
 20
148.2167363009
 30
0.0
 10
42.0180762457
 20
148.1968047981
 30
0.0
 10
41.3351722526
 20
148.0601593063
 30
0.0
 10
40.9161490328
 20
147.8872773654
 30
0.0
 10
40.7310890336
 20
147.7804335628
 30
0.0
  0
SPLINE
  5
558
100
AcDbEntity
  8
0
100
AcDbSpline
 62
7
  6
CONTINUOUS
 70
0
 71
3
 72
11
 73
7
 74
0
 42
0.0000001
 43
0.0000001
 44
0.0000000001
 40
0.0
 40
0.0
 40
0.0
 40
0.0
 40
0.2896428702
 40
0.5491125874
 40
0.7822368
 40
1.0
 40
1.0
 40
1.0
 40
1.0
 10
81.3765458002
 20
124.3142990321
 30
0.0
 10
81.2668729303
 20
124.2509797491
 30
0.0
 10
81.0678739135
 20
124.1138617314
 30
0.0
 10
80.8299815467
 20
123.8639334848
 30
0.0
 10
80.6794496501
 20
123.587380279
 30
0.0
 10
80.6444030814
 20
123.3889085951
 30
0.0
 10
80.6443648322
 20
123.2936970658
 30
0.0
  0
SPLINE
  5
559
100
AcDbEntity
  8
0
100
AcDbSpline
 62
7
  6
CONTINUOUS
 70
0
 71
3
 72
11
 73
7
 74
0
 42
0.0000001
 43
0.0000001
 44
0.0000000001
 40
0.0
 40
0.0
 40
0.0
 40
0.0
 40
0.2896428702
 40
0.5491125874
 40
0.7822368
 40
1.0
 40
1.0
 40
1.0
 40
1.0
 10
61.4140484941
 20
135.8393914931
 30
0.0
 10
61.2824410502
 20
135.7634083534
 30
0.0
 10
61.0436422301
 20
135.5988667322
 30
0.0
 10
60.7581713899
 20
135.2989528362
 30
0.0
 10
60.577533114
 20
134.9670889893
 30
0.0
 10
60.5354772316
 20
134.7289229686
 30
0.0
 10
60.5354313326
 20
134.6146691334
 30
0.0
  0
SPLINE
  5
55A
100
AcDbEntity
  8
0
100
AcDbSpline
 62
7
  6
CONTINUOUS
 70
0
 71
3
 72
11
 73
7
 74
0
 42
0.0000001
 43
0.0000001
 44
0.0000000001
 40
0.0
 40
0.0
 40
0.0
 40
0.0
 40
0.2896428702
 40
0.5491125874
 40
0.7822368
 40
1.0
 40
1.0
 40
1.0
 40
1.0
 10
40.7310890336
 20
147.7804335628
 30
0.0
 10
40.6214161636
 20
147.7171142798
 30
0.0
 10
40.4224171469
 20
147.5799962621
 30
0.0
 10
40.1845247801
 20
147.3300680154
 30
0.0
 10
40.0339928834
 20
147.0535148097
 30
0.0
 10
39.9989463148
 20
146.8550431257
 30
0.0
 10
39.9989080656
 20
146.7598315964
 30
0.0
  0
SPLINE
  5
55B
100
AcDbEntity
  8
0
100
AcDbSpline
 62
7
  6
CONTINUOUS
 70
0
 71
3
 72
16
 73
12
 74
0
 42
0.0000001
 43
0.0000001
 44
0.0000000001
 40
0.0
 40
0.0
 40
0.0
 40
0.0
 40
0.0428757442
 40
0.087521923
 40
0.1869262484
 40
0.3042380343
 40
0.4379641723
 40
0.5823700573
 40
0.7295935095
 40
0.87125452
 40
1.0
 40
1.0
 40
1.0
 40
1.0
 10
39.9989080656
 20
146.7598315964
 30
0.0
 10
39.998879477
 20
146.6886675029
 30
0.0
 10
40.0179339602
 20
146.5427804903
 30
0.0
 10
40.1334297494
 20
146.2519157632
 30
0.0
 10
40.4259400523
 20
145.9160118942
 30
0.0
 10
40.9280450462
 20
145.6112704239
 30
0.0
 10
41.5547292911
 20
145.4015013671
 30
0.0
 10
42.2573015231
 20
145.3029270521
 30
0.0
 10
42.9796504472
 20
145.3228585548
 30
0.0
 10
43.6625544403
 20
145.4595040467
 30
0.0
 10
44.0815776601
 20
145.6323859876
 30
0.0
 10
44.2666376593
 20
145.7392297902
 30
0.0
  0
SPLINE
  5
55C
100
AcDbEntity
  8
0
100
AcDbSpline
 62
7
  6
CONTINUOUS
 70
0
 71
3
 72
16
 73
12
 74
0
 42
0.0000001
 43
0.0000001
 44
0.0000000001
 40
0.0
 40
0.0
 40
0.0
 40
0.0
 40
0.0428757442
 40
0.087521923
 40
0.1869262484
 40
0.3042380343
 40
0.4379641723
 40
0.5823700573
 40
0.7295935095
 40
0.87125452
 40
1.0
 40
1.0
 40
1.0
 40
1.0
 10
80.6443648322
 20
123.2936970658
 30
0.0
 10
80.6443362436
 20
123.2225329723
 30
0.0
 10
80.6633907268
 20
123.0766459596
 30
0.0
 10
80.778886516
 20
122.7857812326
 30
0.0
 10
81.0713968189
 20
122.4498773636
 30
0.0
 10
81.5735018128
 20
122.1451358932
 30
0.0
 10
82.2001860577
 20
121.9353668364
 30
0.0
 10
82.9027582898
 20
121.8367925214
 30
0.0
 10
83.6251072139
 20
121.8567240242
 30
0.0
 10
84.308011207
 20
121.993369516
 30
0.0
 10
84.7270344267
 20
122.1662514569
 30
0.0
 10
84.9120944259
 20
122.2730952595
 30
0.0
  0
SPLINE
  5
55D
100
AcDbEntity
  8
0
100
AcDbSpline
 62
7
  6
CONTINUOUS
 70
0
 71
3
 72
11
 73
7
 74
0
 42
0.0000001
 43
0.0000001
 44
0.0000000001
 40
0.0
 40
0.0
 40
0.0
 40
0.0
 40
0.2896428702
 40
0.5491125874
 40
0.7822368
 40
1.0
 40
1.0
 40
1.0
 40
1.0
 10
84.9120944259
 20
122.2730952595
 30
0.0
 10
85.0217672959
 20
122.3364145426
 30
0.0
 10
85.2207663126
 20
122.4735325603
 30
0.0
 10
85.4586586794
 20
122.7234608069
 30
0.0
 10
85.6091905761
 20
123.0000140127
 30
0.0
 10
85.6442371447
 20
123.1984856966
 30
0.0
 10
85.6442753939
 20
123.2936972259
 30
0.0
  0
SPLINE
  5
55E
100
AcDbEntity
  8
0
100
AcDbSpline
 62
7
  6
CONTINUOUS
 70
0
 71
3
 72
16
 73
12
 74
0
 42
0.0000001
 43
0.0000001
 44
0.0000000001
 40
0.0
 40
0.0
 40
0.0
 40
0.0
 40
0.0428757442
 40
0.087521923
 40
0.1869262484
 40
0.3042380343
 40
0.4379641723
 40
0.5823700573
 40
0.7295935095
 40
0.87125452
 40
1.0
 40
1.0
 40
1.0
 40
1.0
 10
60.5354313326
 20
134.6146691334
 30
0.0
 10
60.5353970262
 20
134.5292722212
 30
0.0
 10
60.558262406
 20
134.3542078061
 30
0.0
 10
60.6968573531
 20
134.0051701336
 30
0.0
 10
61.0478697166
 20
133.6020854908
 30
0.0
 10
61.6503957093
 20
133.2363957264
 30
0.0
 10
62.4024168031
 20
132.9846728582
 30
0.0
 10
63.2455034816
 20
132.8663836802
 30
0.0
 10
64.1123221905
 20
132.8903014835
 30
0.0
 10
64.9318069822
 20
133.0542760737
 30
0.0
 10
65.4346348459
 20
133.2617344028
 30
0.0
 10
65.656706845
 20
133.389946966
 30
0.0
  0
SPLINE
  5
55F
100
AcDbEntity
  8
0
100
AcDbSpline
 62
7
  6
CONTINUOUS
 70
0
 71
3
 72
11
 73
7
 74
0
 42
0.0000001
 43
0.0000001
 44
0.0000000001
 40
0.0
 40
0.0
 40
0.0
 40
0.0
 40
0.2896428702
 40
0.5491125874
 40
0.7822368
 40
1.0
 40
1.0
 40
1.0
 40
1.0
 10
65.656706845
 20
133.389946966
 30
0.0
 10
65.788314289
 20
133.4659301056
 30
0.0
 10
66.027113109
 20
133.6304717268
 30
0.0
 10
66.3125839492
 20
133.9303856228
 30
0.0
 10
66.4932222252
 20
134.2622494697
 30
0.0
 10
66.5352781076
 20
134.5004154904
 30
0.0
 10
66.5353240066
 20
134.6146693256
 30
0.0
  0
SPLINE
  5
560
100
AcDbEntity
  8
0
100
AcDbSpline
 62
7
  6
CONTINUOUS
 70
0
 71
3
 72
11
 73
7
 74
0
 42
0.0000001
 43
0.0000001
 44
0.0000000001
 40
0.0
 40
0.0
 40
0.0
 40
0.0
 40
0.2177648073
 40
0.4508950352
 40
0.7103684932
 40
1.0
 40
1.0
 40
1.0
 40
1.0
 10
66.5353147841
 20
132.328462664
 30
0.0
 10
66.5352694002
 20
132.2142081481
 30
0.0
 10
66.4932258004
 20
131.9760358063
 30
0.0
 10
66.3125738329
 20
131.6441707683
 30
0.0
 10
66.0271040942
 20
131.3442597977
 30
0.0
 10
65.7883089382
 20
131.1797202484
 30
0.0
 10
65.656706845
 20
131.103740198
 30
0.0
  0
SPLINE
  5
561
100
AcDbEntity
  8
0
100
AcDbSpline
 62
7
  6
CONTINUOUS
 70
0
 71
3
 72
11
 73
7
 74
0
 42
0.0000001
 43
0.0000001
 44
0.0000000001
 40
0.0
 40
0.0
 40
0.0
 40
0.0
 40
0.2177648073
 40
0.4508950352
 40
0.7103684932
 40
1.0
 40
1.0
 40
1.0
 40
1.0
 10
85.6442677085
 20
121.0074905466
 30
0.0
 10
85.6442298886
 20
120.91227845
 30
0.0
 10
85.6091935554
 20
120.7138014985
 30
0.0
 10
85.4586502492
 20
120.4372473002
 30
0.0
 10
85.2207588003
 20
120.1873214913
 30
0.0
 10
85.0217628369
 20
120.0502052002
 30
0.0
 10
84.9120944259
 20
119.9868884916
 30
0.0
  0
SPLINE
  5
562
100
AcDbEntity
  8
0
100
AcDbSpline
 62
7
  6
CONTINUOUS
 70
0
 71
3
 72
11
 73
7
 74
0
 42
0.0000001
 43
0.0000001
 44
0.0000000001
 40
0.0
 40
0.0
 40
0.0
 40
0.0
 40
0.2177648073
 40
0.4508950352
 40
0.7103684932
 40
1.0
 40
1.0
 40
1.0
 40
1.0
 10
44.9988109419
 20
144.4736250773
 30
0.0
 10
44.998773122
 20
144.3784129807
 30
0.0
 10
44.9637367888
 20
144.1799360292
 30
0.0
 10
44.8131934825
 20
143.9033818308
 30
0.0
 10
44.5753020337
 20
143.653456022
 30
0.0
 10
44.3763060703
 20
143.5163397309
 30
0.0
 10
44.2666376593
 20
143.4530230222
 30
0.0
  0
SPLINE
  5
563
100
AcDbEntity
  8
0
100
AcDbSpline
 62
7
  6
CONTINUOUS
 70
0
 71
3
 72
16
 73
12
 74
0
 42
0.0000001
 43
0.0000001
 44
0.0000000001
 40
0.0
 40
0.0
 40
0.0
 40
0.0
 40
0.1287443602
 40
0.2703971121
 40
0.4176139114
 40
0.5620190713
 40
0.6957499754
 40
0.8130650626
 40
0.9124721117
 40
0.9571211941
 40
1.0
 40
1.0
 40
1.0
 40
1.0
 10
44.2666376593
 20
143.4530230222
 30
0.0
 10
44.0815794371
 20
143.3461802456
 30
0.0
 10
43.6625718355
 20
143.1733026633
 30
0.0
 10
42.9796956724
 20
143.0366597008
 30
0.0
 10
42.2573741923
 20
143.0167157589
 30
0.0
 10
41.5548050602
 20
143.1152783659
 30
0.0
 10
40.9281063375
 20
143.3250371198
 30
0.0
 10
40.4259757481
 20
143.6297758862
 30
0.0
 10
40.1334584872
 20
143.9656869357
 30
0.0
 10
40.017931654
 20
144.2565566127
 30
0.0
 10
39.9988874815
 20
144.4024556289
 30
0.0
 10
39.998915751
 20
144.4736247398
 30
0.0
  0
SPLINE
  5
564
100
AcDbEntity
  8
0
100
AcDbSpline
 62
7
  6
CONTINUOUS
 70
0
 71
3
 72
16
 73
12
 74
0
 42
0.0000001
 43
0.0000001
 44
0.0000000001
 40
0.0
 40
0.0
 40
0.0
 40
0.0
 40
0.1287443602
 40
0.2703971121
 40
0.4176139114
 40
0.5620190713
 40
0.6957499754
 40
0.8130650626
 40
0.9124721117
 40
0.9571211941
 40
1.0
 40
1.0
 40
1.0
 40
1.0
 10
65.656706845
 20
131.103740198
 30
0.0
 10
65.4346369784
 20
130.975528866
 30
0.0
 10
64.9318278565
 20
130.7680757673
 30
0.0
 10
64.1123764607
 20
130.6041042123
 30
0.0
 10
63.2455906846
 20
130.580171482
 30
0.0
 10
62.402507726
 20
130.6984466104
 30
0.0
 10
61.6504692589
 20
130.9501571151
 30
0.0
 10
61.0479125516
 20
131.3158436348
 30
0.0
 10
60.6968918385
 20
131.7189368941
 30
0.0
 10
60.5582596386
 20
132.0679805065
 30
0.0
 10
60.5354066316
 20
132.243059326
 30
0.0
 10
60.5354405551
 20
132.3284622591
 30
0.0
  0
SPLINE
  5
565
100
AcDbEntity
  8
0
100
AcDbSpline
 62
7
  6
CONTINUOUS
 70
0
 71
3
 72
11
 73
7
 74
0
 42
0.0000001
 43
0.0000001
 44
0.0000000001
 40
0.0
 40
0.0
 40
0.0
 40
0.0
 40
0.2896428702
 40
0.5491125874
 40
0.7822368
 40
1.0
 40
1.0
 40
1.0
 40
1.0
 10
44.2666376593
 20
145.7392297902
 30
0.0
 10
44.3763105293
 20
145.8025490732
 30
0.0
 10
44.575309546
 20
145.9396670909
 30
0.0
 10
44.8132019128
 20
146.1895953376
 30
0.0
 10
44.9637338095
 20
146.4661485433
 30
0.0
 10
44.9987803781
 20
146.6646202272
 30
0.0
 10
44.9988186273
 20
146.7598317566
 30
0.0
  0
SPLINE
  5
566
100
AcDbEntity
  8
0
100
AcDbSpline
 62
7
  6
CONTINUOUS
 70
0
 71
3
 72
16
 73
12
 74
0
 42
0.0000001
 43
0.0000001
 44
0.0000000001
 40
0.0
 40
0.0
 40
0.0
 40
0.0
 40
0.1287443602
 40
0.2703971121
 40
0.4176139114
 40
0.5620190713
 40
0.6957499754
 40
0.8130650626
 40
0.9124721117
 40
0.9571211941
 40
1.0
 40
1.0
 40
1.0
 40
1.0
 10
84.9120944259
 20
119.9868884916
 30
0.0
 10
84.7270362037
 20
119.8800457149
 30
0.0
 10
84.3080286021
 20
119.7071681327
 30
0.0
 10
83.625152439
 20
119.5705251702
 30
0.0
 10
82.9028309589
 20
119.5505812283
 30
0.0
 10
82.2002618268
 20
119.6491438352
 30
0.0
 10
81.5735631041
 20
119.8589025892
 30
0.0
 10
81.0714325147
 20
120.1636413556
 30
0.0
 10
80.7789152538
 20
120.499552405
 30
0.0
 10
80.6633884206
 20
120.790422082
 30
0.0
 10
80.6443442481
 20
120.9363210982
 30
0.0
 10
80.6443725177
 20
121.0074902092
 30
0.0
  0
SPLINE
  5
567
100
AcDbEntity
  8
0
100
AcDbSpline
 62
7
  6
CONTINUOUS
 70
0
 71
3
 72
9
 73
5
 74
0
 42
0.0000001
 43
0.0000001
 44
0.0000000001
 40
0.0
 40
0.0
 40
0.0
 40
0.0
 40
0.2469990626
 40
1.0
 40
1.0
 40
1.0
 40
1.0
 10
91.1117269823
 20
101.8503054058
 30
0.0
 10
91.1387134234
 20
101.8659004006
 30
0.0
 10
91.2508692767
 20
101.9239649545
 30
0.0
 10
91.373932397
 20
101.960275249
 30
0.0
 10
91.4677280068
 20
101.9754803947
 30
0.0
  0
SPLINE
  5
568
100
AcDbEntity
  8
0
100
AcDbSpline
 62
7
  6
CONTINUOUS
 70
0
 71
3
 72
15
 73
11
 74
0
 42
0.0000001
 43
0.0000001
 44
0.0000000001
 40
0.0
 40
0.0
 40
0.0
 40
0.0
 40
0.0917012605
 40
0.1983455625
 40
0.3206790812
 40
0.4555218468
 40
0.5973876113
 40
0.7396884875
 40
0.8758079268
 40
1.0
 40
1.0
 40
1.0
 40
1.0
 10
91.4677280068
 20
101.9754803947
 30
0.0
 10
91.6366388104
 20
102.0028624159
 30
0.0
 10
92.0163923099
 20
101.9781531887
 30
0.0
 10
92.5765889604
 20
101.7500687367
 30
0.0
 10
93.134068124
 20
101.354188753
 30
0.0
 10
93.6541296903
 20
100.8163386235
 30
0.0
 10
94.1032956395
 20
100.1726071164
 30
0.0
 10
94.451267782
 20
99.4662317954
 30
0.0
 10
94.6743092953
 20
98.7455874118
 30
0.0
 10
94.7330225323
 20
98.2592936403
 30
0.0
 10
94.7330225323
 20
98.0275494716
 30
0.0
  0
SPLINE
  5
569
100
AcDbEntity
  8
0
100
AcDbSpline
 62
7
  6
CONTINUOUS
 70
0
 71
3
 72
9
 73
5
 74
0
 42
0.0000001
 43
0.0000001
 44
0.0000000001
 40
0.0
 40
0.0
 40
0.0
 40
0.0
 40
0.4867340659
 40
1.0
 40
1.0
 40
1.0
 40
1.0
 10
51.655004319
 20
124.6301395082
 30
0.0
 10
51.7408182343
 20
124.6797298765
 30
0.0
 10
51.9336380699
 20
124.7550256426
 30
0.0
 10
52.1390731955
 20
124.7730943953
 30
0.0
 10
52.2435474824
 20
124.7701835851
 30
0.0
  0
SPLINE
  5
56A
100
AcDbEntity
  8
0
100
AcDbSpline
 62
7
  6
CONTINUOUS
 70
0
 71
3
 72
10
 73
6
 74
0
 42
0.0000001
 43
0.0000001
 44
0.0000000001
 40
0.0
 40
0.0
 40
0.0
 40
0.0
 40
0.5196019715
 40
0.7710642892
 40
1.0
 40
1.0
 40
1.0
 40
1.0
 10
54.0662149427
 20
123.7179838593
 30
0.0
 10
54.4348103519
 20
123.3026718944
 30
0.0
 10
54.8798458742
 20
122.5854768395
 30
0.0
 10
55.2108698085
 20
121.566292734
 30
0.0
 10
55.2762998691
 20
121.0520432161
 30
0.0
 10
55.2762998691
 20
120.8073835739
 30
0.0
  0
SPLINE
  5
56B
100
AcDbEntity
  8
0
100
AcDbSpline
 62
7
  6
CONTINUOUS
 70
0
 71
3
 72
11
 73
7
 74
0
 42
0.0000001
 43
0.0000001
 44
0.0000000001
 40
0.0
 40
0.0
 40
0.0
 40
0.0
 40
0.2883706635
 40
0.5476909982
 40
0.7814635272
 40
1.0
 40
1.0
 40
1.0
 40
1.0
 10
111.0670253945
 20
65.0181462353
 30
0.0
 10
111.1769092879
 20
65.0838021279
 30
0.0
 10
111.3762981458
 20
65.2256596327
 30
0.0
 10
111.6140514963
 20
65.4823713163
 30
0.0
 10
111.7643122256
 20
65.7649836854
 30
0.0
 10
111.7993680806
 20
65.9670501408
 30
0.0
 10
111.7994081326
 20
66.0640560614
 30
0.0
  0
SPLINE
  5
56C
100
AcDbEntity
  8
0
100
AcDbSpline
 62
7
  6
CONTINUOUS
 70
0
 71
3
 72
11
 73
7
 74
0
 42
0.0000001
 43
0.0000001
 44
0.0000000001
 40
0.0
 40
0.0
 40
0.0
 40
0.0
 40
0.2896413964
 40
0.5491107671
 40
0.7822355978
 40
1.0
 40
1.0
 40
1.0
 40
1.0
 10
94.7330225323
 20
67.4087088293
 30
0.0
 10
94.7330225323
 20
67.2567371816
 30
0.0
 10
94.7099227856
 20
66.9676511362
 30
0.0
 10
94.5929186616
 20
66.5704562011
 30
0.0
 10
94.3958256505
 20
66.2480760269
 30
0.0
 10
94.2105877539
 20
66.0925662051
 30
0.0
 10
94.1116597314
 20
66.0353974222
 30
0.0
  0
SPLINE
  5
56D
100
AcDbEntity
  8
0
100
AcDbSpline
 62
7
  6
CONTINUOUS
 70
0
 71
3
 72
11
 73
7
 74
0
 42
0.0000001
 43
0.0000001
 44
0.0000000001
 40
0.0
 40
0.0
 40
0.0
 40
0.0
 40
0.2896413964
 40
0.5491107671
 40
0.7822355978
 40
1.0
 40
1.0
 40
1.0
 40
1.0
 10
55.2762998691
 20
90.1885429315
 30
0.0
 10
55.2762998691
 20
90.0365712838
 30
0.0
 10
55.2532001224
 20
89.7474852385
 30
0.0
 10
55.1361959984
 20
89.3502903033
 30
0.0
 10
54.9391029873
 20
89.0279101291
 30
0.0
 10
54.7538650907
 20
88.8724003073
 30
0.0
 10
54.6549370682
 20
88.8152315245
 30
0.0
  0
SPLINE
  5
56E
100
AcDbEntity
  8
0
100
AcDbSpline
 62
7
  6
CONTINUOUS
 70
0
 71
3
 72
11
 73
7
 74
0
 42
0.0000001
 43
0.0000001
 44
0.0000000001
 40
0.0
 40
0.0
 40
0.0
 40
0.0
 40
0.2896413964
 40
0.5491107671
 40
0.7822355978
 40
1.0
 40
1.0
 40
1.0
 40
1.0
 10
42.1240589813
 20
97.7818209656
 30
0.0
 10
42.1240589813
 20
97.6298493179
 30
0.0
 10
42.1009592347
 20
97.3407632725
 30
0.0
 10
41.9839551107
 20
96.9435683374
 30
0.0
 10
41.7868620996
 20
96.6211881632
 30
0.0
 10
41.601624203
 20
96.4656783414
 30
0.0
 10
41.5026961805
 20
96.4085095585
 30
0.0
  0
SPLINE
  5
56F
100
AcDbEntity
  8
0
100
AcDbSpline
 62
7
  6
CONTINUOUS
 70
0
 71
3
 72
11
 73
7
 74
0
 42
0.0000001
 43
0.0000001
 44
0.0000000001
 40
0.0
 40
0.0
 40
0.0
 40
0.0
 40
0.2896413964
 40
0.5491107671
 40
0.7822355978
 40
1.0
 40
1.0
 40
1.0
 40
1.0
 10
48.7001794252
 20
93.9851819486
 30
0.0
 10
48.7001794252
 20
93.8332103009
 30
0.0
 10
48.6770796785
 20
93.5441242555
 30
0.0
 10
48.5600755546
 20
93.1469293204
 30
0.0
 10
48.3629825434
 20
92.8245491462
 30
0.0
 10
48.1777446468
 20
92.6690393243
 30
0.0
 10
48.0788166243
 20
92.6118705415
 30
0.0
  0
SPLINE
  5
570
100
AcDbEntity
  8
0
100
AcDbSpline
 62
7
  6
CONTINUOUS
 70
0
 71
3
 72
11
 73
7
 74
0
 42
0.0000001
 43
0.0000001
 44
0.0000000001
 40
0.0
 40
0.0
 40
0.0
 40
0.0
 40
0.2896413964
 40
0.5491107671
 40
0.7822355978
 40
1.0
 40
1.0
 40
1.0
 40
1.0
 10
61.8524203129
 20
86.3919039145
 30
0.0
 10
61.8524203129
 20
86.2399322668
 30
0.0
 10
61.8293205663
 20
85.9508462214
 30
0.0
 10
61.7123164423
 20
85.5536512863
 30
0.0
 10
61.5152234312
 20
85.2312711121
 30
0.0
 10
61.3299855346
 20
85.0757612903
 30
0.0
 10
61.2310575121
 20
85.0185925074
 30
0.0
  0
SPLINE
  5
571
100
AcDbEntity
  8
0
100
AcDbSpline
 62
7
  6
CONTINUOUS
 70
0
 71
3
 72
11
 73
7
 74
0
 42
0.0000001
 43
0.0000001
 44
0.0000000001
 40
0.0
 40
0.0
 40
0.0
 40
0.0
 40
0.2896413964
 40
0.5491107671
 40
0.7822355978
 40
1.0
 40
1.0
 40
1.0
 40
1.0
 10
68.4285407568
 20
82.5952648974
 30
0.0
 10
68.4285407568
 20
82.4432932497
 30
0.0
 10
68.4054410101
 20
82.1542072044
 30
0.0
 10
68.2884368862
 20
81.7570122693
 30
0.0
 10
68.091343875
 20
81.4346320951
 30
0.0
 10
67.9061059784
 20
81.2791222732
 30
0.0
 10
67.8071779559
 20
81.2219534904
 30
0.0
  0
SPLINE
  5
572
100
AcDbEntity
  8
0
100
AcDbSpline
 62
7
  6
CONTINUOUS
 70
0
 71
3
 72
11
 73
7
 74
0
 42
0.0000001
 43
0.0000001
 44
0.0000000001
 40
0.0
 40
0.0
 40
0.0
 40
0.0
 40
0.2896413964
 40
0.5491107671
 40
0.7822355978
 40
1.0
 40
1.0
 40
1.0
 40
1.0
 10
75.0046612007
 20
78.7986258804
 30
0.0
 10
75.0046612007
 20
78.6466542327
 30
0.0
 10
74.981561454
 20
78.3575681873
 30
0.0
 10
74.86455733
 20
77.9603732522
 30
0.0
 10
74.6674643189
 20
77.637993078
 30
0.0
 10
74.4822264223
 20
77.4824832562
 30
0.0
 10
74.3832983998
 20
77.4253144733
 30
0.0
  0
SPLINE
  5
573
100
AcDbEntity
  8
0
100
AcDbSpline
 62
7
  6
CONTINUOUS
 70
0
 71
3
 72
11
 73
7
 74
0
 42
0.0000001
 43
0.0000001
 44
0.0000000001
 40
0.0
 40
0.0
 40
0.0
 40
0.0
 40
0.2896413964
 40
0.5491107671
 40
0.7822355978
 40
1.0
 40
1.0
 40
1.0
 40
1.0
 10
81.5807816445
 20
75.0019868634
 30
0.0
 10
81.5807816445
 20
74.8500152157
 30
0.0
 10
81.5576818979
 20
74.5609291703
 30
0.0
 10
81.4406777739
 20
74.1637342352
 30
0.0
 10
81.2435847628
 20
73.841354061
 30
0.0
 10
81.0583468662
 20
73.6858442392
 30
0.0
 10
80.9594188437
 20
73.6286754563
 30
0.0
  0
SPLINE
  5
574
100
AcDbEntity
  8
0
100
AcDbSpline
 62
7
  6
CONTINUOUS
 70
0
 71
3
 72
11
 73
7
 74
0
 42
0.0000001
 43
0.0000001
 44
0.0000000001
 40
0.0
 40
0.0
 40
0.0
 40
0.0
 40
0.2896413964
 40
0.5491107671
 40
0.7822355978
 40
1.0
 40
1.0
 40
1.0
 40
1.0
 10
88.1569020884
 20
71.2053478463
 30
0.0
 10
88.1569020884
 20
71.0533761986
 30
0.0
 10
88.1338023417
 20
70.7642901533
 30
0.0
 10
88.0167982178
 20
70.3670952181
 30
0.0
 10
87.8197052066
 20
70.0447150439
 30
0.0
 10
87.63446731
 20
69.8892052221
 30
0.0
 10
87.5355392875
 20
69.8320364393
 30
0.0
  0
SPLINE
  5
575
100
AcDbEntity
  8
0
100
AcDbSpline
 62
7
  6
CONTINUOUS
 70
0
 71
3
 72
11
 73
7
 74
0
 42
0.0000001
 43
0.0000001
 44
0.0000000001
 40
0.0
 40
0.0
 40
0.0
 40
0.0
 40
0.2549090989
 40
0.5176258454
 40
0.7710429412
 40
1.0
 40
1.0
 40
1.0
 40
1.0
 10
42.1014648399
 20
98.6714203356
 30
0.0
 10
41.8832487898
 20
98.8796248364
 30
0.0
 10
41.4833890738
 20
99.3491347631
 30
0.0
 10
41.019390291
 20
100.1396882528
 30
0.0
 10
40.7107536133
 20
100.9702441614
 30
0.0
 10
40.6214974454
 20
101.5402598495
 30
0.0
 10
40.617366827
 20
101.8111299079
 30
0.0
  0
SPLINE
  5
576
100
AcDbEntity
  8
0
100
AcDbSpline
 62
7
  6
CONTINUOUS
 70
0
 71
3
 72
16
 73
12
 74
0
 42
0.0000001
 43
0.0000001
 44
0.0000000001
 40
0.0
 40
0.0
 40
0.0
 40
0.0
 40
0.0428765743
 40
0.0875234667
 40
0.186928609
 40
0.3042403422
 40
0.4379658104
 40
0.582370771
 40
0.729593422
 40
0.8712541043
 40
1.0
 40
1.0
 40
1.0
 40
1.0
 10
41.5026961805
 20
96.4085095585
 30
0.0
 10
41.4287558707
 20
96.3657807401
 30
0.0
 10
41.26571024
 20
96.2980491285
 30
0.0
 10
40.8941331075
 20
96.2435530467
 30
0.0
 10
40.369540924
 20
96.3459889995
 30
0.0
 10
39.7515761438
 20
96.684939069
 30
0.0
 10
39.1575644448
 20
97.2103396194
 30
0.0
 10
38.6335787646
 20
97.8813233533
 30
0.0
 10
38.220883329
 20
98.6439653993
 30
0.0
 10
37.9531485517
 20
99.4356467989
 30
0.0
 10
37.8814006305
 20
99.9748382995
 30
0.0
 10
37.8814006305
 20
100.2312654927
 30
0.0
  0
SPLINE
  5
577
100
AcDbEntity
  8
0
100
AcDbSpline
 62
7
  6
CONTINUOUS
 70
0
 71
3
 72
11
 73
7
 74
0
 42
0.0000001
 43
0.0000001
 44
0.0000000001
 40
0.0
 40
0.0
 40
0.0
 40
0.0
 40
0.2549090989
 40
0.5176258454
 40
0.7710429412
 40
1.0
 40
1.0
 40
1.0
 40
1.0
 10
48.6775852838
 20
94.8747813186
 30
0.0
 10
48.4593692336
 20
95.0829858193
 30
0.0
 10
48.0595095177
 20
95.552495746
 30
0.0
 10
47.5955107349
 20
96.3430492357
 30
0.0
 10
47.2868740572
 20
97.1736051443
 30
0.0
 10
47.1976178893
 20
97.7436208324
 30
0.0
 10
47.1934872708
 20
98.0144908908
 30
0.0
  0
SPLINE
  5
578
100
AcDbEntity
  8
0
100
AcDbSpline
 62
7
  6
CONTINUOUS
 70
0
 71
3
 72
16
 73
12
 74
0
 42
0.0000001
 43
0.0000001
 44
0.0000000001
 40
0.0
 40
0.0
 40
0.0
 40
0.0
 40
0.0428765743
 40
0.0875234667
 40
0.186928609
 40
0.3042403422
 40
0.4379658104
 40
0.582370771
 40
0.729593422
 40
0.8712541043
 40
1.0
 40
1.0
 40
1.0
 40
1.0
 10
48.0788166243
 20
92.6118705415
 30
0.0
 10
48.0048763145
 20
92.569141723
 30
0.0
 10
47.8418306838
 20
92.5014101114
 30
0.0
 10
47.4702535514
 20
92.4469140297
 30
0.0
 10
46.9456613679
 20
92.5493499825
 30
0.0
 10
46.3276965876
 20
92.888300052
 30
0.0
 10
45.7336848886
 20
93.4137006023
 30
0.0
 10
45.2096992084
 20
94.0846843362
 30
0.0
 10
44.7970037729
 20
94.8473263823
 30
0.0
 10
44.5292689956
 20
95.6390077819
 30
0.0
 10
44.4575210743
 20
96.1781992824
 30
0.0
 10
44.4575210743
 20
96.4346264757
 30
0.0
  0
SPLINE
  5
579
100
AcDbEntity
  8
0
100
AcDbSpline
 62
7
  6
CONTINUOUS
 70
0
 71
3
 72
11
 73
7
 74
0
 42
0.0000001
 43
0.0000001
 44
0.0000000001
 40
0.0
 40
0.0
 40
0.0
 40
0.0
 40
0.2549090989
 40
0.5176258454
 40
0.7710429412
 40
1.0
 40
1.0
 40
1.0
 40
1.0
 10
61.8298261715
 20
87.2815032845
 30
0.0
 10
61.6116101214
 20
87.4897077853
 30
0.0
 10
61.2117504054
 20
87.959217712
 30
0.0
 10
60.7477516226
 20
88.7497712017
 30
0.0
 10
60.4391149449
 20
89.5803271103
 30
0.0
 10
60.349858777
 20
90.1503427984
 30
0.0
 10
60.3457281586
 20
90.4212128568
 30
0.0
  0
SPLINE
  5
57A
100
AcDbEntity
  8
0
100
AcDbSpline
 62
7
  6
CONTINUOUS
 70
0
 71
3
 72
16
 73
12
 74
0
 42
0.0000001
 43
0.0000001
 44
0.0000000001
 40
0.0
 40
0.0
 40
0.0
 40
0.0
 40
0.0428765743
 40
0.0875234667
 40
0.186928609
 40
0.3042403422
 40
0.4379658104
 40
0.582370771
 40
0.729593422
 40
0.8712541043
 40
1.0
 40
1.0
 40
1.0
 40
1.0
 10
61.2310575121
 20
85.0185925074
 30
0.0
 10
61.1571172023
 20
84.975863689
 30
0.0
 10
60.9940715716
 20
84.9081320774
 30
0.0
 10
60.6224944391
 20
84.8536359956
 30
0.0
 10
60.0979022556
 20
84.9560719484
 30
0.0
 10
59.4799374754
 20
85.2950220179
 30
0.0
 10
58.8859257764
 20
85.8204225683
 30
0.0
 10
58.3619400962
 20
86.4914063021
 30
0.0
 10
57.9492446606
 20
87.2540483482
 30
0.0
 10
57.6815098833
 20
88.0457297478
 30
0.0
 10
57.6097619621
 20
88.5849212483
 30
0.0
 10
57.6097619621
 20
88.8413484416
 30
0.0
  0
SPLINE
  5
57B
100
AcDbEntity
  8
0
100
AcDbSpline
 62
7
  6
CONTINUOUS
 70
0
 71
3
 72
11
 73
7
 74
0
 42
0.0000001
 43
0.0000001
 44
0.0000000001
 40
0.0
 40
0.0
 40
0.0
 40
0.0
 40
0.2549090989
 40
0.5176258454
 40
0.7710429412
 40
1.0
 40
1.0
 40
1.0
 40
1.0
 10
68.4059466154
 20
83.4848642674
 30
0.0
 10
68.1877305652
 20
83.6930687683
 30
0.0
 10
67.7878708491
 20
84.1625786951
 30
0.0
 10
67.3238720663
 20
84.953132185
 30
0.0
 10
67.0152353885
 20
85.7836880938
 30
0.0
 10
66.9259792208
 20
86.353703782
 30
0.0
 10
66.9218486024
 20
86.6245738404
 30
0.0
  0
SPLINE
  5
57C
100
AcDbEntity
  8
0
100
AcDbSpline
 62
7
  6
CONTINUOUS
 70
0
 71
3
 72
16
 73
12
 74
0
 42
0.0000001
 43
0.0000001
 44
0.0000000001
 40
0.0
 40
0.0
 40
0.0
 40
0.0
 40
0.0428765743
 40
0.0875234667
 40
0.186928609
 40
0.3042403422
 40
0.4379658104
 40
0.582370771
 40
0.729593422
 40
0.8712541043
 40
1.0
 40
1.0
 40
1.0
 40
1.0
 10
67.8071779559
 20
81.2219534904
 30
0.0
 10
67.7332376461
 20
81.1792246719
 30
0.0
 10
67.5701920154
 20
81.1114930603
 30
0.0
 10
67.198614883
 20
81.0569969786
 30
0.0
 10
66.6740226995
 20
81.1594329314
 30
0.0
 10
66.0560579192
 20
81.4983830009
 30
0.0
 10
65.4620462202
 20
82.0237835512
 30
0.0
 10
64.93806054
 20
82.6947672851
 30
0.0
 10
64.5253651045
 20
83.4574093312
 30
0.0
 10
64.2576303272
 20
84.2490907308
 30
0.0
 10
64.1858824059
 20
84.7882822313
 30
0.0
 10
64.1858824059
 20
85.0447094246
 30
0.0
  0
SPLINE
  5
57D
100
AcDbEntity
  8
0
100
AcDbSpline
 62
7
  6
CONTINUOUS
 70
0
 71
3
 72
11
 73
7
 74
0
 42
0.0000001
 43
0.0000001
 44
0.0000000001
 40
0.0
 40
0.0
 40
0.0
 40
0.0
 40
0.2549090989
 40
0.5176258454
 40
0.7710429412
 40
1.0
 40
1.0
 40
1.0
 40
1.0
 10
74.9820670592
 20
79.6882252504
 30
0.0
 10
74.7638510091
 20
79.8964297512
 30
0.0
 10
74.3639912931
 20
80.3659396779
 30
0.0
 10
73.8999925103
 20
81.1564931676
 30
0.0
 10
73.5913558326
 20
81.9870490762
 30
0.0
 10
73.5020996647
 20
82.5570647644
 30
0.0
 10
73.4979690463
 20
82.8279348228
 30
0.0
  0
SPLINE
  5
57E
100
AcDbEntity
  8
0
100
AcDbSpline
 62
7
  6
CONTINUOUS
 70
0
 71
3
 72
16
 73
12
 74
0
 42
0.0000001
 43
0.0000001
 44
0.0000000001
 40
0.0
 40
0.0
 40
0.0
 40
0.0
 40
0.0428765743
 40
0.0875234667
 40
0.186928609
 40
0.3042403422
 40
0.4379658104
 40
0.582370771
 40
0.729593422
 40
0.8712541043
 40
1.0
 40
1.0
 40
1.0
 40
1.0
 10
74.3832983998
 20
77.4253144733
 30
0.0
 10
74.30935809
 20
77.3825856549
 30
0.0
 10
74.1463124593
 20
77.3148540433
 30
0.0
 10
73.7747353268
 20
77.2603579615
 30
0.0
 10
73.2501431433
 20
77.3627939143
 30
0.0
 10
72.6321783631
 20
77.7017439838
 30
0.0
 10
72.0381666641
 20
78.2271445342
 30
0.0
 10
71.5141809839
 20
78.8981282681
 30
0.0
 10
71.1014855483
 20
79.6607703141
 30
0.0
 10
70.8337507711
 20
80.4524517137
 30
0.0
 10
70.7620028498
 20
80.9916432143
 30
0.0
 10
70.7620028498
 20
81.2480704075
 30
0.0
  0
SPLINE
  5
57F
100
AcDbEntity
  8
0
100
AcDbSpline
 62
7
  6
CONTINUOUS
 70
0
 71
3
 72
11
 73
7
 74
0
 42
0.0000001
 43
0.0000001
 44
0.0000000001
 40
0.0
 40
0.0
 40
0.0
 40
0.0
 40
0.2549090989
 40
0.5176258454
 40
0.7710429412
 40
1.0
 40
1.0
 40
1.0
 40
1.0
 10
81.5581875031
 20
75.8915862334
 30
0.0
 10
81.3399714529
 20
76.0997907342
 30
0.0
 10
80.940111737
 20
76.5693006609
 30
0.0
 10
80.4761129541
 20
77.3598541506
 30
0.0
 10
80.1674762764
 20
78.1904100593
 30
0.0
 10
80.0782201086
 20
78.7604257474
 30
0.0
 10
80.0740894902
 20
79.0312958058
 30
0.0
  0
SPLINE
  5
580
100
AcDbEntity
  8
0
100
AcDbSpline
 62
7
  6
CONTINUOUS
 70
0
 71
3
 72
16
 73
12
 74
0
 42
0.0000001
 43
0.0000001
 44
0.0000000001
 40
0.0
 40
0.0
 40
0.0
 40
0.0
 40
0.0428765743
 40
0.0875234667
 40
0.186928609
 40
0.3042403422
 40
0.4379658104
 40
0.582370771
 40
0.729593422
 40
0.8712541043
 40
1.0
 40
1.0
 40
1.0
 40
1.0
 10
80.9594188437
 20
73.6286754563
 30
0.0
 10
80.8854785339
 20
73.5859466378
 30
0.0
 10
80.7224329032
 20
73.5182150262
 30
0.0
 10
80.3508557707
 20
73.4637189445
 30
0.0
 10
79.8262635872
 20
73.5661548973
 30
0.0
 10
79.208298807
 20
73.9051049668
 30
0.0
 10
78.614287108
 20
74.4305055171
 30
0.0
 10
78.0903014278
 20
75.101489251
 30
0.0
 10
77.6776059922
 20
75.8641312971
 30
0.0
 10
77.4098712149
 20
76.6558126967
 30
0.0
 10
77.3381232937
 20
77.1950041972
 30
0.0
 10
77.3381232937
 20
77.4514313905
 30
0.0
  0
SPLINE
  5
581
100
AcDbEntity
  8
0
100
AcDbSpline
 62
7
  6
CONTINUOUS
 70
0
 71
3
 72
11
 73
7
 74
0
 42
0.0000001
 43
0.0000001
 44
0.0000000001
 40
0.0
 40
0.0
 40
0.0
 40
0.0
 40
0.2549090989
 40
0.5176258454
 40
0.7710429412
 40
1.0
 40
1.0
 40
1.0
 40
1.0
 10
88.134307947
 20
72.0949472163
 30
0.0
 10
87.9160918969
 20
72.303151717
 30
0.0
 10
87.516232181
 20
72.7726616436
 30
0.0
 10
87.0522333983
 20
73.563215133
 30
0.0
 10
86.7435967206
 20
74.3937710414
 30
0.0
 10
86.6543405525
 20
74.9637867294
 30
0.0
 10
86.650209934
 20
75.2346567878
 30
0.0
  0
SPLINE
  5
582
100
AcDbEntity
  8
0
100
AcDbSpline
 62
7
  6
CONTINUOUS
 70
0
 71
3
 72
16
 73
12
 74
0
 42
0.0000001
 43
0.0000001
 44
0.0000000001
 40
0.0
 40
0.0
 40
0.0
 40
0.0
 40
0.0428765743
 40
0.0875234667
 40
0.186928609
 40
0.3042403422
 40
0.4379658104
 40
0.582370771
 40
0.729593422
 40
0.8712541043
 40
1.0
 40
1.0
 40
1.0
 40
1.0
 10
87.5355392875
 20
69.8320364393
 30
0.0
 10
87.4615989777
 20
69.7893076208
 30
0.0
 10
87.298553347
 20
69.7215760092
 30
0.0
 10
86.9269762146
 20
69.6670799275
 30
0.0
 10
86.4023840311
 20
69.7695158802
 30
0.0
 10
85.7844192508
 20
70.1084659497
 30
0.0
 10
85.1904075518
 20
70.6338665001
 30
0.0
 10
84.6664218716
 20
71.304850234
 30
0.0
 10
84.2537264361
 20
72.0674922801
 30
0.0
 10
83.9859916588
 20
72.8591736796
 30
0.0
 10
83.9142437375
 20
73.3983651802
 30
0.0
 10
83.9142437375
 20
73.6547923734
 30
0.0
  0
SPLINE
  5
583
100
AcDbEntity
  8
0
100
AcDbSpline
 62
7
  6
CONTINUOUS
 70
0
 71
3
 72
15
 73
11
 74
0
 42
0.0000001
 43
0.0000001
 44
0.0000000001
 40
0.0
 40
0.0
 40
0.0
 40
0.0
 40
0.0878987667
 40
0.1876447603
 40
0.3047744083
 40
0.4380621855
 40
0.5820179508
 40
0.7289792457
 40
0.8707204844
 40
1.0
 40
1.0
 40
1.0
 40
1.0
 10
111.7994081326
 20
66.0640560614
 30
0.0
 10
111.7994685001
 20
66.2102660298
 30
0.0
 10
111.7133890522
 20
66.5254874707
 30
0.0
 10
111.3733511819
 20
66.9167414697
 30
0.0
 10
110.8706015713
 20
67.2234976587
 30
0.0
 10
110.2432620223
 20
67.4304363516
 30
0.0
 10
109.5401940411
 20
67.523720015
 30
0.0
 10
108.8174719502
 20
67.4959375334
 30
0.0
 10
108.1342893208
 20
67.3497398183
 30
0.0
 10
107.7160778927
 20
67.1696496269
 30
0.0
 10
107.5314775227
 20
67.0593504584
 30
0.0
  0
SPLINE
  5
584
100
AcDbEntity
  8
0
100
AcDbSpline
 62
7
  6
CONTINUOUS
 70
0
 71
3
 72
11
 73
7
 74
0
 42
0.0000001
 43
0.0000001
 44
0.0000000001
 40
0.0
 40
0.0
 40
0.0
 40
0.0
 40
0.2383145901
 40
0.4989443215
 40
0.7601420038
 40
1.0
 40
1.0
 40
1.0
 40
1.0
 10
110.0012952147
 20
70.3259995067
 30
0.0
 10
109.6370121848
 20
70.514955204
 30
0.0
 10
108.8101979033
 20
70.7892174139
 30
0.0
 10
107.4980120204
 20
70.9119009234
 30
0.0
 10
106.1858390489
 20
70.7626182432
 30
0.0
 10
105.3611491346
 20
70.4719310781
 30
0.0
 10
104.997375173
 20
70.2763211004
 30
0.0
  0
SPLINE
  5
585
100
AcDbEntity
  8
0
100
AcDbSpline
 62
7
  6
CONTINUOUS
 70
0
 71
3
 72
11
 73
7
 74
0
 42
0.0000001
 43
0.0000001
 44
0.0000000001
 40
0.0
 40
0.0
 40
0.0
 40
0.0
 40
0.2413675094
 40
0.4995300931
 40
0.7579253329
 40
1.0
 40
1.0
 40
1.0
 40
1.0
 10
109.0943358035
 20
108.4710743511
 30
0.0
 10
108.7158394299
 20
108.632960826
 30
0.0
 10
107.8900304565
 20
108.8717974408
 30
0.0
 10
106.5961522047
 20
108.9899613327
 30
0.0
 10
105.3005491377
 20
108.8777195788
 30
0.0
 10
104.4719533188
 20
108.6432993652
 30
0.0
 10
104.0911548002
 20
108.4837572559
 30
0.0
  0
SPLINE
  5
586
100
AcDbEntity
  8
0
100
AcDbSpline
 62
7
  6
CONTINUOUS
 70
0
 71
3
 72
9
 73
5
 74
0
 42
0.0000001
 43
0.0000001
 44
0.0000000001
 40
0.0
 40
0.0
 40
0.0
 40
0.0
 40
0.2545931454
 40
1.0
 40
1.0
 40
1.0
 40
1.0
 10
104.0911548002
 20
108.4837572559
 30
0.0
 10
104.0611400678
 20
108.4711820659
 30
0.0
 10
103.943734008
 20
108.4206388442
 30
0.0
 10
103.8283190745
 20
108.3654379341
 30
0.0
 10
103.7437765727
 20
108.3214980324
 30
0.0
  0
SPLINE
  5
587
100
AcDbEntity
  8
0
100
AcDbSpline
 62
7
  6
CONTINUOUS
 70
0
 71
3
 72
11
 73
7
 74
0
 42
0.0000001
 43
0.0000001
 44
0.0000000001
 40
0.0
 40
0.0
 40
0.0
 40
0.0
 40
0.2896413964
 40
0.5491107671
 40
0.7822355978
 40
1.0
 40
1.0
 40
1.0
 40
1.0
 10
90.4903641814
 20
100.4769939988
 30
0.0
 10
90.4903641814
 20
100.6289656465
 30
0.0
 10
90.513463928
 20
100.9180516918
 30
0.0
 10
90.630468052
 20
101.3152466269
 30
0.0
 10
90.8275610632
 20
101.6376268011
 30
0.0
 10
91.0127989597
 20
101.793136623
 30
0.0
 10
91.1117269823
 20
101.8503054058
 30
0.0
  0
SPLINE
  5
588
100
AcDbEntity
  8
0
100
AcDbSpline
 62
7
  6
CONTINUOUS
 70
0
 71
3
 72
11
 73
7
 74
0
 42
0.0000001
 43
0.0000001
 44
0.0000000001
 40
0.0
 40
0.0
 40
0.0
 40
0.0
 40
0.2896413971
 40
0.5491107672
 40
0.7822355979
 40
1.0
 40
1.0
 40
1.0
 40
1.0
 10
51.0336415182
 20
123.256828101
 30
0.0
 10
51.0336415136
 20
123.4087997491
 30
0.0
 10
51.0567412617
 20
123.6978857954
 30
0.0
 10
51.1737453912
 20
124.0950807283
 30
0.0
 10
51.3708383994
 20
124.4174609037
 30
0.0
 10
51.5560762964
 20
124.5729707254
 30
0.0
 10
51.655004319
 20
124.6301395082
 30
0.0
  0
SPLINE
  5
589
100
AcDbEntity
  8
0
100
AcDbSpline
 62
7
  6
CONTINUOUS
 70
0
 71
3
 72
11
 73
7
 74
0
 42
0.0000001
 43
0.0000001
 44
0.0000000001
 40
0.0
 40
0.0
 40
0.0
 40
0.0
 40
0.2549090989
 40
0.5176258454
 40
0.7710429412
 40
1.0
 40
1.0
 40
1.0
 40
1.0
 10
94.7104283908
 20
68.2983081993
 30
0.0
 10
94.4922123407
 20
68.5065127001
 30
0.0
 10
94.0923526247
 20
68.9760226269
 30
0.0
 10
93.6283538418
 20
69.7665761167
 30
0.0
 10
93.3197171641
 20
70.5971320254
 30
0.0
 10
93.2304609963
 20
71.1671477135
 30
0.0
 10
93.2263303779
 20
71.438017772
 30
0.0
  0
SPLINE
  5
58A
100
AcDbEntity
  8
0
100
AcDbSpline
 62
7
  6
CONTINUOUS
 70
0
 71
3
 72
16
 73
12
 74
0
 42
0.0000001
 43
0.0000001
 44
0.0000000001
 40
0.0
 40
0.0
 40
0.0
 40
0.0
 40
0.0428765743
 40
0.0875234667
 40
0.186928609
 40
0.3042403422
 40
0.4379658104
 40
0.582370771
 40
0.729593422
 40
0.8712541043
 40
1.0
 40
1.0
 40
1.0
 40
1.0
 10
94.1116597314
 20
66.0353974222
 30
0.0
 10
94.0377194216
 20
65.9926686038
 30
0.0
 10
93.8746737909
 20
65.9249369922
 30
0.0
 10
93.5030966584
 20
65.8704409104
 30
0.0
 10
92.9785044749
 20
65.9728768632
 30
0.0
 10
92.3605396947
 20
66.3118269327
 30
0.0
 10
91.7665279957
 20
66.8372274831
 30
0.0
 10
91.2425423155
 20
67.508211217
 30
0.0
 10
90.82984688
 20
68.270853263
 30
0.0
 10
90.5621121027
 20
69.0625346626
 30
0.0
 10
90.4903641814
 20
69.6017261632
 30
0.0
 10
90.4903641814
 20
69.8581533564
 30
0.0
  0
SPLINE
  5
58B
100
AcDbEntity
  8
0
100
AcDbSpline
 62
7
  6
CONTINUOUS
 70
0
 71
3
 72
11
 73
7
 74
0
 42
0.0000001
 43
0.0000001
 44
0.0000000001
 40
0.0
 40
0.0
 40
0.0
 40
0.0
 40
0.2549090989
 40
0.5176258454
 40
0.7710429412
 40
1.0
 40
1.0
 40
1.0
 40
1.0
 10
55.2537057276
 20
91.0781423015
 30
0.0
 10
55.0354896775
 20
91.2863468023
 30
0.0
 10
54.6356299615
 20
91.755856729
 30
0.0
 10
54.1716311787
 20
92.5464102187
 30
0.0
 10
53.862994501
 20
93.3769661273
 30
0.0
 10
53.7737383331
 20
93.9469818154
 30
0.0
 10
53.7696077147
 20
94.2178518738
 30
0.0
  0
SPLINE
  5
58C
100
AcDbEntity
  8
0
100
AcDbSpline
 62
7
  6
CONTINUOUS
 70
0
 71
3
 72
16
 73
12
 74
0
 42
0.0000001
 43
0.0000001
 44
0.0000000001
 40
0.0
 40
0.0
 40
0.0
 40
0.0
 40
0.0428765743
 40
0.0875234667
 40
0.186928609
 40
0.3042403422
 40
0.4379658104
 40
0.582370771
 40
0.729593422
 40
0.8712541043
 40
1.0
 40
1.0
 40
1.0
 40
1.0
 10
54.6549370682
 20
88.8152315245
 30
0.0
 10
54.5809967584
 20
88.772502706
 30
0.0
 10
54.4179511277
 20
88.7047710944
 30
0.0
 10
54.0463739952
 20
88.6502750127
 30
0.0
 10
53.5217818117
 20
88.7527109654
 30
0.0
 10
52.9038170315
 20
89.0916610349
 30
0.0
 10
52.3098053325
 20
89.6170615853
 30
0.0
 10
51.7858196523
 20
90.2880453192
 30
0.0
 10
51.3731242167
 20
91.0506873653
 30
0.0
 10
51.1053894395
 20
91.8423687648
 30
0.0
 10
51.0336415182
 20
92.3815602654
 30
0.0
 10
51.0336415182
 20
92.6379874586
 30
0.0
  0
SPLINE
  5
58D
100
AcDbEntity
  8
0
100
AcDbSpline
 62
7
  6
CONTINUOUS
 70
0
 71
3
 72
12
 73
8
 74
0
 42
0.0000001
 43
0.0000001
 44
0.0000000001
 40
0.0
 40
0.0
 40
0.0
 40
0.0
 40
0.1165095166
 40
0.2408245428
 40
0.3707238378
 40
0.5033881356
 40
1.0
 40
1.0
 40
1.0
 40
1.0
 10
108.6155008095
 20
117.7164415249
 30
0.0
 10
108.4700209079
 20
117.7920407821
 30
0.0
 10
108.1549246936
 20
117.9206678101
 30
0.0
 10
107.6514349727
 20
118.0604221456
 30
0.0
 10
107.1116195021
 20
118.14307899
 30
0.0
 10
106.0460417975
 20
118.1928330204
 30
0.0
 10
105.1320056653
 20
118.0135554663
 30
0.0
 10
104.5119122168
 20
117.6913158402
 30
0.0
  0
SPLINE
  5
58E
100
AcDbEntity
  8
0
100
AcDbSpline
 62
7
  6
CONTINUOUS
 70
0
 71
3
 72
11
 73
7
 74
0
 42
0.0000001
 43
0.0000001
 44
0.0000000001
 40
0.0
 40
0.0
 40
0.0
 40
0.0
 40
0.2179484162
 40
0.452808313
 40
0.712800673
 40
1.0
 40
1.0
 40
1.0
 40
1.0
 10
49.902019004
 20
158.3848089799
 30
0.0
 10
49.8447261185
 20
158.3428751187
 30
0.0
 10
49.739303514
 20
158.2359515407
 30
0.0
 10
49.6280956562
 20
158.0293124771
 30
0.0
 10
49.5620281768
 20
157.7813820436
 30
0.0
 10
49.5487140393
 20
157.6026501238
 30
0.0
 10
49.5487140393
 20
157.5090913005
 30
0.0
  0
SPLINE
  5
58F
100
AcDbEntity
  8
0
100
AcDbSpline
 62
7
  6
CONTINUOUS
 70
0
 71
3
 72
9
 73
5
 74
0
 42
0.0000001
 43
0.0000001
 44
0.0000000001
 40
0.0
 40
0.0
 40
0.0
 40
0.0
 40
0.5074764369
 40
1.0
 40
1.0
 40
1.0
 40
1.0
 10
33.9923000861
 20
204.7243569566
 30
0.0
 10
48.0863191154
 20
215.135580338
 30
0.0
 10
76.3636643559
 20
234.9784985607
 30
0.0
 10
105.642164278
 20
253.3174107474
 30
0.0
 10
120.3038849396
 20
261.9337784006
 30
0.0
  0
SPLINE
  5
590
100
AcDbEntity
  8
0
100
AcDbSpline
 62
7
  6
CONTINUOUS
 70
0
 71
3
 72
9
 73
5
 74
0
 42
0.0000001
 43
0.0000001
 44
0.0000000001
 40
0.0
 40
0.0
 40
0.0
 40
0.0
 40
0.2511306602
 40
1.0
 40
1.0
 40
1.0
 40
1.0
 10
118.4905071716
 20
154.791156387
 30
0.0
 10
120.2059615848
 20
155.9937239541
 30
0.0
 10
127.049510488
 20
160.7642993143
 30
0.0
 10
133.9436429735
 20
165.4623336379
 30
0.0
 10
139.1346694858
 20
168.9381060224
 30
0.0
  0
SPLINE
  5
591
100
AcDbEntity
  8
0
100
AcDbSpline
 62
7
  6
CONTINUOUS
 70
0
 71
3
 72
9
 73
5
 74
0
 42
0.0000001
 43
0.0000001
 44
0.0000000001
 40
0.0
 40
0.0
 40
0.0
 40
0.0
 40
0.2517387957
 40
1.0
 40
1.0
 40
1.0
 40
1.0
 10
139.1346694858
 20
168.9381060224
 30
0.0
 10
141.6519564066
 20
170.6236139546
 30
0.0
 10
151.6780042814
 20
177.279476332
 30
0.0
 10
161.8101605785
 20
183.7756213441
 30
0.0
 10
169.4504591458
 20
188.5411729316
 30
0.0
  0
SPLINE
  5
592
100
AcDbEntity
  8
0
100
AcDbSpline
 62
7
  6
CONTINUOUS
 70
0
 71
3
 72
9
 73
5
 74
0
 42
0.0000001
 43
0.0000001
 44
0.0000000001
 40
0.0
 40
0.0
 40
0.0
 40
0.0
 40
0.2515605527
 40
1.0
 40
1.0
 40
1.0
 40
1.0
 10
169.4504591458
 20
188.5411729316
 30
0.0
 10
171.6212846374
 20
189.8952012823
 30
0.0
 10
180.2697070831
 20
195.2472054732
 30
0.0
 10
188.994237494
 20
200.4763006321
 30
0.0
 10
195.5661451225
 20
204.3171822016
 30
0.0
  0
SPLINE
  5
593
100
AcDbEntity
  8
0
100
AcDbSpline
 62
7
  6
CONTINUOUS
 70
0
 71
3
 72
9
 73
5
 74
0
 42
0.0000001
 43
0.0000001
 44
0.0000000001
 40
0.0
 40
0.0
 40
0.0
 40
0.0
 40
0.2511267641
 40
1.0
 40
1.0
 40
1.0
 40
1.0
 10
118.4945309424
 20
140.504439342
 30
0.0
 10
120.2060283071
 20
141.7060659485
 30
0.0
 10
127.0338783454
 20
146.4730642713
 30
0.0
 10
133.9121207799
 20
151.1679072484
 30
0.0
 10
139.09116976
 20
154.6415381535
 30
0.0
  0
SPLINE
  5
594
100
AcDbEntity
  8
0
100
AcDbSpline
 62
7
  6
CONTINUOUS
 70
0
 71
3
 72
9
 73
5
 74
0
 42
0.0000001
 43
0.0000001
 44
0.0000000001
 40
0.0
 40
0.0
 40
0.0
 40
0.0
 40
0.251553893
 40
1.0
 40
1.0
 40
1.0
 40
1.0
 10
169.5389583559
 20
174.361346237
 30
0.0
 10
171.7024193866
 20
175.7127886655
 30
0.0
 10
180.3216806073
 20
181.0548838552
 30
0.0
 10
189.0165931598
 20
186.2749928537
 30
0.0
 10
195.5661451224
 20
190.1097435123
 30
0.0
  0
SPLINE
  5
595
100
AcDbEntity
  8
0
100
AcDbSpline
 62
7
  6
CONTINUOUS
 70
0
 71
3
 72
9
 73
5
 74
0
 42
0.0000001
 43
0.0000001
 44
0.0000000001
 40
0.0
 40
0.0
 40
0.0
 40
0.0
 40
0.2511340935
 40
1.0
 40
1.0
 40
1.0
 40
1.0
 10
118.4931679678
 20
145.2669600523
 30
0.0
 10
120.2149233698
 20
146.4751673912
 30
0.0
 10
127.0835686126
 20
151.2680105209
 30
0.0
 10
134.0031968055
 20
155.9878128428
 30
0.0
 10
139.2135153644
 20
159.4795720675
 30
0.0
  0
SPLINE
  5
596
100
AcDbEntity
  8
0
100
AcDbSpline
 62
7
  6
CONTINUOUS
 70
0
 71
3
 72
9
 73
5
 74
0
 42
0.0000001
 43
0.0000001
 44
0.0000000001
 40
0.0
 40
0.0
 40
0.0
 40
0.0
 40
0.2517418388
 40
1.0
 40
1.0
 40
1.0
 40
1.0
 10
139.2135153644
 20
159.4795720675
 30
0.0
 10
141.7365355464
 20
161.1704051509
 30
0.0
 10
151.7853693664
 20
167.8471762977
 30
0.0
 10
161.9408434432
 20
174.3635689682
 30
0.0
 10
169.5988543874
 20
179.1438447453
 30
0.0
  0
SPLINE
  5
597
100
AcDbEntity
  8
0
100
AcDbSpline
 62
7
  6
CONTINUOUS
 70
0
 71
3
 72
9
 73
5
 74
0
 42
0.0000001
 43
0.0000001
 44
0.0000000001
 40
0.0
 40
0.0
 40
0.0
 40
0.0
 40
0.251550916
 40
1.0
 40
1.0
 40
1.0
 40
1.0
 10
169.5988543874
 20
179.1438447453
 30
0.0
 10
171.7573608802
 20
180.4912254657
 30
0.0
 10
180.35693501
 20
185.817365151
 30
0.0
 10
189.0317875398
 20
191.0220341766
 30
0.0
 10
195.5661451224
 20
194.8455574696
 30
0.0
  0
SPLINE
  5
598
100
AcDbEntity
  8
0
100
AcDbSpline
 62
7
  6
CONTINUOUS
 70
0
 71
3
 72
9
 73
5
 74
0
 42
0.0000001
 43
0.0000001
 44
0.0000000001
 40
0.0
 40
0.0
 40
0.0
 40
0.0
 40
0.2513384889
 40
1.0
 40
1.0
 40
1.0
 40
1.0
 10
145.7153245989
 20
178.0536010176
 30
0.0
 10
147.6716548224
 20
179.3429567912
 30
0.0
 10
155.4710123052
 20
184.4490326448
 30
0.0
 10
163.3333354028
 20
189.4589734279
 30
0.0
 10
169.2545613193
 20
193.1531490077
 30
0.0
  0
SPLINE
  5
599
100
AcDbEntity
  8
0
100
AcDbSpline
 62
7
  6
CONTINUOUS
 70
0
 71
3
 72
9
 73
5
 74
0
 42
0.0000001
 43
0.0000001
 44
0.0000000001
 40
0.0
 40
0.0
 40
0.0
 40
0.0
 40
0.2515517504
 40
1.0
 40
1.0
 40
1.0
 40
1.0
 10
169.2545613193
 20
193.1531490077
 30
0.0
 10
171.4416505416
 20
194.5176454329
 30
0.0
 10
180.1551112983
 20
199.9113266251
 30
0.0
 10
188.9450316935
 20
205.1815625971
 30
0.0
 10
195.5661451225
 20
209.052993008
 30
0.0
  0
SPLINE
  5
59A
100
AcDbEntity
  8
0
100
AcDbSpline
 62
7
  6
CONTINUOUS
 70
0
 71
3
 72
9
 73
5
 74
0
 42
0.0000001
 43
0.0000001
 44
0.0000000001
 40
0.0
 40
0.0
 40
0.0
 40
0.0
 40
0.2511353805
 40
1.0
 40
1.0
 40
1.0
 40
1.0
 10
118.4918268661
 20
150.0291975782
 30
0.0
 10
120.2148805352
 20
151.2377008576
 30
0.0
 10
127.0886758799
 20
156.0316661171
 30
0.0
 10
134.0135169343
 20
160.7524630078
 30
0.0
 10
139.2277646858
 20
164.2448848199
 30
0.0
  0
SPLINE
  5
59B
100
AcDbEntity
  8
0
100
AcDbSpline
 62
7
  6
CONTINUOUS
 70
0
 71
3
 72
9
 73
5
 74
0
 42
0.0000001
 43
0.0000001
 44
0.0000000001
 40
0.0
 40
0.0
 40
0.0
 40
0.0
 40
0.2517399124
 40
1.0
 40
1.0
 40
1.0
 40
1.0
 10
139.2277646858
 20
164.2448848199
 30
0.0
 10
141.7471727792
 20
165.9323450631
 30
0.0
 10
151.7816512305
 20
172.5958722566
 30
0.0
 10
161.9224340735
 20
179.0994369258
 30
0.0
 10
169.5692851633
 20
183.8703822103
 30
0.0
  0
SPLINE
  5
59C
100
AcDbEntity
  8
0
100
AcDbSpline
 62
7
  6
CONTINUOUS
 70
0
 71
3
 72
9
 73
5
 74
0
 42
0.0000001
 43
0.0000001
 44
0.0000000001
 40
0.0
 40
0.0
 40
0.0
 40
0.0
 40
0.2515531366
 40
1.0
 40
1.0
 40
1.0
 40
1.0
 10
169.5692851633
 20
183.8703822103
 30
0.0
 10
171.7302522077
 20
185.2186307127
 30
0.0
 10
180.3395699399
 20
190.5480968394
 30
0.0
 10
189.0243182352
 20
195.7557851475
 30
0.0
 10
195.5661451225
 20
199.5813703608
 30
0.0
  0
SPLINE
  5
59D
100
AcDbEntity
  8
0
100
AcDbSpline
 62
7
  6
CONTINUOUS
 70
0
 71
3
 72
11
 73
7
 74
0
 42
0.0000001
 43
0.0000001
 44
0.0000000001
 40
0.0
 40
0.0
 40
0.0
 40
0.0
 40
0.236150995
 40
0.4972508992
 40
0.7598638815
 40
1.0
 40
1.0
 40
1.0
 40
1.0
 10
130.5384206299
 20
258.9410953964
 30
0.0
 10
130.235348437
 20
258.7639338328
 30
0.0
 10
129.53217216
 20
258.50137167
 30
0.0
 10
128.4037090406
 20
258.3586142633
 30
0.0
 10
127.2642807117
 20
258.4574961796
 30
0.0
 10
126.5438789927
 20
258.6938759226
 30
0.0
 10
126.2272169247
 20
258.8586745818
 30
0.0
  0
SPLINE
  5
59E
100
AcDbEntity
  8
0
100
AcDbSpline
 62
7
  6
CONTINUOUS
 70
0
 71
3
 72
10
 73
6
 74
0
 42
0.0000001
 43
0.0000001
 44
0.0000000001
 40
0.0
 40
0.0
 40
0.0
 40
0.0
 40
0.2499577543
 40
0.624510997
 40
1.0
 40
1.0
 40
1.0
 40
1.0
 10
133.9961583938
 20
260.9477615987
 30
0.0
 10
133.7076875445
 20
260.7812138703
 30
0.0
 10
132.9887838894
 20
260.3619368416
 30
0.0
 10
131.832734718
 20
259.6990318852
 30
0.0
 10
130.9706393603
 20
259.1932236061
 30
0.0
 10
130.5384206298
 20
258.9410953964
 30
0.0
  0
SPLINE
  5
59F
100
AcDbEntity
  8
0
100
AcDbSpline
 62
7
  6
CONTINUOUS
 70
0
 71
3
 72
9
 73
5
 74
0
 42
0.0000001
 43
0.0000001
 44
0.0000000001
 40
0.0
 40
0.0
 40
0.0
 40
0.0
 40
0.5275248068
 40
1.0
 40
1.0
 40
1.0
 40
1.0
 10
46.6994320001
 20
156.0393064244
 30
0.0
 10
46.6873982718
 20
155.9962668315
 30
0.0
 10
46.6530797417
 20
155.9167160389
 30
0.0
 10
46.5892410028
 20
155.8564451023
 30
0.0
 10
46.5545768908
 20
155.8364318929
 30
0.0
  0
SPLINE
  5
5A0
100
AcDbEntity
  8
0
100
AcDbSpline
 62
7
  6
CONTINUOUS
 70
0
 71
3
 72
9
 73
5
 74
0
 42
0.0000001
 43
0.0000001
 44
0.0000000001
 40
0.0
 40
0.0
 40
0.0
 40
0.0
 40
0.5275248068
 40
1.0
 40
1.0
 40
1.0
 40
1.0
 10
54.4776389767
 20
151.5486581246
 30
0.0
 10
54.4656052484
 20
151.5056185318
 30
0.0
 10
54.4312867183
 20
151.4260677392
 30
0.0
 10
54.3674479794
 20
151.3657968026
 30
0.0
 10
54.3327838674
 20
151.3457835932
 30
0.0
  0
SPLINE
  5
5A1
100
AcDbEntity
  8
0
100
AcDbSpline
 62
7
  6
CONTINUOUS
 70
0
 71
3
 72
11
 73
7
 74
0
 42
0.0000001
 43
0.0000001
 44
0.0000000001
 40
0.0
 40
0.0
 40
0.0
 40
0.0
 40
0.2897033281
 40
0.5490895198
 40
0.7822165953
 40
1.0
 40
1.0
 40
1.0
 40
1.0
 10
61.9231342294
 20
145.629164077
 30
0.0
 10
61.9231342294
 20
145.502493716
 30
0.0
 10
61.903929139
 20
145.261593536
 30
0.0
 10
61.8063674563
 20
144.9306093127
 30
0.0
 10
61.6421059842
 20
144.6620343332
 30
0.0
 10
61.4878146034
 20
144.5323217734
 30
0.0
 10
61.4053480832
 20
144.4847100264
 30
0.0
  0
SPLINE
  5
5A2
100
AcDbEntity
  8
0
100
AcDbSpline
 62
7
  6
CONTINUOUS
 70
0
 71
3
 72
11
 73
7
 74
0
 42
0.0000001
 43
0.0000001
 44
0.0000000001
 40
0.0
 40
0.0
 40
0.0
 40
0.0
 40
0.2897033281
 40
0.5490895198
 40
0.7822165953
 40
1.0
 40
1.0
 40
1.0
 40
1.0
 10
69.701341206
 20
141.1385157773
 30
0.0
 10
69.701341206
 20
141.0118454163
 30
0.0
 10
69.6821361157
 20
140.7709452363
 30
0.0
 10
69.584574433
 20
140.439961013
 30
0.0
 10
69.4203129608
 20
140.1713860334
 30
0.0
 10
69.2660215801
 20
140.0416734737
 30
0.0
 10
69.1835550598
 20
139.9940617266
 30
0.0
  0
SPLINE
  5
5A3
100
AcDbEntity
  8
0
100
AcDbSpline
 62
7
  6
CONTINUOUS
 70
0
 71
3
 72
11
 73
7
 74
0
 42
0.0000001
 43
0.0000001
 44
0.0000000001
 40
0.0
 40
0.0
 40
0.0
 40
0.0
 40
0.2897033281
 40
0.5490895198
 40
0.7822165953
 40
1.0
 40
1.0
 40
1.0
 40
1.0
 10
77.4795481826
 20
136.6478674776
 30
0.0
 10
77.4795481826
 20
136.5211971166
 30
0.0
 10
77.4603430923
 20
136.2802969365
 30
0.0
 10
77.3627814096
 20
135.9493127133
 30
0.0
 10
77.1985199374
 20
135.6807377337
 30
0.0
 10
77.0442285567
 20
135.551025174
 30
0.0
 10
76.9617620364
 20
135.5034134269
 30
0.0
  0
SPLINE
  5
5A4
100
AcDbEntity
  8
0
100
AcDbSpline
 62
7
  6
CONTINUOUS
 70
0
 71
3
 72
11
 73
7
 74
0
 42
0.0000001
 43
0.0000001
 44
0.0000000001
 40
0.0
 40
0.0
 40
0.0
 40
0.0
 40
0.2897033281
 40
0.5490895198
 40
0.7822165953
 40
1.0
 40
1.0
 40
1.0
 40
1.0
 10
85.2577551593
 20
132.1572191778
 30
0.0
 10
85.2577551593
 20
132.0305488169
 30
0.0
 10
85.2385500689
 20
131.7896486368
 30
0.0
 10
85.1409883862
 20
131.4586644135
 30
0.0
 10
84.976726914
 20
131.190089434
 30
0.0
 10
84.8224355333
 20
131.0603768742
 30
0.0
 10
84.739969013
 20
131.0127651272
 30
0.0
  0
SPLINE
  5
5A5
100
AcDbEntity
  8
0
100
AcDbSpline
 62
7
  6
CONTINUOUS
 70
0
 71
3
 72
11
 73
7
 74
0
 42
0.0000001
 43
0.0000001
 44
0.0000000001
 40
0.0
 40
0.0
 40
0.0
 40
0.0
 40
0.2897033281
 40
0.5490895198
 40
0.7822165953
 40
1.0
 40
1.0
 40
1.0
 40
1.0
 10
93.0359621359
 20
127.6665708781
 30
0.0
 10
93.0359621359
 20
127.5399005171
 30
0.0
 10
93.0167570455
 20
127.2990003371
 30
0.0
 10
92.9191953628
 20
126.9680161138
 30
0.0
 10
92.7549338907
 20
126.6994411343
 30
0.0
 10
92.6006425099
 20
126.5697285745
 30
0.0
 10
92.5181759896
 20
126.5221168275
 30
0.0
  0
SPLINE
  5
5A6
100
AcDbEntity
  8
0
100
AcDbSpline
 62
7
  6
CONTINUOUS
 70
0
 71
3
 72
9
 73
5
 74
0
 42
0.0000001
 43
0.0000001
 44
0.0000000001
 40
0.0
 40
0.0
 40
0.0
 40
0.0
 40
0.5255132972
 40
1.0
 40
1.0
 40
1.0
 40
1.0
 10
49.7143970554
 20
155.6451171498
 30
0.0
 10
49.7657518815
 20
155.5561684757
 30
0.0
 10
49.8821392502
 20
155.3970797401
 30
0.0
 10
50.0340775937
 20
155.2692252439
 30
0.0
 10
50.1143900436
 20
155.2228578783
 30
0.0
  0
SPLINE
  5
5A7
100
AcDbEntity
  8
0
100
AcDbSpline
 62
7
  6
CONTINUOUS
 70
0
 71
3
 72
9
 73
5
 74
0
 42
0.0000001
 43
0.0000001
 44
0.0000000001
 40
0.0
 40
0.0
 40
0.0
 40
0.0
 40
0.2470417986
 40
1.0
 40
1.0
 40
1.0
 40
1.0
 10
41.8363301214
 20
160.3494765077
 30
0.0
 10
41.8429625317
 20
160.331204029
 30
0.0
 10
41.8715142627
 20
160.2578668391
 30
0.0
 10
41.9065660041
 20
160.1870755673
 30
0.0
 10
41.9361900788
 20
160.1357654495
 30
0.0
  0
SPLINE
  5
5A8
100
AcDbEntity
  8
0
100
AcDbSpline
 62
7
  6
CONTINUOUS
 70
0
 71
3
 72
9
 73
5
 74
0
 42
0.0000001
 43
0.0000001
 44
0.0000000001
 40
0.0
 40
0.0
 40
0.0
 40
0.0
 40
0.5255132972
 40
1.0
 40
1.0
 40
1.0
 40
1.0
 10
41.9361900788
 20
160.1357654495
 30
0.0
 10
41.9875449049
 20
160.0468167754
 30
0.0
 10
42.1039322736
 20
159.8877280398
 30
0.0
 10
42.2558706171
 20
159.7598735436
 30
0.0
 10
42.336183067
 20
159.713506178
 30
0.0
  0
SPLINE
  5
5A9
100
AcDbEntity
  8
0
100
AcDbSpline
 62
7
  6
CONTINUOUS
 70
0
 71
3
 72
9
 73
5
 74
0
 42
0.0000001
 43
0.0000001
 44
0.0000000001
 40
0.0
 40
0.0
 40
0.0
 40
0.0
 40
0.2578737812
 40
1.0
 40
1.0
 40
1.0
 40
1.0
 10
84.9041885208
 20
131.953053329
 30
0.0
 10
84.9279421354
 20
131.9393394835
 30
0.0
 10
85.0209810728
 20
131.8877940885
 30
0.0
 10
85.1177877408
 20
131.8429275569
 30
0.0
 10
85.1913931819
 20
131.8144160833
 30
0.0
  0
SPLINE
  5
5AA
100
AcDbEntity
  8
0
100
AcDbSpline
 62
7
  6
CONTINUOUS
 70
0
 71
3
 72
9
 73
5
 74
0
 42
0.0000001
 43
0.0000001
 44
0.0000000001
 40
0.0
 40
0.0
 40
0.0
 40
0.0
 40
0.2578737812
 40
1.0
 40
1.0
 40
1.0
 40
1.0
 10
77.1259815442
 20
136.4437016288
 30
0.0
 10
77.1497351588
 20
136.4299877833
 30
0.0
 10
77.2427740962
 20
136.3784423882
 30
0.0
 10
77.3395807642
 20
136.3335758567
 30
0.0
 10
77.4131862053
 20
136.3050643831
 30
0.0
  0
SPLINE
  5
5AB
100
AcDbEntity
  8
0
100
AcDbSpline
 62
7
  6
CONTINUOUS
 70
0
 71
3
 72
9
 73
5
 74
0
 42
0.0000001
 43
0.0000001
 44
0.0000000001
 40
0.0
 40
0.0
 40
0.0
 40
0.0
 40
0.2578737812
 40
1.0
 40
1.0
 40
1.0
 40
1.0
 10
69.3477745676
 20
140.9343499285
 30
0.0
 10
69.3715281821
 20
140.920636083
 30
0.0
 10
69.4645671196
 20
140.869090688
 30
0.0
 10
69.5613737876
 20
140.8242241564
 30
0.0
 10
69.6349792287
 20
140.7957126828
 30
0.0
  0
SPLINE
  5
5AC
100
AcDbEntity
  8
0
100
AcDbSpline
 62
7
  6
CONTINUOUS
 70
0
 71
3
 72
9
 73
5
 74
0
 42
0.0000001
 43
0.0000001
 44
0.0000000001
 40
0.0
 40
0.0
 40
0.0
 40
0.0
 40
0.2578737812
 40
1.0
 40
1.0
 40
1.0
 40
1.0
 10
61.569567591
 20
145.4249982282
 30
0.0
 10
61.5933212055
 20
145.4112843827
 30
0.0
 10
61.686360143
 20
145.3597389877
 30
0.0
 10
61.783166811
 20
145.3148724561
 30
0.0
 10
61.8567722521
 20
145.2863609825
 30
0.0
  0
SPLINE
  5
5AD
100
AcDbEntity
  8
0
100
AcDbSpline
 62
7
  6
CONTINUOUS
 70
0
 71
3
 72
9
 73
5
 74
0
 42
0.0000001
 43
0.0000001
 44
0.0000000001
 40
0.0
 40
0.0
 40
0.0
 40
0.0
 40
0.2578737812
 40
1.0
 40
1.0
 40
1.0
 40
1.0
 10
92.6823954974
 20
127.4624050293
 30
0.0
 10
92.706149112
 20
127.4486911838
 30
0.0
 10
92.7991880495
 20
127.3971457888
 30
0.0
 10
92.8959947174
 20
127.3522792572
 30
0.0
 10
92.9696001585
 20
127.3237677836
 30
0.0
  0
SPLINE
  5
5AE
100
AcDbEntity
  8
0
100
AcDbSpline
 62
7
  6
CONTINUOUS
 70
0
 71
3
 72
11
 73
7
 74
0
 42
0.0000001
 43
0.0000001
 44
0.0000000001
 40
0.0
 40
0.0
 40
0.0
 40
0.0
 40
0.2372280045
 40
0.5000013722
 40
0.7627739212
 40
1.0
 40
1.0
 40
1.0
 40
1.0
 10
57.326921016
 20
147.8744777728
 30
0.0
 10
57.326921016
 20
147.7585642785
 30
0.0
 10
57.3704011749
 20
147.5140981385
 30
0.0
 10
57.5219439779
 20
147.1705752787
 30
0.0
 10
57.7436730179
 20
146.8675757737
 30
0.0
 10
57.9336469575
 20
146.7076898945
 30
0.0
 10
58.0340307411
 20
146.6497346012
 30
0.0
  0
SPLINE
  5
5AF
100
AcDbEntity
  8
0
100
AcDbSpline
 62
7
  6
CONTINUOUS
 70
0
 71
3
 72
11
 73
7
 74
0
 42
0.0000001
 43
0.0000001
 44
0.0000000001
 40
0.0
 40
0.0
 40
0.0
 40
0.0
 40
0.2372280045
 40
0.5000013722
 40
0.7627739212
 40
1.0
 40
1.0
 40
1.0
 40
1.0
 10
88.4397489224
 20
129.9118845739
 30
0.0
 10
88.4397489224
 20
129.7959710796
 30
0.0
 10
88.4832290814
 20
129.5515049396
 30
0.0
 10
88.6347718844
 20
129.2079820798
 30
0.0
 10
88.8565009244
 20
128.9049825748
 30
0.0
 10
89.046474864
 20
128.7450966956
 30
0.0
 10
89.1468586476
 20
128.6871414023
 30
0.0
  0
SPLINE
  5
5B0
100
AcDbEntity
  8
0
100
AcDbSpline
 62
7
  6
CONTINUOUS
 70
0
 71
3
 72
11
 73
7
 74
0
 42
0.0000001
 43
0.0000001
 44
0.0000000001
 40
0.0
 40
0.0
 40
0.0
 40
0.0
 40
0.2372280045
 40
0.5000013722
 40
0.7627739212
 40
1.0
 40
1.0
 40
1.0
 40
1.0
 10
65.1051279926
 20
143.3838294731
 30
0.0
 10
65.1051279926
 20
143.2679159788
 30
0.0
 10
65.1486081515
 20
143.0234498388
 30
0.0
 10
65.3001509545
 20
142.679926979
 30
0.0
 10
65.5218799946
 20
142.376927474
 30
0.0
 10
65.7118539341
 20
142.2170415948
 30
0.0
 10
65.8122377177
 20
142.1590863014
 30
0.0
  0
SPLINE
  5
5B1
100
AcDbEntity
  8
0
100
AcDbSpline
 62
7
  6
CONTINUOUS
 70
0
 71
3
 72
11
 73
7
 74
0
 42
0.0000001
 43
0.0000001
 44
0.0000000001
 40
0.0
 40
0.0
 40
0.0
 40
0.0
 40
0.2372280045
 40
0.5000013722
 40
0.7627739212
 40
1.0
 40
1.0
 40
1.0
 40
1.0
 10
80.6615419458
 20
134.4025328736
 30
0.0
 10
80.6615419458
 20
134.2866193793
 30
0.0
 10
80.7050221048
 20
134.0421532393
 30
0.0
 10
80.8565649078
 20
133.6986303795
 30
0.0
 10
81.0782939478
 20
133.3956308746
 30
0.0
 10
81.2682678873
 20
133.2357449954
 30
0.0
 10
81.368651671
 20
133.177789702
 30
0.0
  0
SPLINE
  5
5B2
100
AcDbEntity
  8
0
100
AcDbSpline
 62
7
  6
CONTINUOUS
 70
0
 71
3
 72
11
 73
7
 74
0
 42
0.0000001
 43
0.0000001
 44
0.0000000001
 40
0.0
 40
0.0
 40
0.0
 40
0.0
 40
0.2372280045
 40
0.5000013722
 40
0.7627739212
 40
1.0
 40
1.0
 40
1.0
 40
1.0
 10
72.8833349692
 20
138.8931811734
 30
0.0
 10
72.8833349692
 20
138.7772676791
 30
0.0
 10
72.9268151282
 20
138.532801539
 30
0.0
 10
73.0783579311
 20
138.1892786792
 30
0.0
 10
73.3000869712
 20
137.8862791743
 30
0.0
 10
73.4900609107
 20
137.7263932951
 30
0.0
 10
73.5904446943
 20
137.6684380017
 30
0.0
  0
SPLINE
  5
5B3
100
AcDbEntity
  8
0
100
AcDbSpline
 62
7
  6
CONTINUOUS
 70
0
 71
3
 72
12
 73
8
 74
0
 42
0.0000001
 43
0.0000001
 44
0.0000000001
 40
0.0
 40
0.0
 40
0.0
 40
0.0
 40
0.244017233
 40
0.5050106934
 40
0.76308418
 40
0.8854767855
 40
1.0
 40
1.0
 40
1.0
 40
1.0
 10
104.5119122168
 20
161.7559075578
 30
0.0
 10
104.8040754642
 20
161.9443999943
 30
0.0
 10
105.4662707456
 20
162.250049674
 30
0.0
 10
106.5437965447
 20
162.4520840806
 30
0.0
 10
107.466834935
 20
162.4142748753
 30
0.0
 10
108.1545773846
 20
162.2508580104
 30
0.0
 10
108.4703237882
 20
162.1261975137
 30
0.0
 10
108.6155008095
 20
162.0516909335
 30
0.0
  0
SPLINE
  5
5B4
100
AcDbEntity
  8
0
100
AcDbSpline
 62
7
  6
CONTINUOUS
 70
0
 71
3
 72
11
 73
7
 74
0
 42
0.0000001
 43
0.0000001
 44
0.0000000001
 40
0.0
 40
0.0
 40
0.0
 40
0.0
 40
0.2177843137
 40
0.4509117637
 40
0.7102976701
 40
1.0
 40
1.0
 40
1.0
 40
1.0
 10
61.4053480832
 20
144.4847100264
 30
0.0
 10
61.3228834234
 20
144.4370993535
 30
0.0
 10
61.133408047
 20
144.3683371876
 30
0.0
 10
60.8186926757
 20
144.360368655
 30
0.0
 10
60.4832798468
 20
144.4413648738
 30
0.0
 10
60.2650569767
 20
144.545177726
 30
0.0
 10
60.1553599165
 20
144.6085099205
 30
0.0
  0
SPLINE
  5
5B5
100
AcDbEntity
  8
0
100
AcDbSpline
 62
7
  6
CONTINUOUS
 70
0
 71
3
 72
11
 73
7
 74
0
 42
0.0000001
 43
0.0000001
 44
0.0000000001
 40
0.0
 40
0.0
 40
0.0
 40
0.0
 40
0.2177843137
 40
0.4509117637
 40
0.7102976701
 40
1.0
 40
1.0
 40
1.0
 40
1.0
 10
84.739969013
 20
131.0127651272
 30
0.0
 10
84.6575043532
 20
130.9651544543
 30
0.0
 10
84.4680289769
 20
130.8963922884
 30
0.0
 10
84.1533136055
 20
130.8884237559
 30
0.0
 10
83.8179007766
 20
130.9694199746
 30
0.0
 10
83.5996779066
 20
131.0732328269
 30
0.0
 10
83.4899808464
 20
131.1365650213
 30
0.0
  0
SPLINE
  5
5B6
100
AcDbEntity
  8
0
100
AcDbSpline
 62
7
  6
CONTINUOUS
 70
0
 71
3
 72
9
 73
5
 74
0
 42
0.0000001
 43
0.0000001
 44
0.0000000001
 40
0.0
 40
0.0
 40
0.0
 40
0.0
 40
0.2454609551
 40
1.0
 40
1.0
 40
1.0
 40
1.0
 10
124.5969875954
 20
165.974491467
 30
0.0
 10
124.2934830154
 20
165.799264062
 30
0.0
 10
123.0650010085
 20
165.0716165801
 30
0.0
 10
121.8684368208
 20
164.2903508293
 30
0.0
 10
120.9842111423
 20
163.6749630578
 30
0.0
  0
SPLINE
  5
5B7
100
AcDbEntity
  8
0
100
AcDbSpline
 62
7
  6
CONTINUOUS
 70
0
 71
3
 72
9
 73
5
 74
0
 42
0.0000001
 43
0.0000001
 44
0.0000000001
 40
0.0
 40
0.0
 40
0.0
 40
0.0
 40
0.2486175315
 40
1.0
 40
1.0
 40
1.0
 40
1.0
 10
58.7409520524
 20
219.7600668128
 30
0.0
 10
56.8572604683
 20
218.4440736286
 30
0.0
 10
49.2983088003
 20
213.1255156577
 30
0.0
 10
41.8100821057
 20
207.70648629
 30
0.0
 10
36.2236649688
 20
203.5809070554
 30
0.0
  0
SPLINE
  5
5B8
100
AcDbEntity
  8
0
100
AcDbSpline
 62
7
  6
CONTINUOUS
 70
0
 71
3
 72
9
 73
5
 74
0
 42
0.0000001
 43
0.0000001
 44
0.0000000001
 40
0.0
 40
0.0
 40
0.0
 40
0.0
 40
0.2482996565
 40
1.0
 40
1.0
 40
1.0
 40
1.0
 10
193.4282116504
 20
209.5958987334
 30
0.0
 10
191.0016935853
 20
208.1694215754
 30
0.0
 10
181.2522596479
 20
202.3852124965
 30
0.0
 10
171.5951335068
 20
196.4455277103
 30
0.0
 10
164.3886614943
 20
191.8979710465
 30
0.0
  0
SPLINE
  5
5B9
100
AcDbEntity
  8
0
100
AcDbSpline
 62
7
  6
CONTINUOUS
 70
0
 71
3
 72
9
 73
5
 74
0
 42
0.0000001
 43
0.0000001
 44
0.0000000001
 40
0.0
 40
0.0
 40
0.0
 40
0.0
 40
0.2483508097
 40
1.0
 40
1.0
 40
1.0
 40
1.0
 10
157.5849154534
 20
187.5700622619
 30
0.0
 10
155.1050501356
 20
185.9800273285
 30
0.0
 10
145.1449237836
 20
179.538413178
 30
0.0
 10
135.2854360732
 20
172.9412920261
 30
0.0
 10
127.9318783587
 20
167.8998800539
 30
0.0
  0
SPLINE
  5
5BA
100
AcDbEntity
  8
0
100
AcDbSpline
 62
7
  6
CONTINUOUS
 70
0
 71
3
 72
11
 73
7
 74
0
 42
0.0000001
 43
0.0000001
 44
0.0000000001
 40
0.0
 40
0.0
 40
0.0
 40
0.0
 40
0.2177843137
 40
0.4509117637
 40
0.7102976701
 40
1.0
 40
1.0
 40
1.0
 40
1.0
 10
76.9617620364
 20
135.5034134269
 30
0.0
 10
76.8792973766
 20
135.455802754
 30
0.0
 10
76.6898220002
 20
135.3870405881
 30
0.0
 10
76.3751066289
 20
135.3790720556
 30
0.0
 10
76.0396938
 20
135.4600682743
 30
0.0
 10
75.8214709299
 20
135.5638811266
 30
0.0
 10
75.7117738698
 20
135.627213321
 30
0.0
  0
SPLINE
  5
5BB
100
AcDbEntity
  8
0
100
AcDbSpline
 62
7
  6
CONTINUOUS
 70
0
 71
3
 72
9
 73
5
 74
0
 42
0.0000001
 43
0.0000001
 44
0.0000000001
 40
0.0
 40
0.0
 40
0.0
 40
0.0
 40
0.2455565714
 40
1.0
 40
1.0
 40
1.0
 40
1.0
 10
195.5655464927
 20
202.0305823222
 30
0.0
 10
189.0897197051
 20
198.2457296266
 30
0.0
 10
162.8864246899
 20
182.5447875399
 30
0.0
 10
137.3573502297
 20
165.72398879
 30
0.0
 10
118.4899051021
 20
152.4914181276
 30
0.0
  0
SPLINE
  5
5BC
100
AcDbEntity
  8
0
100
AcDbSpline
 62
7
  6
CONTINUOUS
 70
0
 71
3
 72
9
 73
5
 74
0
 42
0.0000001
 43
0.0000001
 44
0.0000000001
 40
0.0
 40
0.0
 40
0.0
 40
0.0
 40
0.2455611892
 40
1.0
 40
1.0
 40
1.0
 40
1.0
 10
195.567361875
 20
187.8241920654
 30
0.0
 10
189.0916127241
 20
184.0325282652
 30
0.0
 10
162.8892743407
 20
168.3044118764
 30
0.0
 10
137.3617075541
 20
151.4574862058
 30
0.0
 10
118.4957546862
 20
138.2057555391
 30
0.0
  0
SPLINE
  5
5BD
100
AcDbEntity
  8
0
100
AcDbSpline
 62
7
  6
CONTINUOUS
 70
0
 71
3
 72
9
 73
5
 74
0
 42
0.0000001
 43
0.0000001
 44
0.0000000001
 40
0.0
 40
0.0
 40
0.0
 40
0.0
 40
0.2455596326
 40
1.0
 40
1.0
 40
1.0
 40
1.0
 10
195.5667502148
 20
192.5596525577
 30
0.0
 10
189.0909742904
 20
188.770283267
 30
0.0
 10
162.888311057
 20
173.051321133
 30
0.0
 10
137.3602339315
 20
156.2131969331
 30
0.0
 10
118.4937765368
 20
142.9679207534
 30
0.0
  0
SPLINE
  5
5BE
100
AcDbEntity
  8
0
100
AcDbSpline
 62
7
  6
CONTINUOUS
 70
0
 71
3
 72
11
 73
7
 74
0
 42
0.0000001
 43
0.0000001
 44
0.0000000001
 40
0.0
 40
0.0
 40
0.0
 40
0.0
 40
0.2177843137
 40
0.4509117637
 40
0.7102976701
 40
1.0
 40
1.0
 40
1.0
 40
1.0
 10
92.5181759896
 20
126.5221168275
 30
0.0
 10
92.4357113299
 20
126.4745061546
 30
0.0
 10
92.2462359535
 20
126.4057439887
 30
0.0
 10
91.9315205822
 20
126.3977754562
 30
0.0
 10
91.5961077533
 20
126.4787716749
 30
0.0
 10
91.3778848832
 20
126.5825845271
 30
0.0
 10
91.268187823
 20
126.6459167216
 30
0.0
  0
SPLINE
  5
5BF
100
AcDbEntity
  8
0
100
AcDbSpline
 62
7
  6
CONTINUOUS
 70
0
 71
3
 72
11
 73
7
 74
0
 42
0.0000001
 43
0.0000001
 44
0.0000000001
 40
0.0
 40
0.0
 40
0.0
 40
0.0
 40
0.2372428334
 40
0.4999989082
 40
0.7627555772
 40
1.0
 40
1.0
 40
1.0
 40
1.0
 10
40.9219753926
 20
158.8970178702
 30
0.0
 10
40.8416629426
 20
158.9433852358
 30
0.0
 10
40.6896893993
 20
159.0713007013
 30
0.0
 10
40.5123114254
 20
159.3136938391
 30
0.0
 10
40.3910803012
 20
159.5885042621
 30
0.0
 10
40.3562876124
 20
159.7840754816
 30
0.0
 10
40.3562876124
 20
159.8768124076
 30
0.0
  0
SPLINE
  5
5C0
100
AcDbEntity
  8
0
100
AcDbSpline
 62
7
  6
CONTINUOUS
 70
0
 71
3
 72
11
 73
7
 74
0
 42
0.0000001
 43
0.0000001
 44
0.0000000001
 40
0.0
 40
0.0
 40
0.0
 40
0.0
 40
0.2177843137
 40
0.4509117637
 40
0.7102976701
 40
1.0
 40
1.0
 40
1.0
 40
1.0
 10
69.1835550598
 20
139.9940617266
 30
0.0
 10
69.1010904
 20
139.9464510537
 30
0.0
 10
68.9116150236
 20
139.8776888879
 30
0.0
 10
68.5968996523
 20
139.8697203553
 30
0.0
 10
68.2614868234
 20
139.950716574
 30
0.0
 10
68.0432639533
 20
140.0545294263
 30
0.0
 10
67.9335668932
 20
140.1178616208
 30
0.0
  0
SPLINE
  5
5C1
100
AcDbEntity
  8
0
100
AcDbSpline
 62
7
  6
CONTINUOUS
 70
0
 71
3
 72
11
 73
7
 74
0
 42
0.0000001
 43
0.0000001
 44
0.0000000001
 40
0.0
 40
0.0
 40
0.0
 40
0.0
 40
0.2372428334
 40
0.4999989082
 40
0.7627555772
 40
1.0
 40
1.0
 40
1.0
 40
1.0
 10
48.7001823692
 20
154.4063695705
 30
0.0
 10
48.6198699192
 20
154.4527369361
 30
0.0
 10
48.467896376
 20
154.5806524016
 30
0.0
 10
48.290518402
 20
154.8230455394
 30
0.0
 10
48.1692872778
 20
155.0978559623
 30
0.0
 10
48.134494589
 20
155.2934271818
 30
0.0
 10
48.134494589
 20
155.3861641078
 30
0.0
  0
SPLINE
  5
5C2
100
AcDbEntity
  8
0
100
AcDbSpline
 62
7
  6
CONTINUOUS
 70
0
 71
3
 72
9
 73
5
 74
0
 42
0.0000001
 43
0.0000001
 44
0.0000000001
 40
0.0
 40
0.0
 40
0.0
 40
0.0
 40
0.2471014886
 40
1.0
 40
1.0
 40
1.0
 40
1.0
 10
195.5661451225
 20
206.7667396431
 30
0.0
 10
191.3916258782
 20
204.3257784135
 30
0.0
 10
174.5665844292
 20
194.329912803
 30
0.0
 10
158.0167699353
 20
183.871740837
 30
0.0
 10
145.7153245989
 20
175.7616612386
 30
0.0
  0
SPLINE
  5
5C3
100
AcDbEntity
  8
0
100
AcDbSpline
 62
7
  6
CONTINUOUS
 70
0
 71
3
 72
9
 73
5
 74
0
 42
0.0000001
 43
0.0000001
 44
0.0000000001
 40
0.0
 40
0.0
 40
0.0
 40
0.0
 40
0.2398124724
 40
1.0
 40
1.0
 40
1.0
 40
1.0
 10
58.0340307411
 20
145.833232184
 30
0.0
 10
57.9982730986
 20
145.8538764015
 30
0.0
 10
57.8514660428
 20
145.94392313
 30
0.0
 10
57.7137649971
 20
146.0484976092
 30
0.0
 10
57.6144861435
 20
146.1337864653
 30
0.0
  0
SPLINE
  5
5C4
100
AcDbEntity
  8
0
100
AcDbSpline
 62
7
  6
CONTINUOUS
 70
0
 71
3
 72
11
 73
7
 74
0
 42
0.0000001
 43
0.0000001
 44
0.0000000001
 40
0.0
 40
0.0
 40
0.0
 40
0.0
 40
0.2462190116
 40
0.5048410781
 40
0.7608867988
 40
1.0
 40
1.0
 40
1.0
 40
1.0
 10
57.6144861435
 20
146.1337864653
 30
0.0
 10
57.4364786979
 20
146.2867097804
 30
0.0
 10
57.1048442246
 20
146.6401290685
 30
0.0
 10
56.7061853988
 20
147.2498284741
 30
0.0
 10
56.4176032703
 20
147.9113574967
 30
0.0
 10
56.3092528733
 20
148.3746586057
 30
0.0
 10
56.2835047216
 20
148.6011014394
 30
0.0
  0
SPLINE
  5
5C5
100
AcDbEntity
  8
0
100
AcDbSpline
 62
7
  6
CONTINUOUS
 70
0
 71
3
 72
9
 73
5
 74
0
 42
0.0000001
 43
0.0000001
 44
0.0000000001
 40
0.0
 40
0.0
 40
0.0
 40
0.0
 40
0.2563456122
 40
1.0
 40
1.0
 40
1.0
 40
1.0
 10
56.2835047216
 20
148.6011014394
 30
0.0
 10
56.2806608699
 20
148.6261117726
 30
0.0
 10
56.2708491829
 20
148.7238148605
 30
0.0
 10
56.2662564282
 20
148.8220680161
 30
0.0
 10
56.2662564282
 20
148.8950901132
 30
0.0
  0
SPLINE
  5
5C6
100
AcDbEntity
  8
0
100
AcDbSpline
 62
7
  6
CONTINUOUS
 70
0
 71
3
 72
9
 73
5
 74
0
 42
0.0000001
 43
0.0000001
 44
0.0000000001
 40
0.0
 40
0.0
 40
0.0
 40
0.0
 40
0.2398124724
 40
1.0
 40
1.0
 40
1.0
 40
1.0
 10
65.8122377177
 20
141.3425838843
 30
0.0
 10
65.7764800753
 20
141.3632281018
 30
0.0
 10
65.6296730194
 20
141.4532748303
 30
0.0
 10
65.4919719737
 20
141.5578493095
 30
0.0
 10
65.3926931201
 20
141.6431381656
 30
0.0
  0
SPLINE
  5
5C7
100
AcDbEntity
  8
0
100
AcDbSpline
 62
7
  6
CONTINUOUS
 70
0
 71
3
 72
11
 73
7
 74
0
 42
0.0000001
 43
0.0000001
 44
0.0000000001
 40
0.0
 40
0.0
 40
0.0
 40
0.0
 40
0.2462190116
 40
0.5048410781
 40
0.7608867988
 40
1.0
 40
1.0
 40
1.0
 40
1.0
 10
65.3926931201
 20
141.6431381656
 30
0.0
 10
65.2146856745
 20
141.7960614807
 30
0.0
 10
64.8830512012
 20
142.1494807688
 30
0.0
 10
64.4843923754
 20
142.7591801743
 30
0.0
 10
64.1958102469
 20
143.420709197
 30
0.0
 10
64.0874598499
 20
143.8840103059
 30
0.0
 10
64.0617116983
 20
144.1104531396
 30
0.0
  0
SPLINE
  5
5C8
100
AcDbEntity
  8
0
100
AcDbSpline
 62
7
  6
CONTINUOUS
 70
0
 71
3
 72
9
 73
5
 74
0
 42
0.0000001
 43
0.0000001
 44
0.0000000001
 40
0.0
 40
0.0
 40
0.0
 40
0.0
 40
0.2563456122
 40
1.0
 40
1.0
 40
1.0
 40
1.0
 10
64.0617116983
 20
144.1104531396
 30
0.0
 10
64.0588678465
 20
144.1354634729
 30
0.0
 10
64.0490561595
 20
144.2331665608
 30
0.0
 10
64.0444634049
 20
144.3314197164
 30
0.0
 10
64.0444634049
 20
144.4044418134
 30
0.0
  0
SPLINE
  5
5C9
100
AcDbEntity
  8
0
100
AcDbSpline
 62
7
  6
CONTINUOUS
 70
0
 71
3
 72
9
 73
5
 74
0
 42
0.0000001
 43
0.0000001
 44
0.0000000001
 40
0.0
 40
0.0
 40
0.0
 40
0.0
 40
0.2398124724
 40
1.0
 40
1.0
 40
1.0
 40
1.0
 10
73.5904446943
 20
136.8519355846
 30
0.0
 10
73.5546870519
 20
136.8725798021
 30
0.0
 10
73.407879996
 20
136.9626265306
 30
0.0
 10
73.2701789503
 20
137.0672010098
 30
0.0
 10
73.1709000967
 20
137.1524898659
 30
0.0
  0
SPLINE
  5
5CA
100
AcDbEntity
  8
0
100
AcDbSpline
 62
7
  6
CONTINUOUS
 70
0
 71
3
 72
11
 73
7
 74
0
 42
0.0000001
 43
0.0000001
 44
0.0000000001
 40
0.0
 40
0.0
 40
0.0
 40
0.0
 40
0.2462190116
 40
0.5048410781
 40
0.7608867988
 40
1.0
 40
1.0
 40
1.0
 40
1.0
 10
73.1709000967
 20
137.1524898659
 30
0.0
 10
72.9928926511
 20
137.305413181
 30
0.0
 10
72.6612581778
 20
137.6588324691
 30
0.0
 10
72.262599352
 20
138.2685318746
 30
0.0
 10
71.9740172235
 20
138.9300608973
 30
0.0
 10
71.8656668265
 20
139.3933620062
 30
0.0
 10
71.8399186749
 20
139.6198048399
 30
0.0
  0
SPLINE
  5
5CB
100
AcDbEntity
  8
0
100
AcDbSpline
 62
7
  6
CONTINUOUS
 70
0
 71
3
 72
9
 73
5
 74
0
 42
0.0000001
 43
0.0000001
 44
0.0000000001
 40
0.0
 40
0.0
 40
0.0
 40
0.0
 40
0.2563456122
 40
1.0
 40
1.0
 40
1.0
 40
1.0
 10
71.8399186749
 20
139.6198048399
 30
0.0
 10
71.8370748231
 20
139.6448151731
 30
0.0
 10
71.8272631361
 20
139.742518261
 30
0.0
 10
71.8226703815
 20
139.8407714166
 30
0.0
 10
71.8226703815
 20
139.9137935137
 30
0.0
  0
SPLINE
  5
5CC
100
AcDbEntity
  8
0
100
AcDbSpline
 62
7
  6
CONTINUOUS
 70
0
 71
3
 72
9
 73
5
 74
0
 42
0.0000001
 43
0.0000001
 44
0.0000000001
 40
0.0
 40
0.0
 40
0.0
 40
0.0
 40
0.2398124724
 40
1.0
 40
1.0
 40
1.0
 40
1.0
 10
81.368651671
 20
132.3612872849
 30
0.0
 10
81.3328940285
 20
132.3819315023
 30
0.0
 10
81.1860869726
 20
132.4719782308
 30
0.0
 10
81.048385927
 20
132.57655271
 30
0.0
 10
80.9491070733
 20
132.6618415662
 30
0.0
  0
SPLINE
  5
5CD
100
AcDbEntity
  8
0
100
AcDbSpline
 62
7
  6
CONTINUOUS
 70
0
 71
3
 72
11
 73
7
 74
0
 42
0.0000001
 43
0.0000001
 44
0.0000000001
 40
0.0
 40
0.0
 40
0.0
 40
0.0
 40
0.2462190116
 40
0.5048410781
 40
0.7608867988
 40
1.0
 40
1.0
 40
1.0
 40
1.0
 10
80.9491070733
 20
132.6618415662
 30
0.0
 10
80.7710996277
 20
132.8147648812
 30
0.0
 10
80.4394651544
 20
133.1681841693
 30
0.0
 10
80.0408063286
 20
133.7778835749
 30
0.0
 10
79.7522242001
 20
134.4394125975
 30
0.0
 10
79.6438738031
 20
134.9027137065
 30
0.0
 10
79.6181256515
 20
135.1291565402
 30
0.0
  0
SPLINE
  5
5CE
100
AcDbEntity
  8
0
100
AcDbSpline
 62
7
  6
CONTINUOUS
 70
0
 71
3
 72
9
 73
5
 74
0
 42
0.0000001
 43
0.0000001
 44
0.0000000001
 40
0.0
 40
0.0
 40
0.0
 40
0.0
 40
0.2563456122
 40
1.0
 40
1.0
 40
1.0
 40
1.0
 10
79.6181256515
 20
135.1291565402
 30
0.0
 10
79.6152817997
 20
135.1541668734
 30
0.0
 10
79.6054701127
 20
135.2518699613
 30
0.0
 10
79.6008773581
 20
135.3501231169
 30
0.0
 10
79.6008773581
 20
135.423145214
 30
0.0
  0
SPLINE
  5
5CF
100
AcDbEntity
  8
0
100
AcDbSpline
 62
7
  6
CONTINUOUS
 70
0
 71
3
 72
9
 73
5
 74
0
 42
0.0000001
 43
0.0000001
 44
0.0000000001
 40
0.0
 40
0.0
 40
0.0
 40
0.0
 40
0.2398124724
 40
1.0
 40
1.0
 40
1.0
 40
1.0
 10
89.1468586476
 20
127.8706389851
 30
0.0
 10
89.1111010051
 20
127.8912832026
 30
0.0
 10
88.9642939492
 20
127.9813299311
 30
0.0
 10
88.8265929036
 20
128.0859044103
 30
0.0
 10
88.7273140499
 20
128.1711932664
 30
0.0
  0
SPLINE
  5
5D0
100
AcDbEntity
  8
0
100
AcDbSpline
 62
7
  6
CONTINUOUS
 70
0
 71
3
 72
11
 73
7
 74
0
 42
0.0000001
 43
0.0000001
 44
0.0000000001
 40
0.0
 40
0.0
 40
0.0
 40
0.0
 40
0.2462190116
 40
0.5048410781
 40
0.7608867988
 40
1.0
 40
1.0
 40
1.0
 40
1.0
 10
88.7273140499
 20
128.1711932664
 30
0.0
 10
88.5493066044
 20
128.3241165815
 30
0.0
 10
88.2176721311
 20
128.6775358696
 30
0.0
 10
87.8190133052
 20
129.2872352752
 30
0.0
 10
87.5304311768
 20
129.9487642978
 30
0.0
 10
87.4220807797
 20
130.4120654068
 30
0.0
 10
87.3963326281
 20
130.6385082405
 30
0.0
  0
SPLINE
  5
5D1
100
AcDbEntity
  8
0
100
AcDbSpline
 62
7
  6
CONTINUOUS
 70
0
 71
3
 72
9
 73
5
 74
0
 42
0.0000001
 43
0.0000001
 44
0.0000000001
 40
0.0
 40
0.0
 40
0.0
 40
0.0
 40
0.2563456122
 40
1.0
 40
1.0
 40
1.0
 40
1.0
 10
87.3963326281
 20
130.6385082405
 30
0.0
 10
87.3934887763
 20
130.6635185737
 30
0.0
 10
87.3836770894
 20
130.7612216616
 30
0.0
 10
87.3790843347
 20
130.8594748172
 30
0.0
 10
87.3790843347
 20
130.9324969143
 30
0.0
  0
SPLINE
  5
5D2
100
AcDbEntity
  8
0
100
AcDbSpline
 62
7
  6
CONTINUOUS
 70
0
 71
3
 72
9
 73
5
 74
0
 42
0.0000001
 43
0.0000001
 44
0.0000000001
 40
0.0
 40
0.0
 40
0.0
 40
0.0
 40
0.2455580935
 40
1.0
 40
1.0
 40
1.0
 40
1.0
 10
195.5661451225
 20
197.295115994
 30
0.0
 10
189.0903433273
 20
193.5080169436
 30
0.0
 10
162.8873612621
 20
177.7981124022
 30
0.0
 10
137.3587816333
 20
160.9686966867
 30
0.0
 10
118.4918268661
 20
147.7298068165
 30
0.0
  0
ELLIPSE
  5
5D3
100
AcDbEntity
  8
0
100
AcDbEllipse
 62
7
  6
CONTINUOUS
 10
106.581350674
 20
106.5202414229
 30
0.0
 11
3.7506293005
 21
0.0060488729
 31
0.0
 40
0.5801825985
 41
7.1216298932
 42
8.5825203089
  0
ELLIPSE
  5
5D4
100
AcDbEntity
  8
0
100
AcDbEllipse
 62
7
  6
CONTINUOUS
 10
239.7193069151
 20
-570.0519251509
 30
0.0
 11
13344.1066372866
 21
-6952.5278182461
 31
0.0
 40
0.0453939801
 41
1.6029457859
 42
1.6033895699
  0
ELLIPSE
  5
5D5
100
AcDbEntity
  8
0
100
AcDbEllipse
 62
7
  6
CONTINUOUS
 10
1837.8895246409
 20
-1629.7441622785
 30
0.0
 11
15575.6714482093
 21
-8115.2146018489
 31
0.0
 40
0.0453939801
 41
1.7052904008
 42
1.7056651991
  0
ELLIPSE
  5
5D6
100
AcDbEntity
  8
0
100
AcDbEllipse
 62
7
  6
CONTINUOUS
 10
197.6238593359
 20
-682.7577625671
 30
0.0
 11
595.9321556723
 21
926.3769591418
 31
0.0
 40
0.6068250281
 41
0.9284650994
 42
0.9334022527
  0
ENDSEC
  0
SECTION
  2
OBJECTS
  0
DICTIONARY
  5
C
100
AcDbDictionary
280
0
281
1
  3
ACAD_GROUP
350
D
  3
ACAD_MLINESTYLE
350
17
  3
ACAD_LAYOUT
350
1A
  3
ACAD_PLOTSETTINGS
350
19
  3
ACAD_PLOTSTYLENAME
350
E
  0
DICTIONARY
  5
D
102
{ACAD_REACTORS
330
C
102
}
100
AcDbDictionary
280
0
281
1
  0
ACDBDICTIONARYWDFLT
  5
E
102
{ACAD_REACTORS
330
C
102
}
100
AcDbDictionary
281
1
  3
Normal
350
F
100
AcDbDictionaryWithDefault
340
F
  0
DICTIONARY
  5
17
102
{ACAD_REACTORS
330
C
102
}
100
AcDbDictionary
280
0
281
1
  3
Standard
350
18
  0
DICTIONARY
  5
19
102
{ACAD_REACTORS
330
C
102
}
100
AcDbDictionary
281
1
  0
DICTIONARY
  5
1A
102
{ACAD_REACTORS
330
C
102
}
100
AcDbDictionary
281
1
  3
Model
350
5D7
  3
Layout1
350
5D8
  0
ACDBPLACEHOLDER
  5
F
102
{ACAD_REACTORS
330
E
102
}
  0
MLINESTYLE
  5
18
102
{ACAD_REACTORS
330
17
102
}
100
AcDbMlineStyle
  2
STANDARD
 70
0
  3

 62
256
 51
90.0
 52
90.0
 71
2
 49
0.5
 62
256
  6
BYLAYER
 49
-0.5
 62
256
  6
BYLAYER
  0
LAYOUT
  5
5D7
102
{ACAD_REACTORS
330
1A
102
}
100
AcDbPlotSettings
  1

  2
none_device
  4

  6

 40
0.0
 41
0.0
 42
0.0
 43
0.0
 44
210.0
 45
297.0
 46
0.0
 47
0.0
 48
0.0
 49
0.0
140
0.0
141
0.0
142
1.0
143
1.0
 70
1024
 72
1
 73
0
 74
0
  7

 75
0
147
1.0
148
0.0
149
0.0
100
AcDbLayout
  1
Model
 70
0
 71
0
 10
0.0
 20
0.0
 11
210.0
 21
297.0
 12
0.0
 22
0.0
 32
0.0
 14
0.0
 24
0.0
 34
0.0
 15
0.0
 25
0.0
 35
0.0
146
0.0
 13
0.0
 23
0.0
 33
0.0
 16
1.0
 26
0.0
 36
0.0
 17
0.0
 27
1.0
 37
0.0
 76
0
330
210
345
0
346
0
  0
LAYOUT
  5
5D8
102
{ACAD_REACTORS
330
1A
102
}
100
AcDbPlotSettings
  1

  2
none_device
  4

  6

 40
0.0
 41
0.0
 42
0.0
 43
0.0
 44
210.0
 45
297.0
 46
0.0
 47
0.0
 48
0.0
 49
0.0
140
0.0
141
0.0
142
1.0
143
1.0
 70
0
 72
1
 73
0
 74
0
  7

 75
0
147
1.0
148
0.0
149
0.0
100
AcDbLayout
  1
Layout1
 70
0
 71
1
 10
0.0
 20
0.0
 11
210.0
 21
297.0
 12
0.0
 22
0.0
 32
0.0
 14
0.0
 24
0.0
 34
0.0
 15
0.0
 25
0.0
 35
0.0
146
0.0
 13
0.0
 23
0.0
 33
0.0
 16
1.0
 26
0.0
 36
0.0
 17
0.0
 27
1.0
 37
0.0
 76
0
330
211
345
0
346
0
  0
ENDSEC
  0
EOF
