999
DXF file: C:\Users\sesa63760\Dev\_Creo\CAD\MCADPD0005429_3D-CAD\drw0001_1.dxf
999
Pro/ENGINEER 2019471 by Parametric Technology Corporation
  0
SECTION
  2
HEADER
  9
$ACADVER
  1
AC1024
  9
$DWGCODEPAGE
  3
ANSI_1252
  9
$EXTMAX
 10
60.9093254762
 20
86.1431888877
 30
0.0
  9
$EXTMIN
 10
0.0
 20
0.0
 30
0.0
  9
$LIMMIN
 10
0.0
 20
0.0
  9
$LIMMAX
 10
60.9093254762
 20
86.1431888877
  9
$VIEWCTR
 10
30.4546627381
 20
43.0715944439
  9
$VIEWSIZE
 40
86.1431888877
  9
$CLAYER
  8
0
  9
$LTSCALE
 40
5.6152597201
  9
$CELTYPE
  6
BYLAYER
  9
$DIMSCALE
 40
1.0
  9
$DIMASZ
 40
0.7251110176
  9
$DIMEXO
 40
1.0
  9
$DIMDLI
 40
3.8796339884
  9
$DIMEXE
 40
1.0
  9
$DIMCEN
 40
0.9188606815
  9
$DIMLFAC
 40
1.0
  9
$DIMBLK
  1
_FILLED
  9
$DIMALT
 70
0
  9
$DIMALTF
 40
0.0393700787
  9
$DIMTXT
 40
1.0151554246
  9
$DIMTOL
 70
1
  9
$DIMLIM
 70
0
  9
$DIMTFAC
 40
1.0
  9
$DIMTP
 40
0.01
  9
$DIMTM
 40
0.01
  9
$DIMGAP
 40
0.625
  9
$DIMDSEP
 70
46
  9
$AUNITS
 70
0
  9
$PDMODE
 70
3
  9
$PDSIZE
 40
0.3125
  9
$HANDSEED
  5
2BD
  9
$TILEMODE
 70
1
  9
$MEASUREMENT
 70
1
  9
$INSUNITS
 70
4
  0
ENDSEC
  0
SECTION
  2
CLASSES
  0
CLASS
  1
ACDBDICTIONARYWDFLT
  2
AcDbDictionaryWithDefault
  3
AutoCAD 2000
 90
0
 91
1
280
0
281
0
  0
CLASS
  1
ACDBPLACEHOLDER
  2
AcDbPlaceHolder
  3
AutoCAD 2000
 90
0
 91
1
280
0
281
0
  0
CLASS
  1
LAYOUT
  2
AcDbLayout
  3
AutoCAD 2000
 90
0
 91
0
280
0
281
0
  0
ENDSEC
  0
SECTION
  2
TABLES
  0
TABLE
  2
VPORT
  5
8
100
AcDbSymbolTable
 70
2
  0
VPORT
  5
1F4
100
AcDbSymbolTableRecord
100
AcDbViewportTableRecord
  2
*ACTIVE
 70
0
 10
0.0
 20
0.0
 11
1.0
 21
1.0
 12
30.4546627381
 22
43.0715944439
 13
0.0
 23
0.0
 14
1.0
 24
1.0
 15
0.0
 25
0.0
 16
0.0
 26
0.0
 36
1.0
 17
0.0
 27
0.0
 37
0.0
 40
86.1431888877
 41
0.7070707071
 42
50.0
 43
0.0
 44
0.0
 50
0.0
 51
0.0
 71
0
 72
100
 73
1
 74
1
 75
0
 76
0
 77
0
 78
0
  0
ENDTAB
  0
TABLE
  2
LTYPE
  5
5
100
AcDbSymbolTable
 70
6
  0
LTYPE
  5
14
100
AcDbSymbolTableRecord
100
AcDbLinetypeTableRecord
  2
BYBLOCK
 70
0
  3

 72
65
 73
0
 40
0.0
  0
LTYPE
  5
15
100
AcDbSymbolTableRecord
100
AcDbLinetypeTableRecord
  2
BYLAYER
 70
0
  3

 72
65
 73
0
 40
0.0
  0
LTYPE
  5
16
100
AcDbSymbolTableRecord
100
AcDbLinetypeTableRecord
  2
CONTINUOUS
 70
64
  3
Solid line
 72
65
 73
0
 40
0.0
  0
LTYPE
  5
1F5
100
AcDbSymbolTableRecord
100
AcDbLinetypeTableRecord
  2
CENTER
 70
64
  3
____ _ ____ _ ____ _ ____ _ ____ _ ____ _ ____
 72
65
 73
4
 40
0.6
 49
0.375
 74
0
 49
-0.075
 74
0
 49
0.075
 74
0
 49
-0.075
 74
0
  0
LTYPE
  5
1F6
100
AcDbSymbolTableRecord
100
AcDbLinetypeTableRecord
  2
HIDDEN
 70
64
  3
- - - - - - - - - - - - - - - - - - - -
 72
65
 73
2
 40
0.2
 49
0.1
 74
0
 49
-0.1
 74
0
  0
LTYPE
  5
1F7
100
AcDbSymbolTableRecord
100
AcDbLinetypeTableRecord
  2
PHANTOM
 70
64
  3
_____ _ _ _____ _ _ _____ _ _ _____
 72
65
 73
6
 40
0.8
 49
0.45
 74
0
 49
-0.05
 74
0
 49
0.1
 74
0
 49
-0.05
 74
0
 49
0.1
 74
0
 49
-0.05
 74
0
  0
LTYPE
  5
1F8
100
AcDbSymbolTableRecord
100
AcDbLinetypeTableRecord
  2
DOT
 70
64
  3
. . . . . . . . . . . . . . . . . . . .
 72
65
 73
2
 40
0.2
 49
0.1
 74
0
 49
-0.1
 74
0
  0
LTYPE
  5
1F9
100
AcDbSymbolTableRecord
100
AcDbLinetypeTableRecord
  2
DASHED
 70
64
  3
- - - - - - - - - - - - - - - - - - - -
 72
65
 73
2
 40
0.2
 49
0.1
 74
0
 49
-0.1
 74
0
  0
ENDTAB
  0
TABLE
  2
LAYER
  5
2
100
AcDbSymbolTable
 70
36
  0
LAYER
  5
10
100
AcDbSymbolTableRecord
100
AcDbLayerTableRecord
  2
0
 70
0
 62
7
  6
CONTINUOUS
370
-3
390
F
  0
LAYER
  5
1FA
100
AcDbSymbolTableRecord
100
AcDbLayerTableRecord
  2
DEFAULT_1
 70
0
 62
7
  6
CENTER
370
-3
390
F
  0
LAYER
  5
1FB
100
AcDbSymbolTableRecord
100
AcDbLayerTableRecord
  2
DEFAULT_2
 70
0
 62
7
  6
HIDDEN
370
-3
390
F
  0
LAYER
  5
1FC
100
AcDbSymbolTableRecord
100
AcDbLayerTableRecord
  2
DEFAULT_3
 70
0
 62
7
  6
PHANTOM
370
-3
390
F
  0
LAYER
  5
1FD
100
AcDbSymbolTableRecord
100
AcDbLayerTableRecord
  2
00_COMPONENTS
 70
0
 62
7
  6
CONTINUOUS
370
-3
390
F
  0
LAYER
  5
1FE
100
AcDbSymbolTableRecord
100
AcDbLayerTableRecord
  2
01_1_DEFAULT_DATUMS
 70
0
 62
7
  6
CONTINUOUS
370
-3
390
F
  0
LAYER
  5
1FF
100
AcDbSymbolTableRecord
100
AcDbLayerTableRecord
  2
01_PLANES
 70
0
 62
7
  6
CONTINUOUS
370
-3
390
F
  0
LAYER
  5
200
100
AcDbSymbolTableRecord
100
AcDbLayerTableRecord
  2
02_COORD_SYS
 70
0
 62
7
  6
CONTINUOUS
370
-3
390
F
  0
LAYER
  5
201
100
AcDbSymbolTableRecord
100
AcDbLayerTableRecord
  2
03_AXES
 70
0
 62
7
  6
CONTINUOUS
370
-3
390
F
  0
LAYER
  5
202
100
AcDbSymbolTableRecord
100
AcDbLayerTableRecord
  2
04_POINTS
 70
0
 62
7
  6
CONTINUOUS
370
-3
390
F
  0
LAYER
  5
203
100
AcDbSymbolTableRecord
100
AcDbLayerTableRecord
  2
05_CURVES
 70
0
 62
7
  6
CONTINUOUS
370
-3
390
F
  0
LAYER
  5
204
100
AcDbSymbolTableRecord
100
AcDbLayerTableRecord
  2
06_SURFS
 70
0
 62
7
  6
CONTINUOUS
370
-3
390
F
  0
LAYER
  5
205
100
AcDbSymbolTableRecord
100
AcDbLayerTableRecord
  2
07_COSMETICS
 70
0
 62
7
  6
CONTINUOUS
370
-3
390
F
  0
LAYER
  5
206
100
AcDbSymbolTableRecord
100
AcDbLayerTableRecord
  2
10_NOTES
 70
0
 62
7
  6
CONTINUOUS
370
-3
390
F
  0
LAYER
  5
207
100
AcDbSymbolTableRecord
100
AcDbLayerTableRecord
  2
11_NOTES_PUB
 70
0
 62
7
  6
CONTINUOUS
370
-3
390
F
  0
LAYER
  5
208
100
AcDbSymbolTableRecord
100
AcDbLayerTableRecord
  2
13_REF_GTOL
 70
0
 62
7
  6
CONTINUOUS
370
-3
390
F
  0
LAYER
  5
209
100
AcDbSymbolTableRecord
100
AcDbLayerTableRecord
  2
16_MISC
 70
0
 62
7
  6
CONTINUOUS
370
-3
390
F
  0
LAYER
  5
20A
100
AcDbSymbolTableRecord
100
AcDbLayerTableRecord
  2
17_NO_PRINT
 70
0
 62
7
  6
CONTINUOUS
370
-3
390
F
  0
LAYER
  5
20B
100
AcDbSymbolTableRecord
100
AcDbLayerTableRecord
  2
18_DATUM_CAMS_JOINTS
 70
0
 62
7
  6
CONTINUOUS
370
-3
390
F
  0
LAYER
  5
20C
100
AcDbSymbolTableRecord
100
AcDbLayerTableRecord
  2
19_DATUM_FUNCTIONAL
 70
0
 62
7
  6
CONTINUOUS
370
-3
390
F
  0
LAYER
  5
20D
100
AcDbSymbolTableRecord
100
AcDbLayerTableRecord
  2
20_DATUM_KINEMATIC_SCHEME
 70
0
 62
7
  6
CONTINUOUS
370
-3
390
F
  0
ENDTAB
  0
TABLE
  2
STYLE
  5
3
100
AcDbSymbolTable
 70
1
  0
STYLE
  5
11
100
AcDbSymbolTableRecord
100
AcDbTextStyleTableRecord
  2
STANDARD
 70
0
 40
0.0
 41
1.0
 50
0.0
 71
0
 42
0.2
  3
ARIAL.TTF
  4

  0
STYLE
  5
20E
100
AcDbSymbolTableRecord
100
AcDbTextStyleTableRecord
  2
TEXTSTYLE_1
 70
0
 40
0.0
 41
0.8
 50
0.0
 71
0
 42
0.2
  3
gdt
  4

  0
ENDTAB
  0
TABLE
  2
VIEW
  5
6
100
AcDbSymbolTable
 70
0
  0
ENDTAB
  0
TABLE
  2
UCS
  5
7
100
AcDbSymbolTable
 70
0
  0
ENDTAB
  0
TABLE
  2
APPID
  5
9
100
AcDbSymbolTable
 70
1
  0
APPID
  5
20F
100
AcDbSymbolTableRecord
100
AcDbRegAppTableRecord
  2
ACAD
 70
0
  0
ENDTAB
  0
TABLE
  2
BLOCK_RECORD
  5
1
100
AcDbSymbolTable
 70
0
  0
BLOCK_RECORD
  5
210
100
AcDbSymbolTableRecord
100
AcDbBlockTableRecord
  2
*Model_Space
  0
BLOCK_RECORD
  5
211
100
AcDbSymbolTableRecord
100
AcDbBlockTableRecord
  2
*Paper_Space
  0
BLOCK_RECORD
  5
212
100
AcDbSymbolTableRecord
100
AcDbBlockTableRecord
  2
_FILLED
  0
ENDTAB
  0
TABLE
  2
DIMSTYLE
  5
A
100
AcDbSymbolTable
 70
1
100
AcDbDimStyleTable
 71
0
  0
DIMSTYLE
105
213
100
AcDbSymbolTableRecord
100
AcDbDimStyleTableRecord
  2
STANDARD
 70
0
  3

  4

 40
1.0
 41
0.7251110176
 42
1.0
 43
0.38
 44
1.0
 45
0.0
 46
0.0
 47
0.01
 48
0.01
140
1.0151554246
141
0.09
142
0.0
143
25.4
144
1.0
145
0.0
146
1.0
147
0.625
 71
1
 72
0
 73
0
 74
0
 75
0
 76
0
 77
1
 78
8
 79
2
170
0
171
1
172
0
173
0
174
0
175
0
176
0
177
0
178
0
270
2
179
2
271
2
272
2
273
2
274
2
275
0
280
0
281
0
282
0
283
1
284
8
285
0
286
0
287
3
288
0
340
11
278
46
341
212
342
212
343
212
344
212
  0
ENDTAB
  0
ENDSEC
  0
SECTION
  2
BLOCKS
  0
BLOCK
  5
20
100
AcDbEntity
  8
0
100
AcDbBlockBegin
  2
*Model_Space
 70
0
 10
0.0
 20
0.0
 30
0.0
  3
*Model_Space
  1

  0
ENDBLK
  5
21
100
AcDbEntity
  8
0
100
AcDbBlockEnd
  0
BLOCK
  5
1C
100
AcDbEntity
  8
0
100
AcDbBlockBegin
  2
*Paper_Space
 70
0
 10
0.0
 20
0.0
 30
0.0
  3
*Paper_Space
  1

  0
ENDBLK
  5
1D
100
AcDbEntity
  8
0
100
AcDbBlockEnd
  0
BLOCK
  5
214
100
AcDbEntity
  8
0
100
AcDbBlockBegin
  2
_FILLED
 70
64
 10
0.0
 20
0.0
  3
_FILLED
  1

  0
SOLID
  5
215
100
AcDbEntity
  8
0
  6
BYBLOCK
 62
0
100
AcDbTrace
 10
0.0
 20
0.0
 11
-1.0
 21
0.25
 12
-1.0
 22
-0.25
 13
-1.0
 23
-0.25
  0
ENDBLK
  5
216
100
AcDbEntity
  8
0
  6
BYBLOCK
 62
0
100
AcDbBlockEnd
  0
ENDSEC
  0
SECTION
  2
ENTITIES
  0
LINE
  5
217
100
AcDbEntity
  8
0
100
AcDbLine
 62
7
  6
BYLAYER
 10
17.7401183021
 20
76.0305896489
 11
24.1040528371
 21
79.7047870337
  0
LINE
  5
218
100
AcDbEntity
  8
0
100
AcDbLine
 62
7
  6
BYLAYER
 10
19.6846700463
 20
74.9079275739
 11
18.9068558254
 21
74.4588590047
  0
LINE
  5
219
100
AcDbEntity
  8
0
100
AcDbLine
 62
7
  6
BYLAYER
 10
26.0486045812
 20
78.5821249588
 11
26.8264188021
 21
79.031193528
  0
LINE
  5
21A
100
AcDbEntity
  8
0
100
AcDbLine
 62
7
  6
BYLAYER
 10
18.9068558254
 20
73.3974058624
 11
17.4926481509
 21
72.5809175547
  0
LINE
  5
21B
100
AcDbEntity
  8
0
100
AcDbLine
 62
7
  6
BYLAYER
 10
27.7456773298
 20
78.5004713762
 11
28.2406264766
 21
78.7862286935
  0
LINE
  5
21C
100
AcDbEntity
  8
0
100
AcDbLine
 62
7
  6
BYLAYER
 10
29.5134392905
 20
78.7046427918
 11
22.4424009183
 21
74.6222012531
  0
LINE
  5
21D
100
AcDbEntity
  8
0
100
AcDbLine
 62
7
  6
BYLAYER
 10
29.1598879607
 20
78.418872224
 11
22.9373741932
 21
74.82632367
  0
LINE
  5
21E
100
AcDbEntity
  8
0
100
AcDbLine
 62
7
  6
BYLAYER
 10
22.4424009183
 20
15.1808252861
 11
30.64487373
 21
10.4452325336
  0
LINE
  5
21F
100
AcDbEntity
  8
0
100
AcDbLine
 62
7
  6
BYLAYER
 10
37.2210094825
 20
7.301840973
 11
17.4926481509
 21
18.6917580241
  0
LINE
  5
220
100
AcDbEntity
  8
0
100
AcDbLine
 62
7
  6
BYLAYER
 10
39.3423268821
 20
6.648635384
 11
37.7159586293
 21
7.5875982904
  0
LINE
  5
221
100
AcDbEntity
  8
0
100
AcDbLine
 62
7
  6
BYLAYER
 10
17.4926481509
 20
19.9981618915
 11
18.0936914173
 21
19.6511572502
  0
LINE
  5
222
100
AcDbEntity
  8
0
100
AcDbLine
 62
7
  6
BYLAYER
 10
17.7401183021
 20
66.1509104016
 11
15.5480964068
 21
64.8853535246
  0
LINE
  5
223
100
AcDbEntity
  8
0
100
AcDbLine
 62
7
  6
BYLAYER
 10
30.9277140873
 20
70.2132031439
 11
37.1502278548
 21
73.8057516979
  0
LINE
  5
224
100
AcDbEntity
  8
0
100
AcDbLine
 62
7
  6
BYLAYER
 10
30.64487373
 20
69.8866085006
 11
37.7159121022
 21
73.9690500394
  0
LINE
  5
225
100
AcDbEntity
  8
0
100
AcDbLine
 62
7
  6
BYLAYER
 10
30.64487373
 20
68.1719534247
 11
37.7159121022
 21
72.2543949634
  0
LINE
  5
226
100
AcDbEntity
  8
0
100
AcDbLine
 62
7
  6
BYLAYER
 10
41.357551916
 20
13.2405346667
 11
42.0646616411
 21
12.8322939121
  0
LINE
  5
227
100
AcDbEntity
  8
0
100
AcDbLine
 62
7
  6
BYLAYER
 10
18.0936914173
 20
27.1629794878
 11
15.5480964068
 21
28.632646204
  0
LINE
  5
228
100
AcDbEntity
  8
0
100
AcDbLine
 62
7
  6
BYLAYER
 10
37.2210094825
 20
16.120067078
 11
37.9281192077
 21
15.7118263235
  0
LINE
  5
229
100
AcDbEntity
  8
0
100
AcDbLine
 62
7
  6
BYLAYER
 10
41.6838964287
 20
15.0130051117
 11
42.0646616411
 21
14.793175187
  0
LINE
  5
22A
100
AcDbEntity
  8
0
100
AcDbLine
 62
7
  6
BYLAYER
 10
13.1792788275
 20
43.554192856
 11
13.1792788275
 21
52.6990199279
  0
LINE
  5
22B
100
AcDbEntity
  8
0
100
AcDbLine
 62
7
  6
BYLAYER
 10
26.8264517746
 20
74.4717701845
 11
26.1332744537
 21
72.9812115362
  0
LINE
  5
22C
100
AcDbEntity
  8
0
100
AcDbLine
 62
7
  6
BYLAYER
 10
13.1792788275
 20
52.6990199279
 11
15.5480964068
 21
54.0666492313
  0
LINE
  5
22D
100
AcDbEntity
  8
0
100
AcDbLine
 62
7
  6
BYLAYER
 10
42.2060765207
 20
15.6913089261
 11
42.9131862458
 21
15.2830681716
  0
LINE
  5
22E
100
AcDbEntity
  8
0
100
AcDbLine
 62
7
  6
BYLAYER
 10
15.5480964068
 20
42.1865863284
 11
15.5480964068
 21
28.632646204
  0
LINE
  5
22F
100
AcDbEntity
  8
0
100
AcDbLine
 62
7
  6
BYLAYER
 10
15.5480964068
 20
51.3314134002
 11
15.5480964068
 21
64.8853535246
  0
LINE
  5
230
100
AcDbEntity
  8
0
100
AcDbLine
 62
7
  6
BYLAYER
 10
17.4926481509
 20
72.5809175547
 11
17.4926481509
 21
71.2745136873
  0
LINE
  5
231
100
AcDbEntity
  8
0
100
AcDbLine
 62
7
  6
BYLAYER
 10
17.4926481509
 20
18.6917580241
 11
17.4926481509
 21
19.9981618915
  0
LINE
  5
232
100
AcDbEntity
  8
0
100
AcDbLine
 62
7
  6
BYLAYER
 10
17.7401183021
 20
76.0305896489
 11
17.7401183021
 21
72.7237936602
  0
LINE
  5
233
100
AcDbEntity
  8
0
100
AcDbLine
 62
7
  6
BYLAYER
 10
17.7401183021
 20
71.1316399611
 11
17.7401183021
 21
66.1509104016
  0
LINE
  5
234
100
AcDbEntity
  8
0
100
AcDbLine
 62
7
  6
BYLAYER
 10
17.7401183021
 20
27.3671104029
 11
17.7401183021
 21
20.1410379971
  0
LINE
  5
235
100
AcDbEntity
  8
0
100
AcDbLine
 62
7
  6
BYLAYER
 10
18.0936914173
 20
27.1629794878
 11
18.0936914173
 21
19.6511572502
  0
LINE
  5
236
100
AcDbEntity
  8
0
100
AcDbLine
 62
7
  6
BYLAYER
 10
18.0936914173
 20
63.4156868083
 11
18.0936914173
 21
70.9275090459
  0
LINE
  5
237
100
AcDbEntity
  8
0
100
AcDbLine
 62
7
  6
BYLAYER
 10
18.9068558254
 20
74.4588590047
 11
18.9068558254
 21
73.3974058624
  0
LINE
  5
238
100
AcDbEntity
  8
0
100
AcDbLine
 62
7
  6
BYLAYER
 10
47.2618898589
 20
67.2330357224
 11
39.3423268821
 21
62.660701199
  0
LINE
  5
239
100
AcDbEntity
  8
0
100
AcDbLine
 62
7
  6
BYLAYER
 10
38.635217157
 20
62.0074888113
 11
37.2210094825
 21
61.1910005036
  0
LINE
  5
23A
100
AcDbEntity
  8
0
100
AcDbLine
 62
7
  6
BYLAYER
 10
47.2618898589
 20
66.9880708879
 11
47.9689878082
 21
67.3963116424
  0
LINE
  5
23B
100
AcDbEntity
  8
0
100
AcDbLine
 62
7
  6
BYLAYER
 10
22.3009942819
 20
44.2891798886
 11
22.3009942819
 21
41.4314214287
  0
LINE
  5
23C
100
AcDbEntity
  8
0
100
AcDbLine
 62
7
  6
BYLAYER
 10
22.4424009183
 20
15.8340815807
 11
22.4424009183
 21
15.1808252861
  0
LINE
  5
23D
100
AcDbEntity
  8
0
100
AcDbLine
 62
7
  6
BYLAYER
 10
22.4424009183
 20
72.9075461771
 11
22.4424009183
 21
74.6222012531
  0
LINE
  5
23E
100
AcDbEntity
  8
0
100
AcDbLine
 62
7
  6
BYLAYER
 10
42.2060765207
 20
61.4154442854
 11
42.0945738573
 21
61.3510685769
  0
LINE
  5
23F
100
AcDbEntity
  8
0
100
AcDbLine
 62
7
  6
BYLAYER
 10
42.9131862458
 20
61.0072035309
 11
42.0646616411
 21
60.5173105462
  0
LINE
  5
240
100
AcDbEntity
  8
0
100
AcDbLine
 62
7
  6
BYLAYER
 10
15.5480964068
 20
42.1865863284
 11
13.1792788275
 21
43.554192856
  0
LINE
  5
241
100
AcDbEntity
  8
0
100
AcDbLine
 62
7
  6
BYLAYER
 10
29.6549554424
 20
34.4096688931
 11
25.4122970915
 21
36.8591134203
  0
LINE
  5
242
100
AcDbEntity
  8
0
100
AcDbLine
 62
7
  6
BYLAYER
 10
23.4323604215
 20
43.6360001203
 11
23.4323604215
 21
42.0846120749
  0
LINE
  5
243
100
AcDbEntity
  8
0
100
AcDbLine
 62
7
  6
BYLAYER
 10
25.4122970915
 20
39.7168718802
 11
25.4122970915
 21
36.8591134203
  0
LINE
  5
244
100
AcDbEntity
  8
0
100
AcDbLine
 62
7
  6
BYLAYER
 10
22.3009942819
 20
41.4314214287
 11
25.4122970915
 21
39.6351505511
  0
LINE
  5
245
100
AcDbEntity
  8
0
100
AcDbLine
 62
7
  6
BYLAYER
 10
32.059108489
 20
35.7976990163
 11
34.3218596094
 21
34.4913286018
  0
LINE
  5
246
100
AcDbEntity
  8
0
100
AcDbLine
 62
7
  6
BYLAYER
 10
29.6549554424
 20
37.2674273531
 11
25.4122970915
 21
39.7168718802
  0
LINE
  5
247
100
AcDbEntity
  8
0
100
AcDbLine
 62
7
  6
BYLAYER
 10
26.8264517746
 20
74.4717701845
 11
26.8264517746
 21
72.5810144771
  0
LINE
  5
248
100
AcDbEntity
  8
0
100
AcDbLine
 62
7
  6
BYLAYER
 10
38.635217157
 20
53.1892627063
 11
37.2210094825
 21
52.3727743986
  0
LINE
  5
249
100
AcDbEntity
  8
0
100
AcDbLine
 62
7
  6
BYLAYER
 10
47.2618898589
 20
58.1698447829
 11
47.9689878082
 21
58.5780855374
  0
LINE
  5
24A
100
AcDbEntity
  8
0
100
AcDbLine
 62
7
  6
BYLAYER
 10
29.1317440104
 20
46.8979658088
 11
27.5054051848
 21
45.9590042549
  0
LINE
  5
24B
100
AcDbEntity
  8
0
100
AcDbLine
 62
7
  6
BYLAYER
 10
39.3423268821
 20
52.7810219518
 11
37.9281192077
 21
51.964533644
  0
LINE
  5
24C
100
AcDbEntity
  8
0
100
AcDbLine
 62
7
  6
BYLAYER
 10
47.2618898589
 20
57.3533564751
 11
48.6760975333
 21
58.1698447829
  0
LINE
  5
24D
100
AcDbEntity
  8
0
100
AcDbLine
 62
7
  6
BYLAYER
 10
22.3009942819
 20
41.4314214287
 11
23.4323604215
 21
42.0846120749
  0
LINE
  5
24E
100
AcDbEntity
  8
0
100
AcDbLine
 62
7
  6
BYLAYER
 10
29.117475791
 20
45.0282959119
 11
30.7438146166
 21
45.9672574658
  0
LINE
  5
24F
100
AcDbEntity
  8
0
100
AcDbLine
 62
7
  6
BYLAYER
 10
34.3218596094
 20
35.7976990163
 11
33.1904746285
 21
36.4508896625
  0
LINE
  5
250
100
AcDbEntity
  8
0
100
AcDbLine
 62
7
  6
BYLAYER
 10
26.4728894723
 20
40.3292015216
 11
23.4323604215
 21
42.0846120749
  0
LINE
  5
251
100
AcDbEntity
  8
0
100
AcDbLine
 62
7
  6
BYLAYER
 10
34.3218596094
 20
37.3490870618
 11
22.3009942819
 21
44.2891798886
  0
LINE
  5
252
100
AcDbEntity
  8
0
100
AcDbLine
 62
7
  6
BYLAYER
 10
29.1598879607
 20
78.418872224
 11
29.1598991477
 21
71.2338284855
  0
LINE
  5
253
100
AcDbEntity
  8
0
100
AcDbLine
 62
7
  6
BYLAYER
 10
29.6549554424
 20
37.2674273531
 11
29.6549554424
 21
34.4096688931
  0
LINE
  5
254
100
AcDbEntity
  8
0
100
AcDbLine
 62
7
  6
BYLAYER
 10
30.64487373
 20
11.0984888283
 11
30.64487373
 21
10.4452325336
  0
LINE
  5
255
100
AcDbEntity
  8
0
100
AcDbLine
 62
7
  6
BYLAYER
 10
30.64487373
 20
68.1719534247
 11
30.64487373
 21
69.8866085006
  0
LINE
  5
256
100
AcDbEntity
  8
0
100
AcDbLine
 62
7
  6
BYLAYER
 10
30.7438146166
 20
44.3750777524
 11
29.117475791
 21
43.4361161985
  0
LINE
  5
257
100
AcDbEntity
  8
0
100
AcDbLine
 62
7
  6
BYLAYER
 10
25.4122970915
 20
39.7168718802
 11
27.8164501381
 21
41.1049020034
  0
LINE
  5
258
100
AcDbEntity
  8
0
100
AcDbLine
 62
7
  6
BYLAYER
 10
27.5054051848
 20
44.3668245415
 11
29.117475791
 21
43.4361161985
  0
LINE
  5
259
100
AcDbEntity
  8
0
100
AcDbLine
 62
7
  6
BYLAYER
 10
15.5480964068
 20
51.3314134002
 11
13.1792788275
 21
52.6990199279
  0
LINE
  5
25A
100
AcDbEntity
  8
0
100
AcDbLine
 62
7
  6
BYLAYER
 10
33.1904746285
 20
38.0022777079
 11
33.1904746285
 21
36.4508896625
  0
LINE
  5
25B
100
AcDbEntity
  8
0
100
AcDbLine
 62
7
  6
BYLAYER
 10
29.117475791
 20
45.0282959119
 11
27.5054051848
 21
45.9590042549
  0
LINE
  5
25C
100
AcDbEntity
  8
0
100
AcDbLine
 62
7
  6
BYLAYER
 10
30.7438146166
 20
45.9672574658
 11
29.1317440104
 21
46.8979658088
  0
LINE
  5
25D
100
AcDbEntity
  8
0
100
AcDbLine
 62
7
  6
BYLAYER
 10
34.3218596094
 20
34.4913286018
 11
34.3218596094
 21
37.3490870618
  0
LINE
  5
25E
100
AcDbEntity
  8
0
100
AcDbLine
 62
7
  6
BYLAYER
 10
32.059108489
 20
38.6554574762
 11
29.6549554424
 21
37.2674273531
  0
LINE
  5
25F
100
AcDbEntity
  8
0
100
AcDbLine
 62
7
  6
BYLAYER
 10
37.2210094825
 20
16.120067078
 11
37.2210094825
 21
7.301840973
  0
LINE
  5
260
100
AcDbEntity
  8
0
100
AcDbLine
 62
7
  6
BYLAYER
 10
37.2210094825
 20
52.3727743986
 11
37.2210094825
 21
61.1910005036
  0
LINE
  5
261
100
AcDbEntity
  8
0
100
AcDbLine
 62
7
  6
BYLAYER
 10
37.7159121022
 20
72.2543949634
 11
37.7159121022
 21
73.9690500394
  0
LINE
  5
262
100
AcDbEntity
  8
0
100
AcDbLine
 62
7
  6
BYLAYER
 10
37.9281192077
 20
51.964533644
 11
37.9281192077
 21
15.7118263235
  0
LINE
  5
263
100
AcDbEntity
  8
0
100
AcDbLine
 62
7
  6
BYLAYER
 10
38.635217157
 20
16.120067078
 11
38.635217157
 21
8.1183292807
  0
LINE
  5
264
100
AcDbEntity
  8
0
100
AcDbLine
 62
7
  6
BYLAYER
 10
38.635217157
 20
53.1892627063
 11
38.635217157
 21
62.0074888113
  0
LINE
  5
265
100
AcDbEntity
  8
0
100
AcDbLine
 62
7
  6
BYLAYER
 10
39.3423268821
 20
16.5283146312
 11
39.3423268821
 21
6.648635384
  0
LINE
  5
266
100
AcDbEntity
  8
0
100
AcDbLine
 62
7
  6
BYLAYER
 10
39.3423268821
 20
52.7810219518
 11
39.3423268821
 21
62.660701199
  0
LINE
  5
267
100
AcDbEntity
  8
0
100
AcDbLine
 62
7
  6
BYLAYER
 10
33.1904746285
 20
36.4508896625
 11
29.6549554424
 21
34.4096688931
  0
LINE
  5
268
100
AcDbEntity
  8
0
100
AcDbLine
 62
7
  6
BYLAYER
 10
27.5614438456
 20
31.6261577294
 11
29.1877826712
 21
32.5651192833
  0
LINE
  5
269
100
AcDbEntity
  8
0
100
AcDbLine
 62
7
  6
BYLAYER
 10
41.357551916
 20
60.0792953235
 11
41.357551916
 21
58.9646700259
  0
LINE
  5
26A
100
AcDbEntity
  8
0
100
AcDbLine
 62
7
  6
BYLAYER
 10
41.357551916
 20
13.2405346667
 11
41.357551916
 21
14.3551599643
  0
LINE
  5
26B
100
AcDbEntity
  8
0
100
AcDbLine
 62
7
  6
BYLAYER
 10
42.0646616411
 20
60.5173105462
 11
42.0646616411
 21
58.5564292714
  0
LINE
  5
26C
100
AcDbEntity
  8
0
100
AcDbLine
 62
7
  6
BYLAYER
 10
42.0646616411
 20
12.8322939122
 11
42.0646616411
 21
14.793175187
  0
LINE
  5
26D
100
AcDbEntity
  8
0
100
AcDbLine
 62
7
  6
BYLAYER
 10
15.5480964068
 20
64.8853535246
 11
18.0936914173
 21
63.4156868083
  0
LINE
  5
26E
100
AcDbEntity
  8
0
100
AcDbLine
 62
7
  6
BYLAYER
 10
37.2210094825
 20
52.3727743986
 11
37.9281192077
 21
51.964533644
  0
LINE
  5
26F
100
AcDbEntity
  8
0
100
AcDbLine
 62
7
  6
BYLAYER
 10
42.2060765207
 20
61.4769859135
 11
42.2060765207
 21
61.4154442854
  0
LINE
  5
270
100
AcDbEntity
  8
0
100
AcDbLine
 62
7
  6
BYLAYER
 10
42.2060765207
 20
15.6913089261
 11
42.2060765207
 21
15.7528505542
  0
LINE
  5
271
100
AcDbEntity
  8
0
100
AcDbLine
 62
7
  6
BYLAYER
 10
42.9131862458
 20
62.2063897751
 11
42.9131862458
 21
61.0072035309
  0
LINE
  5
272
100
AcDbEntity
  8
0
100
AcDbLine
 62
7
  6
BYLAYER
 10
42.9131862458
 20
15.2830681716
 11
42.9131862458
 21
16.4822544158
  0
LINE
  5
273
100
AcDbEntity
  8
0
100
AcDbLine
 62
7
  6
BYLAYER
 10
29.0614371303
 20
29.028077641
 11
30.6877759559
 21
29.9670391949
  0
LINE
  5
274
100
AcDbEntity
  8
0
100
AcDbLine
 62
7
  6
BYLAYER
 10
17.4926481509
 20
19.9981618915
 11
18.0936914173
 21
20.3451723118
  0
LINE
  5
275
100
AcDbEntity
  8
0
100
AcDbLine
 62
7
  6
BYLAYER
 10
39.3423268821
 20
52.7810219518
 11
38.635217157
 21
53.1892627063
  0
LINE
  5
276
100
AcDbEntity
  8
0
100
AcDbLine
 62
7
  6
BYLAYER
 10
18.0936914173
 20
65.9467794864
 11
17.7401183021
 21
66.1509104016
  0
LINE
  5
277
100
AcDbEntity
  8
0
100
AcDbLine
 62
7
  6
BYLAYER
 10
47.2618898589
 20
21.1006491546
 11
47.2618898589
 21
11.2209699073
  0
LINE
  5
278
100
AcDbEntity
  8
0
100
AcDbLine
 62
7
  6
BYLAYER
 10
47.2618898589
 20
57.3533564751
 11
47.2618898589
 21
67.2330357224
  0
LINE
  5
279
100
AcDbEntity
  8
0
100
AcDbLine
 62
7
  6
BYLAYER
 10
47.9689878082
 20
67.3963116424
 11
47.9689878082
 21
58.5780855374
  0
LINE
  5
27A
100
AcDbEntity
  8
0
100
AcDbLine
 62
7
  6
BYLAYER
 10
47.9689878082
 20
13.5071521118
 11
47.9689878082
 21
21.5088899091
  0
LINE
  5
27B
100
AcDbEntity
  8
0
100
AcDbLine
 62
7
  6
BYLAYER
 10
48.6760975333
 20
21.9171374623
 11
48.6760975333
 21
58.1698447829
  0
LINE
  5
27C
100
AcDbEntity
  8
0
100
AcDbLine
 62
7
  6
BYLAYER
 10
17.4926481509
 20
71.2745136873
 11
18.0936914173
 21
70.9275090459
  0
LINE
  5
27D
100
AcDbEntity
  8
0
100
AcDbLine
 62
7
  6
BYLAYER
 10
37.2210094825
 20
61.1910005036
 11
17.4926481509
 21
72.5809175547
  0
LINE
  5
27E
100
AcDbEntity
  8
0
100
AcDbLine
 62
7
  6
BYLAYER
 10
41.357551916
 20
58.9646700259
 11
42.0646616411
 21
58.5564292714
  0
LINE
  5
27F
100
AcDbEntity
  8
0
100
AcDbLine
 62
7
  6
BYLAYER
 10
38.635217157
 20
62.0074888113
 11
18.9068558254
 21
73.3974058624
  0
LINE
  5
280
100
AcDbEntity
  8
0
100
AcDbLine
 62
7
  6
BYLAYER
 10
41.6838964287
 20
60.7371404709
 11
42.0646616411
 21
60.5173105462
  0
LINE
  5
281
100
AcDbEntity
  8
0
100
AcDbLine
 62
7
  6
BYLAYER
 10
39.3423268821
 20
62.660701199
 11
18.9068558254
 21
74.4588590047
  0
LINE
  5
282
100
AcDbEntity
  8
0
100
AcDbLine
 62
7
  6
BYLAYER
 10
42.2060765207
 20
61.4154442854
 11
42.9131862458
 21
61.0072035309
  0
LINE
  5
283
100
AcDbEntity
  8
0
100
AcDbLine
 62
7
  6
BYLAYER
 10
22.4424009183
 20
72.9075461771
 11
30.64487373
 21
68.1719534247
  0
LINE
  5
284
100
AcDbEntity
  8
0
100
AcDbLine
 62
7
  6
BYLAYER
 10
47.9689878082
 20
58.5780855374
 11
48.6760975333
 21
58.1698447829
  0
LINE
  5
285
100
AcDbEntity
  8
0
100
AcDbLine
 62
7
  6
BYLAYER
 10
19.6846700463
 20
74.9079275739
 11
17.7401183021
 21
76.0305896489
  0
LINE
  5
286
100
AcDbEntity
  8
0
100
AcDbLine
 62
7
  6
BYLAYER
 10
22.4424009183
 20
74.6222012531
 11
30.64487373
 21
69.8866085006
  0
LINE
  5
287
100
AcDbEntity
  8
0
100
AcDbLine
 62
7
  6
BYLAYER
 10
22.9373741932
 20
74.82632367
 11
30.9277140873
 21
70.2132031439
  0
LINE
  5
288
100
AcDbEntity
  8
0
100
AcDbLine
 62
7
  6
BYLAYER
 10
39.3423268821
 20
16.5283146312
 11
37.9281192077
 21
15.7118263235
  0
LINE
  5
289
100
AcDbEntity
  8
0
100
AcDbLine
 62
7
  6
BYLAYER
 10
47.2618898589
 20
21.1006491546
 11
48.6760975333
 21
21.9171374623
  0
LINE
  5
28A
100
AcDbEntity
  8
0
100
AcDbLine
 62
7
  6
BYLAYER
 10
33.2610915643
 20
71.5603712168
 11
29.1598991477
 21
73.9281421964
  0
LINE
  5
28B
100
AcDbEntity
  8
0
100
AcDbLine
 62
7
  6
BYLAYER
 10
30.64487373
 20
10.4452325336
 11
31.2106183642
 21
10.7718634007
  0
LINE
  5
28C
100
AcDbEntity
  8
0
100
AcDbLine
 62
7
  6
BYLAYER
 10
42.0945738573
 20
15.6269332177
 11
42.2060765207
 21
15.6913089261
  0
LINE
  5
28D
100
AcDbEntity
  8
0
100
AcDbLine
 62
7
  6
BYLAYER
 10
29.1598991477
 20
73.9281421964
 11
26.8264517746
 21
74.4717701845
  0
LINE
  5
28E
100
AcDbEntity
  8
0
100
AcDbLine
 62
7
  6
BYLAYER
 10
26.0486045812
 20
78.5821249588
 11
24.1040528371
 21
79.7047870337
  0
LINE
  5
28F
100
AcDbEntity
  8
0
100
AcDbLine
 62
7
  6
BYLAYER
 10
26.8264188021
 20
79.031193528
 11
28.4527455096
 21
78.0922546073
  0
LINE
  5
290
100
AcDbEntity
  8
0
100
AcDbLine
 62
7
  6
BYLAYER
 10
37.7159121022
 20
72.7442838688
 11
47.2618898589
 21
67.2330357224
  0
LINE
  5
291
100
AcDbEntity
  8
0
100
AcDbLine
 62
7
  6
BYLAYER
 10
28.2406264766
 20
78.7862286935
 11
28.9476946563
 21
78.3780119247
  0
LINE
  5
292
100
AcDbEntity
  8
0
100
AcDbLine
 62
7
  6
BYLAYER
 10
37.7159121022
 20
73.3157937447
 11
47.9689878082
 21
67.3963116424
  0
LINE
  5
293
100
AcDbEntity
  8
0
100
AcDbLine
 62
7
  6
BYLAYER
 10
37.1502278548
 20
73.8057516979
 11
29.1598879607
 21
78.418872224
  0
LINE
  5
294
100
AcDbEntity
  8
0
100
AcDbLine
 62
7
  6
BYLAYER
 10
37.7159121022
 20
73.9690500394
 11
29.5134392905
 21
78.7046427918
  0
LINE
  5
295
100
AcDbEntity
  8
0
100
AcDbLine
 62
7
  6
BYLAYER
 10
42.0646616411
 20
14.793175187
 11
42.9131862458
 21
15.2830681716
  0
LINE
  5
296
100
AcDbEntity
  8
0
100
AcDbLine
 62
7
  6
BYLAYER
 10
38.635217157
 20
8.1183292807
 11
37.2210094825
 21
7.301840973
  0
LINE
  5
297
100
AcDbEntity
  8
0
100
AcDbLine
 62
7
  6
BYLAYER
 10
47.2618898589
 20
13.0989113574
 11
47.9689878082
 21
13.5071521118
  0
LINE
  5
298
100
AcDbEntity
  8
0
100
AcDbLine
 62
7
  6
BYLAYER
 10
47.2618898589
 20
11.2209699073
 11
39.3423268821
 21
6.648635384
  0
SPLINE
  5
299
100
AcDbEntity
  8
0
100
AcDbSpline
 62
7
  6
BYLAYER
 70
0
 71
3
 72
12
 73
8
 74
0
 42
0.0000001
 43
0.0000001
 44
0.0000000001
 40
0.0
 40
0.0
 40
0.0
 40
0.0
 40
0.1081693544
 40
0.2183735177
 40
0.4513309383
 40
0.7105262175
 40
1.0
 40
1.0
 40
1.0
 40
1.0
 10
30.9438375882
 20
48.6705085475
 30
0.0
 10
30.9733485499
 20
48.6875519794
 30
0.0
 10
31.0300681882
 20
48.7271857511
 30
0.0
 10
31.1318703075
 20
48.8272632605
 30
0.0
 10
31.2327061363
 20
48.9916320925
 30
0.0
 10
31.3027723654
 20
49.2298467664
 30
0.0
 10
31.3166432775
 20
49.4033168266
 30
0.0
 10
31.3166432775
 20
49.4945160869
 30
0.0
  0
SPLINE
  5
29A
100
AcDbEntity
  8
0
100
AcDbSpline
 62
7
  6
BYLAYER
 70
0
 71
3
 72
20
 73
16
 74
0
 42
0.0000001
 43
0.0000001
 44
0.0000000001
 40
0.0
 40
0.0
 40
0.0
 40
0.0
 40
0.0428305003
 40
0.0874294165
 40
0.135231355
 40
0.1871614829
 40
0.2436310239
 40
0.3046112396
 40
0.3697363172
 40
0.4383710902
 40
0.5826208773
 40
0.729685327
 40
0.8711937848
 40
0.9376359647
 40
1.0
 40
1.0
 40
1.0
 40
1.0
 10
29.0614236752
 20
29.0281008499
 30
0.0
 10
29.0244535203
 20
29.0067364407
 30
0.0
 10
28.9429311533
 20
28.9728714914
 30
0.0
 10
28.8083778265
 20
28.9531339202
 30
0.0
 10
28.6638846852
 20
28.9637947365
 30
0.0
 10
28.5126543012
 20
29.0039446791
 30
0.0
 10
28.3576811421
 20
29.0724607731
 30
0.0
 10
28.2020115089
 20
29.1676608331
 30
0.0
 10
28.04885145
 20
29.2875987611
 30
0.0
 10
27.8489363671
 20
29.4801176435
 30
0.0
 10
27.6268046041
 20
29.7646074465
 30
0.0
 10
27.4205907638
 20
30.145673247
 30
0.0
 10
27.3064248208
 20
30.4830713447
 30
0.0
 10
27.259268387
 20
30.7488067626
 30
0.0
 10
27.2507759002
 20
30.8773058161
 30
0.0
 10
27.2507759002
 20
30.939478817
 30
0.0
  0
SPLINE
  5
29B
100
AcDbEntity
  8
0
100
AcDbSpline
 62
7
  6
BYLAYER
 70
0
 71
3
 72
12
 73
8
 74
0
 42
0.0000001
 43
0.0000001
 44
0.0000000001
 40
0.0
 40
0.0
 40
0.0
 40
0.0
 40
0.1081693544
 40
0.2183735177
 40
0.4513309383
 40
0.7105262175
 40
1.0
 40
1.0
 40
1.0
 40
1.0
 10
30.9438375882
 20
24.9919384507
 30
0.0
 10
30.9733485499
 20
25.0089818827
 30
0.0
 10
31.0300681882
 20
25.0486156544
 30
0.0
 10
31.1318703075
 20
25.1486931637
 30
0.0
 10
31.2327061363
 20
25.3130619957
 30
0.0
 10
31.3027723654
 20
25.5512766696
 30
0.0
 10
31.3166432775
 20
25.7247467298
 30
0.0
 10
31.3166432775
 20
25.8159459901
 30
0.0
  0
SPLINE
  5
29C
100
AcDbEntity
  8
0
100
AcDbSpline
 62
7
  6
BYLAYER
 70
0
 71
3
 72
22
 73
18
 74
0
 42
0.0000001
 43
0.0000001
 44
0.0000000001
 40
0.0
 40
0.0
 40
0.0
 40
0.0
 40
0.0428176102
 40
0.0874050125
 40
0.1351945673
 40
0.187109451
 40
0.2435641303
 40
0.3045298975
 40
0.3696350617
 40
0.4382525708
 40
0.5095592787
 40
0.5826032416
 40
0.7296214255
 40
0.8016197251
 40
0.8712272414
 40
0.937618014
 40
1.0
 40
1.0
 40
1.0
 40
1.0
 10
44.9520691564
 20
16.9366484384
 30
0.0
 10
44.8707157241
 20
16.9836159682
 30
0.0
 10
44.69138829
 20
17.0581630151
 30
0.0
 10
44.3953521874
 20
17.1015500463
 30
0.0
 10
44.0774605395
 20
17.0781234765
 30
0.0
 10
43.7447540997
 20
16.9897569412
 30
0.0
 10
43.4037870598
 20
16.8390520603
 30
0.0
 10
43.0613466293
 20
16.6295297613
 30
0.0
 10
42.7243531609
 20
16.3657339914
 30
0.0
 10
42.3998637121
 20
16.0532056816
 30
0.0
 10
42.0946383606
 20
15.6985548421
 30
0.0
 10
41.7214762969
 20
15.1788299991
 30
0.0
 10
41.4147574525
 20
14.6119900618
 30
0.0
 10
41.1876325465
 20
14.0202376753
 30
0.0
 10
41.0635105634
 20
13.5803468627
 30
0.0
 10
40.9872654201
 20
13.1511238536
 30
0.0
 10
40.9686657077
 20
12.8684225133
 30
0.0
 10
40.9686657077
 20
12.7315621658
 30
0.0
  0
SPLINE
  5
29D
100
AcDbEntity
  8
0
100
AcDbSpline
 62
7
  6
BYLAYER
 70
0
 71
3
 72
22
 73
18
 74
0
 42
0.0000001
 43
0.0000001
 44
0.0000000001
 40
0.0
 40
0.0
 40
0.0
 40
0.0
 40
0.0428176102
 40
0.0874050125
 40
0.1351945673
 40
0.187109451
 40
0.2435641303
 40
0.3045298975
 40
0.3696350617
 40
0.4382525708
 40
0.5095592787
 40
0.5826032416
 40
0.7296214255
 40
0.8016197251
 40
0.8712272414
 40
0.937618014
 40
1.0
 40
1.0
 40
1.0
 40
1.0
 10
44.9520691564
 20
62.6607837976
 30
0.0
 10
44.8707157241
 20
62.7077513275
 30
0.0
 10
44.69138829
 20
62.7822983744
 30
0.0
 10
44.3953521874
 20
62.8256854056
 30
0.0
 10
44.0774605395
 20
62.8022588357
 30
0.0
 10
43.7447540997
 20
62.7138923005
 30
0.0
 10
43.4037870598
 20
62.5631874195
 30
0.0
 10
43.0613466293
 20
62.3536651205
 30
0.0
 10
42.7243531609
 20
62.0898693507
 30
0.0
 10
42.3998637121
 20
61.7773410409
 30
0.0
 10
42.0946383606
 20
61.4226902014
 30
0.0
 10
41.7214762969
 20
60.9029653583
 30
0.0
 10
41.4147574525
 20
60.336125421
 30
0.0
 10
41.1876325465
 20
59.7443730346
 30
0.0
 10
41.0635105634
 20
59.304482222
 30
0.0
 10
40.9872654201
 20
58.8752592128
 30
0.0
 10
40.9686657077
 20
58.5925578726
 30
0.0
 10
40.9686657077
 20
58.455697525
 30
0.0
  0
SPLINE
  5
29E
100
AcDbEntity
  8
0
100
AcDbSpline
 62
7
  6
BYLAYER
 70
0
 71
3
 72
19
 73
15
 74
0
 42
0.0000001
 43
0.0000001
 44
0.0000000001
 40
0.0
 40
0.0
 40
0.0
 40
0.0
 40
0.062391684
 40
0.1288324836
 40
0.2703533745
 40
0.4174431196
 40
0.5617172598
 40
0.6953244085
 40
0.7563177584
 40
0.812797985
 40
0.8647366222
 40
0.9125504304
 40
0.9571578829
 40
1.0
 40
1.0
 40
1.0
 40
1.0
 10
31.3166432775
 20
25.8159459901
 30
0.0
 10
31.3166432775
 20
25.8905734909
 30
0.0
 10
31.3064755243
 20
26.0447779686
 30
0.0
 10
31.2498468667
 20
26.3636481609
 30
0.0
 10
31.1128823702
 20
26.768459505
 30
0.0
 10
30.8653589011
 20
27.2258727503
 30
0.0
 10
30.5510030267
 20
27.6283462492
 30
0.0
 10
30.2451476176
 20
27.8992194221
 30
0.0
 10
29.9884004697
 20
28.0563833198
 30
0.0
 10
29.8024064348
 20
28.1385758025
 30
0.0
 10
29.6209351241
 20
28.1867724885
 30
0.0
 10
29.4475361592
 20
28.1995745412
 30
0.0
 10
29.2860674229
 20
28.175865432
 30
0.0
 10
29.1882291395
 20
28.1352481946
 30
0.0
 10
29.1438539564
 20
28.1096202458
 30
0.0
  0
SPLINE
  5
29F
100
AcDbEntity
  8
0
100
AcDbSpline
 62
7
  6
BYLAYER
 70
0
 71
3
 72
19
 73
15
 74
0
 42
0.0000001
 43
0.0000001
 44
0.0000000001
 40
0.0
 40
0.0
 40
0.0
 40
0.0
 40
0.062391684
 40
0.1288324836
 40
0.2703533745
 40
0.4174431196
 40
0.5617172598
 40
0.6953244085
 40
0.7563177584
 40
0.812797985
 40
0.8647366222
 40
0.9125504304
 40
0.9571578829
 40
1.0
 40
1.0
 40
1.0
 40
1.0
 10
31.3166432775
 20
49.4945160869
 30
0.0
 10
31.3166432775
 20
49.5691435877
 30
0.0
 10
31.3064755243
 20
49.7233480654
 30
0.0
 10
31.2498468667
 20
50.0422182576
 30
0.0
 10
31.1128823702
 20
50.4470296018
 30
0.0
 10
30.8653589011
 20
50.904442847
 30
0.0
 10
30.5510030267
 20
51.306916346
 30
0.0
 10
30.2451476176
 20
51.5777895189
 30
0.0
 10
29.9884004697
 20
51.7349534166
 30
0.0
 10
29.8024064348
 20
51.8171458992
 30
0.0
 10
29.6209351241
 20
51.8653425853
 30
0.0
 10
29.4475361592
 20
51.878144638
 30
0.0
 10
29.2860674229
 20
51.8544355288
 30
0.0
 10
29.1882291395
 20
51.8138182914
 30
0.0
 10
29.1438539564
 20
51.7881903426
 30
0.0
  0
SPLINE
  5
2A0
100
AcDbEntity
  8
0
100
AcDbSpline
 62
7
  6
BYLAYER
 70
0
 71
3
 72
14
 73
10
 74
0
 42
0.0000001
 43
0.0000001
 44
0.0000000001
 40
0.0
 40
0.0
 40
0.0
 40
0.0
 40
0.2892476957
 40
0.422570633
 40
0.5485184169
 40
0.6678940079
 40
0.7818673926
 40
0.8919563644
 40
1.0
 40
1.0
 40
1.0
 40
1.0
 10
40.9686657077
 20
58.455697525
 30
0.0
 10
40.9686657077
 20
58.2884487885
 30
0.0
 10
40.988223436
 20
58.0429141891
 30
0.0
 10
41.0636687797
 20
57.734296224
 30
0.0
 10
41.1404749914
 20
57.5286464854
 30
0.0
 10
41.2383573751
 20
57.3446512612
 30
0.0
 10
41.3565883796
 20
57.1841320362
 30
0.0
 10
41.4939959832
 20
57.048816559
 30
0.0
 10
41.5980438627
 20
56.9762582053
 30
0.0
 10
41.6521475846
 20
56.945022668
 30
0.0
  0
SPLINE
  5
2A1
100
AcDbEntity
  8
0
100
AcDbSpline
 62
7
  6
BYLAYER
 70
0
 71
3
 72
14
 73
10
 74
0
 42
0.0000001
 43
0.0000001
 44
0.0000000001
 40
0.0
 40
0.0
 40
0.0
 40
0.0
 40
0.2892476957
 40
0.422570633
 40
0.5485184169
 40
0.6678940079
 40
0.7818673926
 40
0.8919563644
 40
1.0
 40
1.0
 40
1.0
 40
1.0
 10
40.9686657077
 20
12.7315621658
 30
0.0
 10
40.9686657077
 20
12.5643134293
 30
0.0
 10
40.988223436
 20
12.3187788299
 30
0.0
 10
41.0636687797
 20
12.0101608647
 30
0.0
 10
41.1404749914
 20
11.8045111261
 30
0.0
 10
41.2383573751
 20
11.620515902
 30
0.0
 10
41.3565883796
 20
11.4599966769
 30
0.0
 10
41.4939959832
 20
11.3246811997
 30
0.0
 10
41.5980438627
 20
11.2521228461
 30
0.0
 10
41.6521475846
 20
11.2208873087
 30
0.0
  0
SPLINE
  5
2A2
100
AcDbEntity
  8
0
100
AcDbSpline
 62
7
  6
BYLAYER
 70
0
 71
3
 72
11
 73
7
 74
0
 42
0.0000001
 43
0.0000001
 44
0.0000000001
 40
0.0
 40
0.0
 40
0.0
 40
0.0
 40
0.2868344597
 40
0.5465660041
 40
0.7818648401
 40
1.0
 40
1.0
 40
1.0
 40
1.0
 10
27.2507759002
 20
45.3099213585
 30
0.0
 10
27.2507759002
 20
45.3787803995
 30
0.0
 10
27.2603123465
 20
45.5103355872
 30
0.0
 10
27.3079887604
 20
45.6931987713
 30
0.0
 10
27.3880243711
 20
45.8464526561
 30
0.0
 10
27.4639668682
 20
45.9269864695
 30
0.0
 10
27.5054051848
 20
45.9590042549
 30
0.0
  0
SPLINE
  5
2A3
100
AcDbEntity
  8
0
100
AcDbSpline
 62
7
  6
BYLAYER
 70
0
 71
3
 72
11
 73
7
 74
0
 42
0.0000001
 43
0.0000001
 44
0.0000000001
 40
0.0
 40
0.0
 40
0.0
 40
0.0
 40
0.2664302848
 40
0.5251096188
 40
0.7709809272
 40
1.0
 40
1.0
 40
1.0
 40
1.0
 10
27.5054051848
 20
44.3668245415
 30
0.0
 10
27.4651064343
 20
44.4444937643
 30
0.0
 10
27.3933980946
 20
44.6017296491
 30
0.0
 10
27.3129688485
 20
44.8423492094
 30
0.0
 10
27.2631569065
 20
45.078616968
 30
0.0
 10
27.2507759002
 20
45.234706588
 30
0.0
 10
27.2507759002
 20
45.3099213585
 30
0.0
  0
SPLINE
  5
2A4
100
AcDbEntity
  8
0
100
AcDbSpline
 62
7
  6
BYLAYER
 70
0
 71
3
 72
11
 73
7
 74
0
 42
0.0000001
 43
0.0000001
 44
0.0000000001
 40
0.0
 40
0.0
 40
0.0
 40
0.0
 40
0.2896413964
 40
0.5491107671
 40
0.7822355978
 40
1.0
 40
1.0
 40
1.0
 40
1.0
 10
27.2507759002
 20
30.939478817
 30
0.0
 10
27.2507759002
 20
31.0154646408
 30
0.0
 10
27.2623257735
 20
31.1600076635
 30
0.0
 10
27.3208278355
 20
31.3586051311
 30
0.0
 10
27.4193743411
 20
31.5197952182
 30
0.0
 10
27.5119932894
 20
31.5975501291
 30
0.0
 10
27.5614573006
 20
31.6261345205
 30
0.0
  0
SPLINE
  5
2A5
100
AcDbEntity
  8
0
100
AcDbSpline
 62
7
  6
BYLAYER
 70
0
 71
3
 72
12
 73
8
 74
0
 42
0.0000001
 43
0.0000001
 44
0.0000000001
 40
0.0
 40
0.0
 40
0.0
 40
0.0
 40
0.1081693544
 40
0.2183735177
 40
0.4513309383
 40
0.7105262175
 40
1.0
 40
1.0
 40
1.0
 40
1.0
 10
29.1438539564
 20
28.1096202458
 30
0.0
 10
29.1143429947
 20
28.0925768139
 30
0.0
 10
29.0576233564
 20
28.0529430422
 30
0.0
 10
28.9558212371
 20
27.9528655328
 30
0.0
 10
28.8549854083
 20
27.7884967008
 30
0.0
 10
28.7849191792
 20
27.5502820269
 30
0.0
 10
28.771048267
 20
27.3768119667
 30
0.0
 10
28.771048267
 20
27.2856127064
 30
0.0
  0
SPLINE
  5
2A6
100
AcDbEntity
  8
0
100
AcDbSpline
 62
7
  6
BYLAYER
 70
0
 71
3
 72
9
 73
5
 74
0
 42
0.0000001
 43
0.0000001
 44
0.0000000001
 40
0.0
 40
0.0
 40
0.0
 40
0.0
 40
0.2397167908
 40
1.0
 40
1.0
 40
1.0
 40
1.0
 10
43.7820037622
 20
16.9949272537
 30
0.0
 10
43.790499491
 20
16.9533682259
 30
0.0
 10
43.8209467478
 20
16.7789912722
 30
0.0
 10
43.8324212342
 20
16.6015216059
 30
0.0
 10
43.8324212342
 20
16.4669875054
 30
0.0
  0
SPLINE
  5
2A7
100
AcDbEntity
  8
0
100
AcDbSpline
 62
7
  6
BYLAYER
 70
0
 71
3
 72
11
 73
7
 74
0
 42
0.0000001
 43
0.0000001
 44
0.0000000001
 40
0.0
 40
0.0
 40
0.0
 40
0.0
 40
0.2177660095
 40
0.4508968553
 40
0.7103699668
 40
1.0
 40
1.0
 40
1.0
 40
1.0
 10
30.6877601491
 20
29.9670663707
 30
0.0
 10
30.7372245836
 20
29.9956507098
 30
0.0
 10
30.8298493404
 20
30.0734018814
 30
0.0
 10
30.9283929383
 20
30.2345981956
 30
0.0
 10
30.9868940092
 20
30.4331944547
 30
0.0
 10
30.9984439012
 20
30.5777353728
 30
0.0
 10
30.9984439012
 20
30.6537181073
 30
0.0
  0
SPLINE
  5
2A8
100
AcDbEntity
  8
0
100
AcDbSpline
 62
7
  6
BYLAYER
 70
0
 71
3
 72
11
 73
7
 74
0
 42
0.0000001
 43
0.0000001
 44
0.0000000001
 40
0.0
 40
0.0
 40
0.0
 40
0.0
 40
0.2896413964
 40
0.5491107671
 40
0.7822355978
 40
1.0
 40
1.0
 40
1.0
 40
1.0
 10
29.3721050756
 20
29.7147565534
 30
0.0
 10
29.3721050756
 20
29.6387707296
 30
0.0
 10
29.3605552023
 20
29.4942277069
 30
0.0
 10
29.3020531403
 20
29.2956302393
 30
0.0
 10
29.2035066348
 20
29.1344401522
 30
0.0
 10
29.1108876865
 20
29.0566852413
 30
0.0
 10
29.0614236752
 20
29.0281008499
 30
0.0
  0
SPLINE
  5
2A9
100
AcDbEntity
  8
0
100
AcDbSpline
 62
7
  6
BYLAYER
 70
0
 71
3
 72
22
 73
18
 74
0
 42
0.0000001
 43
0.0000001
 44
0.0000000001
 40
0.0
 40
0.0
 40
0.0
 40
0.0
 40
0.0428176102
 40
0.0874050125
 40
0.1351945673
 40
0.187109451
 40
0.2435641303
 40
0.3045298975
 40
0.3696350617
 40
0.4382525708
 40
0.5095592787
 40
0.5826032416
 40
0.7296214255
 40
0.8016197251
 40
0.8712272414
 40
0.937618014
 40
1.0
 40
1.0
 40
1.0
 40
1.0
 10
41.6521475846
 20
11.2208873087
 30
0.0
 10
41.7335010169
 20
11.1739197789
 30
0.0
 10
41.912828451
 20
11.099372732
 30
0.0
 10
42.2088645536
 20
11.0559857008
 30
0.0
 10
42.5267562015
 20
11.0794122706
 30
0.0
 10
42.8594626412
 20
11.1677788059
 30
0.0
 10
43.2004296812
 20
11.3184836868
 30
0.0
 10
43.5428701116
 20
11.5280059858
 30
0.0
 10
43.8798635801
 20
11.7918017557
 30
0.0
 10
44.2043530289
 20
12.1043300655
 30
0.0
 10
44.5095783804
 20
12.458980905
 30
0.0
 10
44.8827404441
 20
12.978705748
 30
0.0
 10
45.1894592885
 20
13.5455456853
 30
0.0
 10
45.4165841945
 20
14.1372980718
 30
0.0
 10
45.5407061776
 20
14.5771888843
 30
0.0
 10
45.6169513209
 20
15.0064118935
 30
0.0
 10
45.6355510333
 20
15.2891132338
 30
0.0
 10
45.6355510333
 20
15.4259735813
 30
0.0
  0
SPLINE
  5
2AA
100
AcDbEntity
  8
0
100
AcDbSpline
 62
7
  6
BYLAYER
 70
0
 71
3
 72
9
 73
5
 74
0
 42
0.0000001
 43
0.0000001
 44
0.0000000001
 40
0.0
 40
0.0
 40
0.0
 40
0.0
 40
0.255481249
 40
1.0
 40
1.0
 40
1.0
 40
1.0
 10
41.357551916
 20
13.2405346667
 30
0.0
 10
41.3294303129
 20
13.2161846101
 30
0.0
 10
41.218112788
 20
13.1223270249
 30
0.0
 10
41.1017826968
 20
13.0343656867
 30
0.0
 10
41.0124360598
 20
12.9729766769
 30
0.0
  0
SPLINE
  5
2AB
100
AcDbEntity
  8
0
100
AcDbSpline
 62
7
  6
BYLAYER
 70
0
 71
3
 72
22
 73
18
 74
0
 42
0.0000001
 43
0.0000001
 44
0.0000000001
 40
0.0
 40
0.0
 40
0.0
 40
0.0
 40
0.0428176102
 40
0.0874050125
 40
0.1351945673
 40
0.187109451
 40
0.2435641303
 40
0.3045298975
 40
0.3696350617
 40
0.4382525708
 40
0.5095592787
 40
0.5826032416
 40
0.7296214255
 40
0.8016197251
 40
0.8712272414
 40
0.937618014
 40
1.0
 40
1.0
 40
1.0
 40
1.0
 10
41.6521475846
 20
56.945022668
 30
0.0
 10
41.7335010169
 20
56.8980551381
 30
0.0
 10
41.912828451
 20
56.8235080912
 30
0.0
 10
42.2088645536
 20
56.78012106
 30
0.0
 10
42.5267562015
 20
56.8035476299
 30
0.0
 10
42.8594626412
 20
56.8919141651
 30
0.0
 10
43.2004296812
 20
57.0426190461
 30
0.0
 10
43.5428701116
 20
57.2521413451
 30
0.0
 10
43.8798635801
 20
57.515937115
 30
0.0
 10
44.2043530289
 20
57.8284654247
 30
0.0
 10
44.5095783804
 20
58.1831162642
 30
0.0
 10
44.8827404441
 20
58.7028411073
 30
0.0
 10
45.1894592885
 20
59.2696810446
 30
0.0
 10
45.4165841945
 20
59.861433431
 30
0.0
 10
45.5407061776
 20
60.3013242436
 30
0.0
 10
45.6169513209
 20
60.7305472528
 30
0.0
 10
45.6355510333
 20
61.013248593
 30
0.0
 10
45.6355510333
 20
61.1501089406
 30
0.0
  0
SPLINE
  5
2AC
100
AcDbEntity
  8
0
100
AcDbSpline
 62
7
  6
BYLAYER
 70
0
 71
3
 72
11
 73
7
 74
0
 42
0.0000001
 43
0.0000001
 44
0.0000000001
 40
0.0
 40
0.0
 40
0.0
 40
0.0
 40
0.2868344597
 40
0.5465660041
 40
0.7818648401
 40
1.0
 40
1.0
 40
1.0
 40
1.0
 10
29.3721050756
 20
44.0851990949
 30
0.0
 10
29.3721050756
 20
44.0163400538
 30
0.0
 10
29.3625686293
 20
43.8847848662
 30
0.0
 10
29.3148922155
 20
43.701921682
 30
0.0
 10
29.2348566047
 20
43.5486677973
 30
0.0
 10
29.1589141077
 20
43.4681339839
 30
0.0
 10
29.117475791
 20
43.4361161985
 30
0.0
  0
SPLINE
  5
2AD
100
AcDbEntity
  8
0
100
AcDbSpline
 62
7
  6
BYLAYER
 70
0
 71
3
 72
11
 73
7
 74
0
 42
0.0000001
 43
0.0000001
 44
0.0000000001
 40
0.0
 40
0.0
 40
0.0
 40
0.0
 40
0.2664302848
 40
0.5251096188
 40
0.7709809272
 40
1.0
 40
1.0
 40
1.0
 40
1.0
 10
29.117475791
 20
45.0282959119
 30
0.0
 10
29.1577745415
 20
44.950626689
 30
0.0
 10
29.2294828812
 20
44.7933908042
 30
0.0
 10
29.3099121273
 20
44.552771244
 30
0.0
 10
29.3597240694
 20
44.3165034853
 30
0.0
 10
29.3721050756
 20
44.1604138654
 30
0.0
 10
29.3721050756
 20
44.0851990949
 30
0.0
  0
SPLINE
  5
2AE
100
AcDbEntity
  8
0
100
AcDbSpline
 62
7
  6
BYLAYER
 70
0
 71
3
 72
19
 73
15
 74
0
 42
0.0000001
 43
0.0000001
 44
0.0000000001
 40
0.0
 40
0.0
 40
0.0
 40
0.0
 40
0.062391684
 40
0.1288324836
 40
0.2703533745
 40
0.4174431196
 40
0.5617172598
 40
0.6953244085
 40
0.7563177584
 40
0.812797985
 40
0.8647366222
 40
0.9125504304
 40
0.9571578829
 40
1.0
 40
1.0
 40
1.0
 40
1.0
 10
28.771048267
 20
27.2856127064
 30
0.0
 10
28.771048267
 20
27.2109852057
 30
0.0
 10
28.7812160203
 20
27.0567807279
 30
0.0
 10
28.8378446779
 20
26.7379105357
 30
0.0
 10
28.9748091744
 20
26.3330991915
 30
0.0
 10
29.2223326434
 20
25.8756859463
 30
0.0
 10
29.5366885178
 20
25.4732124473
 30
0.0
 10
29.842543927
 20
25.2023392744
 30
0.0
 10
30.0992910749
 20
25.0451753767
 30
0.0
 10
30.2852851098
 20
24.9629828941
 30
0.0
 10
30.4667564204
 20
24.914786208
 30
0.0
 10
30.6401553854
 20
24.9019841553
 30
0.0
 10
30.8016241217
 20
24.9256932645
 30
0.0
 10
30.899462405
 20
24.966310502
 30
0.0
 10
30.9438375882
 20
24.9919384507
 30
0.0
  0
SPLINE
  5
2AF
100
AcDbEntity
  8
0
100
AcDbSpline
 62
7
  6
BYLAYER
 70
0
 71
3
 72
20
 73
16
 74
0
 42
0.0000001
 43
0.0000001
 44
0.0000000001
 40
0.0
 40
0.0
 40
0.0
 40
0.0
 40
0.0623646044
 40
0.1288050383
 40
0.2703051791
 40
0.4173629131
 40
0.5616119072
 40
0.6302495432
 40
0.6953765372
 40
0.7563593032
 40
0.8128296619
 40
0.8647616635
 40
0.9125646663
 40
0.9571664617
 40
1.0
 40
1.0
 40
1.0
 40
1.0
 10
30.9984439012
 20
30.6537181073
 30
0.0
 10
30.9984439012
 20
30.715891649
 30
0.0
 10
30.9899520202
 20
30.8443895032
 30
0.0
 10
30.9427972375
 20
31.1101155281
 30
0.0
 10
30.8286384359
 20
31.4474975999
 30
0.0
 10
30.622439909
 20
31.8285538208
 30
0.0
 10
30.4003132592
 20
32.1130405996
 30
0.0
 10
30.2004040345
 20
32.3055716263
 30
0.0
 10
30.0472370625
 20
32.4255119497
 30
0.0
 10
29.8915687606
 20
32.5207249751
 30
0.0
 10
29.7365891863
 20
32.5892378949
 30
0.0
 10
29.5853585132
 20
32.6294035343
 30
0.0
 10
29.4408595
 20
32.6400563419
 30
0.0
 10
29.3062968566
 20
32.6203324266
 30
0.0
 10
29.2247713355
 20
32.5864578566
 30
0.0
 10
29.1877984779
 20
32.5650921075
 30
0.0
  0
SPLINE
  5
2B0
100
AcDbEntity
  8
0
100
AcDbSpline
 62
7
  6
BYLAYER
 70
0
 71
3
 72
14
 73
10
 74
0
 42
0.0000001
 43
0.0000001
 44
0.0000000001
 40
0.0
 40
0.0
 40
0.0
 40
0.0
 40
0.2892476957
 40
0.422570633
 40
0.5485184169
 40
0.6678940079
 40
0.7818673926
 40
0.8919563644
 40
1.0
 40
1.0
 40
1.0
 40
1.0
 10
45.6355510333
 20
61.1501089406
 30
0.0
 10
45.6355510333
 20
61.3173576771
 30
0.0
 10
45.615993305
 20
61.5628922765
 30
0.0
 10
45.5405479613
 20
61.8715102417
 30
0.0
 10
45.4637417496
 20
62.0771599802
 30
0.0
 10
45.3658593659
 20
62.2611552044
 30
0.0
 10
45.2476283614
 20
62.4216744294
 30
0.0
 10
45.1102207578
 20
62.5569899066
 30
0.0
 10
45.0061728783
 20
62.6295482603
 30
0.0
 10
44.9520691564
 20
62.6607837976
 30
0.0
  0
SPLINE
  5
2B1
100
AcDbEntity
  8
0
100
AcDbSpline
 62
7
  6
BYLAYER
 70
0
 71
3
 72
15
 73
11
 74
0
 42
0.0000001
 43
0.0000001
 44
0.0000000001
 40
0.0
 40
0.0
 40
0.0
 40
0.0
 40
0.1117815356
 40
0.2314075768
 40
0.3571004473
 40
0.4868765191
 40
0.6184205406
 40
0.7493144741
 40
0.877279595
 40
1.0
 40
1.0
 40
1.0
 40
1.0
 10
43.8324212342
 20
16.4669875054
 30
0.0
 10
43.8324212342
 20
16.3123165623
 30
0.0
 10
43.8086628863
 20
15.9918760797
 30
0.0
 10
43.7122549506
 20
15.5062435734
 30
0.0
 10
43.5561939585
 20
15.0102396543
 30
0.0
 10
43.3448629534
 20
14.5172767277
 30
0.0
 10
43.0838042715
 20
14.0405574121
 30
0.0
 10
42.7801088662
 20
13.5927876256
 30
0.0
 10
42.4419320975
 20
13.1862387965
 30
0.0
 10
42.1930325831
 20
12.9434483043
 30
0.0
 10
42.0646616411
 20
12.8322939122
 30
0.0
  0
SPLINE
  5
2B2
100
AcDbEntity
  8
0
100
AcDbSpline
 62
7
  6
BYLAYER
 70
0
 71
3
 72
19
 73
15
 74
0
 42
0.0000001
 43
0.0000001
 44
0.0000000001
 40
0.0
 40
0.0
 40
0.0
 40
0.0
 40
0.062391684
 40
0.1288324836
 40
0.2703533745
 40
0.4174431196
 40
0.5617172598
 40
0.6953244085
 40
0.7563177584
 40
0.812797985
 40
0.8647366222
 40
0.9125504304
 40
0.9571578829
 40
1.0
 40
1.0
 40
1.0
 40
1.0
 10
28.771048267
 20
50.9641828032
 30
0.0
 10
28.771048267
 20
50.8895553024
 30
0.0
 10
28.7812160203
 20
50.7353508247
 30
0.0
 10
28.8378446779
 20
50.4164806324
 30
0.0
 10
28.9748091744
 20
50.0116692883
 30
0.0
 10
29.2223326434
 20
49.554256043
 30
0.0
 10
29.5366885178
 20
49.1517825441
 30
0.0
 10
29.842543927
 20
48.8809093712
 30
0.0
 10
30.0992910749
 20
48.7237454735
 30
0.0
 10
30.2852851098
 20
48.6415529908
 30
0.0
 10
30.4667564204
 20
48.5933563048
 30
0.0
 10
30.6401553854
 20
48.5805542521
 30
0.0
 10
30.8016241217
 20
48.6042633613
 30
0.0
 10
30.899462405
 20
48.6448805987
 30
0.0
 10
30.9438375882
 20
48.6705085475
 30
0.0
  0
SPLINE
  5
2B3
100
AcDbEntity
  8
0
100
AcDbSpline
 62
7
  6
BYLAYER
 70
0
 71
3
 72
14
 73
10
 74
0
 42
0.0000001
 43
0.0000001
 44
0.0000000001
 40
0.0
 40
0.0
 40
0.0
 40
0.0
 40
0.2892476957
 40
0.422570633
 40
0.5485184169
 40
0.6678940079
 40
0.7818673926
 40
0.8919563644
 40
1.0
 40
1.0
 40
1.0
 40
1.0
 10
45.6355510333
 20
15.4259735813
 30
0.0
 10
45.6355510333
 20
15.5932223178
 30
0.0
 10
45.615993305
 20
15.8387569172
 30
0.0
 10
45.5405479613
 20
16.1473748824
 30
0.0
 10
45.4637417496
 20
16.353024621
 30
0.0
 10
45.3658593659
 20
16.5370198451
 30
0.0
 10
45.2476283614
 20
16.6975390702
 30
0.0
 10
45.1102207578
 20
16.8328545474
 30
0.0
 10
45.0061728783
 20
16.905412901
 30
0.0
 10
44.9520691564
 20
16.9366484384
 30
0.0
  0
SPLINE
  5
2B4
100
AcDbEntity
  8
0
100
AcDbSpline
 62
7
  6
BYLAYER
 70
0
 71
3
 72
20
 73
16
 74
0
 42
0.0000001
 43
0.0000001
 44
0.0000000001
 40
0.0
 40
0.0
 40
0.0
 40
0.0
 40
0.0428305003
 40
0.0874294165
 40
0.135231355
 40
0.1871614829
 40
0.2436310239
 40
0.3046112396
 40
0.3697363172
 40
0.4383710902
 40
0.5826208773
 40
0.729685327
 40
0.8711937848
 40
0.9376359647
 40
1.0
 40
1.0
 40
1.0
 40
1.0
 10
27.5614573006
 20
31.6261345205
 30
0.0
 10
27.5984274555
 20
31.6474989297
 30
0.0
 10
27.6799498225
 20
31.681363879
 30
0.0
 10
27.8145031493
 20
31.7011014501
 30
0.0
 10
27.9589962907
 20
31.6904406339
 30
0.0
 10
28.1102266746
 20
31.6502906913
 30
0.0
 10
28.2651998338
 20
31.5817745973
 30
0.0
 10
28.420869467
 20
31.4865745373
 30
0.0
 10
28.5740295259
 20
31.3666366093
 30
0.0
 10
28.7739446087
 20
31.1741177269
 30
0.0
 10
28.9960763718
 20
30.8896279239
 30
0.0
 10
29.202290212
 20
30.5085621234
 30
0.0
 10
29.316456155
 20
30.1711640256
 30
0.0
 10
29.3636125888
 20
29.9054286078
 30
0.0
 10
29.3721050756
 20
29.7769295543
 30
0.0
 10
29.3721050756
 20
29.7147565534
 30
0.0
  0
SPLINE
  5
2B5
100
AcDbEntity
  8
0
100
AcDbSpline
 62
7
  6
BYLAYER
 70
0
 71
3
 72
9
 73
5
 74
0
 42
0.0000001
 43
0.0000001
 44
0.0000000001
 40
0.0
 40
0.0
 40
0.0
 40
0.0
 40
0.2397167908
 40
1.0
 40
1.0
 40
1.0
 40
1.0
 10
43.7820037622
 20
62.719062613
 30
0.0
 10
43.790499491
 20
62.6775035851
 30
0.0
 10
43.8209467478
 20
62.5031266315
 30
0.0
 10
43.8324212342
 20
62.3256569652
 30
0.0
 10
43.8324212342
 20
62.1911228646
 30
0.0
  0
SPLINE
  5
2B6
100
AcDbEntity
  8
0
100
AcDbSpline
 62
7
  6
BYLAYER
 70
0
 71
3
 72
12
 73
8
 74
0
 42
0.0000001
 43
0.0000001
 44
0.0000000001
 40
0.0
 40
0.0
 40
0.0
 40
0.0
 40
0.1081693544
 40
0.2183735177
 40
0.4513309383
 40
0.7105262175
 40
1.0
 40
1.0
 40
1.0
 40
1.0
 10
29.1438539564
 20
51.7881903426
 30
0.0
 10
29.1143429947
 20
51.7711469106
 30
0.0
 10
29.0576233564
 20
51.7315131389
 30
0.0
 10
28.9558212371
 20
51.6314356296
 30
0.0
 10
28.8549854083
 20
51.4670667976
 30
0.0
 10
28.7849191792
 20
51.2288521237
 30
0.0
 10
28.771048267
 20
51.0553820635
 30
0.0
 10
28.771048267
 20
50.9641828032
 30
0.0
  0
SPLINE
  5
2B7
100
AcDbEntity
  8
0
100
AcDbSpline
 62
7
  6
BYLAYER
 70
0
 71
3
 72
11
 73
7
 74
0
 42
0.0000001
 43
0.0000001
 44
0.0000000001
 40
0.0
 40
0.0
 40
0.0
 40
0.0
 40
0.2181351599
 40
0.4534339959
 40
0.7131655403
 40
1.0
 40
1.0
 40
1.0
 40
1.0
 10
30.7438146166
 20
44.3750777524
 30
0.0
 10
30.7852529333
 20
44.4070955378
 30
0.0
 10
30.8611954303
 20
44.4876293512
 30
0.0
 10
30.9412310411
 20
44.6408832359
 30
0.0
 10
30.9889074549
 20
44.8237464201
 30
0.0
 10
30.9984439012
 20
44.9553016077
 30
0.0
 10
30.9984439012
 20
45.0241606488
 30
0.0
  0
SPLINE
  5
2B8
100
AcDbEntity
  8
0
100
AcDbSpline
 62
7
  6
BYLAYER
 70
0
 71
3
 72
11
 73
7
 74
0
 42
0.0000001
 43
0.0000001
 44
0.0000000001
 40
0.0
 40
0.0
 40
0.0
 40
0.0
 40
0.2290190728
 40
0.4748903812
 40
0.7335697152
 40
1.0
 40
1.0
 40
1.0
 40
1.0
 10
30.9984439012
 20
45.0241606488
 30
0.0
 10
30.9984439012
 20
45.0993754193
 30
0.0
 10
30.9860628949
 20
45.2554650392
 30
0.0
 10
30.9362509529
 20
45.4917327979
 30
0.0
 10
30.8558217068
 20
45.7323523581
 30
0.0
 10
30.7841133671
 20
45.8895882429
 30
0.0
 10
30.7438146166
 20
45.9672574658
 30
0.0
  0
SPLINE
  5
2B9
100
AcDbEntity
  8
0
100
AcDbSpline
 62
7
  6
BYLAYER
 70
0
 71
3
 72
9
 73
5
 74
0
 42
0.0000001
 43
0.0000001
 44
0.0000000001
 40
0.0
 40
0.0
 40
0.0
 40
0.0
 40
0.255481249
 40
1.0
 40
1.0
 40
1.0
 40
1.0
 10
41.357551916
 20
58.9646700259
 30
0.0
 10
41.3294303129
 20
58.9403199694
 30
0.0
 10
41.218112788
 20
58.8464623841
 30
0.0
 10
41.1017826968
 20
58.7585010459
 30
0.0
 10
41.0124360598
 20
58.6971120361
 30
0.0
  0
SPLINE
  5
2BA
100
AcDbEntity
  8
0
100
AcDbSpline
 62
7
  6
BYLAYER
 70
0
 71
3
 72
15
 73
11
 74
0
 42
0.0000001
 43
0.0000001
 44
0.0000000001
 40
0.0
 40
0.0
 40
0.0
 40
0.0
 40
0.1117815356
 40
0.2314075768
 40
0.3571004473
 40
0.4868765191
 40
0.6184205406
 40
0.7493144741
 40
0.877279595
 40
1.0
 40
1.0
 40
1.0
 40
1.0
 10
43.8324212342
 20
62.1911228646
 30
0.0
 10
43.8324212342
 20
62.0364519216
 30
0.0
 10
43.8086628863
 20
61.716011439
 30
0.0
 10
43.7122549506
 20
61.2303789327
 30
0.0
 10
43.5561939585
 20
60.7343750135
 30
0.0
 10
43.3448629534
 20
60.2414120869
 30
0.0
 10
43.0838042715
 20
59.7646927714
 30
0.0
 10
42.7801088662
 20
59.3169229848
 30
0.0
 10
42.4419320975
 20
58.9103741557
 30
0.0
 10
42.1930325831
 20
58.6675836636
 30
0.0
 10
42.0646616411
 20
58.5564292714
 30
0.0
  0
ENDSEC
  0
SECTION
  2
OBJECTS
  0
DICTIONARY
  5
C
100
AcDbDictionary
280
0
281
1
  3
ACAD_GROUP
350
D
  3
ACAD_MLINESTYLE
350
17
  3
ACAD_LAYOUT
350
1A
  3
ACAD_PLOTSETTINGS
350
19
  3
ACAD_PLOTSTYLENAME
350
E
  0
DICTIONARY
  5
D
102
{ACAD_REACTORS
330
C
102
}
100
AcDbDictionary
280
0
281
1
  0
ACDBDICTIONARYWDFLT
  5
E
102
{ACAD_REACTORS
330
C
102
}
100
AcDbDictionary
281
1
  3
Normal
350
F
100
AcDbDictionaryWithDefault
340
F
  0
DICTIONARY
  5
17
102
{ACAD_REACTORS
330
C
102
}
100
AcDbDictionary
280
0
281
1
  3
Standard
350
18
  0
DICTIONARY
  5
19
102
{ACAD_REACTORS
330
C
102
}
100
AcDbDictionary
281
1
  0
DICTIONARY
  5
1A
102
{ACAD_REACTORS
330
C
102
}
100
AcDbDictionary
281
1
  3
Model
350
2BB
  3
Layout1
350
2BC
  0
ACDBPLACEHOLDER
  5
F
102
{ACAD_REACTORS
330
E
102
}
  0
MLINESTYLE
  5
18
102
{ACAD_REACTORS
330
17
102
}
100
AcDbMlineStyle
  2
STANDARD
 70
0
  3

 62
256
 51
90.0
 52
90.0
 71
2
 49
0.5
 62
256
  6
BYLAYER
 49
-0.5
 62
256
  6
BYLAYER
  0
LAYOUT
  5
2BB
102
{ACAD_REACTORS
330
1A
102
}
100
AcDbPlotSettings
  1

  2
none_device
  4

  6

 40
0.0
 41
0.0
 42
0.0
 43
0.0
 44
210.0
 45
297.0
 46
0.0
 47
0.0
 48
0.0
 49
0.0
140
0.0
141
0.0
142
1.0
143
1.0
 70
1024
 72
1
 73
0
 74
0
  7

 75
0
147
1.0
148
0.0
149
0.0
100
AcDbLayout
  1
Model
 70
0
 71
0
 10
0.0
 20
0.0
 11
210.0
 21
297.0
 12
0.0
 22
0.0
 32
0.0
 14
0.0
 24
0.0
 34
0.0
 15
0.0
 25
0.0
 35
0.0
146
0.0
 13
0.0
 23
0.0
 33
0.0
 16
1.0
 26
0.0
 36
0.0
 17
0.0
 27
1.0
 37
0.0
 76
0
330
210
345
0
346
0
  0
LAYOUT
  5
2BC
102
{ACAD_REACTORS
330
1A
102
}
100
AcDbPlotSettings
  1

  2
none_device
  4

  6

 40
0.0
 41
0.0
 42
0.0
 43
0.0
 44
210.0
 45
297.0
 46
0.0
 47
0.0
 48
0.0
 49
0.0
140
0.0
141
0.0
142
1.0
143
1.0
 70
0
 72
1
 73
0
 74
0
  7

 75
0
147
1.0
148
0.0
149
0.0
100
AcDbLayout
  1
Layout1
 70
0
 71
1
 10
0.0
 20
0.0
 11
210.0
 21
297.0
 12
0.0
 22
0.0
 32
0.0
 14
0.0
 24
0.0
 34
0.0
 15
0.0
 25
0.0
 35
0.0
146
0.0
 13
0.0
 23
0.0
 33
0.0
 16
1.0
 26
0.0
 36
0.0
 17
0.0
 27
1.0
 37
0.0
 76
0
330
211
345
0
346
0
  0
ENDSEC
  0
EOF
