999
DXF file: C:\Users\sesa63760\Dev\_Creo\CAD\MCADID0004821_3D-CAD\drw0001_6.dxf
999
Pro/ENGINEER 2019471 by Parametric Technology Corporation
  0
SECTION
  2
HEADER
  9
$ACADVER
  1
AC1024
  9
$DWGCODEPAGE
  3
ANSI_1252
  9
$EXTMAX
 10
65.0766938646
 20
92.0370384657
 30
0.0
  9
$EXTMIN
 10
0.0
 20
0.0
 30
0.0
  9
$LIMMIN
 10
0.0
 20
0.0
  9
$LIMMAX
 10
65.0766938646
 20
92.0370384657
  9
$VIEWCTR
 10
32.5383469323
 20
46.0185192328
  9
$VIEWSIZE
 40
92.0370384657
  9
$CLAYER
  8
0
  9
$LTSCALE
 40
5.9994513963
  9
$CELTYPE
  6
BYLAYER
  9
$DIMSCALE
 40
1.0
  9
$DIMASZ
 40
0.774722546
  9
$DIMEXO
 40
1.0
  9
$DIMDLI
 40
4.1450755102
  9
$DIMEXE
 40
1.0
  9
$DIMCEN
 40
0.9817284103
  9
$DIMLFAC
 40
1.0
  9
$DIMBLK
  1
_FILLED
  9
$DIMALT
 70
0
  9
$DIMALTF
 40
0.0393700787
  9
$DIMTXT
 40
1.0846115644
  9
$DIMTOL
 70
1
  9
$DIMLIM
 70
0
  9
$DIMTFAC
 40
1.0
  9
$DIMTP
 40
0.01
  9
$DIMTM
 40
0.01
  9
$DIMGAP
 40
0.625
  9
$DIMDSEP
 70
46
  9
$AUNITS
 70
0
  9
$PDMODE
 70
3
  9
$PDSIZE
 40
0.3125
  9
$HANDSEED
  5
295
  9
$TILEMODE
 70
1
  9
$MEASUREMENT
 70
1
  9
$INSUNITS
 70
4
  0
ENDSEC
  0
SECTION
  2
CLASSES
  0
CLASS
  1
ACDBDICTIONARYWDFLT
  2
AcDbDictionaryWithDefault
  3
AutoCAD 2000
 90
0
 91
1
280
0
281
0
  0
CLASS
  1
ACDBPLACEHOLDER
  2
AcDbPlaceHolder
  3
AutoCAD 2000
 90
0
 91
1
280
0
281
0
  0
CLASS
  1
LAYOUT
  2
AcDbLayout
  3
AutoCAD 2000
 90
0
 91
0
280
0
281
0
  0
ENDSEC
  0
SECTION
  2
TABLES
  0
TABLE
  2
VPORT
  5
8
100
AcDbSymbolTable
 70
2
  0
VPORT
  5
1F4
100
AcDbSymbolTableRecord
100
AcDbViewportTableRecord
  2
*ACTIVE
 70
0
 10
0.0
 20
0.0
 11
1.0
 21
1.0
 12
32.5383469323
 22
46.0185192328
 13
0.0
 23
0.0
 14
1.0
 24
1.0
 15
0.0
 25
0.0
 16
0.0
 26
0.0
 36
1.0
 17
0.0
 27
0.0
 37
0.0
 40
92.0370384657
 41
0.7070707071
 42
50.0
 43
0.0
 44
0.0
 50
0.0
 51
0.0
 71
0
 72
100
 73
1
 74
1
 75
0
 76
0
 77
0
 78
0
  0
ENDTAB
  0
TABLE
  2
LTYPE
  5
5
100
AcDbSymbolTable
 70
6
  0
LTYPE
  5
14
100
AcDbSymbolTableRecord
100
AcDbLinetypeTableRecord
  2
BYBLOCK
 70
0
  3

 72
65
 73
0
 40
0.0
  0
LTYPE
  5
15
100
AcDbSymbolTableRecord
100
AcDbLinetypeTableRecord
  2
BYLAYER
 70
0
  3

 72
65
 73
0
 40
0.0
  0
LTYPE
  5
16
100
AcDbSymbolTableRecord
100
AcDbLinetypeTableRecord
  2
CONTINUOUS
 70
64
  3
Solid line
 72
65
 73
0
 40
0.0
  0
LTYPE
  5
1F5
100
AcDbSymbolTableRecord
100
AcDbLinetypeTableRecord
  2
CENTER
 70
64
  3
____ _ ____ _ ____ _ ____ _ ____ _ ____ _ ____
 72
65
 73
4
 40
0.6
 49
0.375
 74
0
 49
-0.075
 74
0
 49
0.075
 74
0
 49
-0.075
 74
0
  0
LTYPE
  5
1F6
100
AcDbSymbolTableRecord
100
AcDbLinetypeTableRecord
  2
HIDDEN
 70
64
  3
- - - - - - - - - - - - - - - - - - - -
 72
65
 73
2
 40
0.2
 49
0.1
 74
0
 49
-0.1
 74
0
  0
LTYPE
  5
1F7
100
AcDbSymbolTableRecord
100
AcDbLinetypeTableRecord
  2
PHANTOM
 70
64
  3
_____ _ _ _____ _ _ _____ _ _ _____
 72
65
 73
6
 40
0.8
 49
0.45
 74
0
 49
-0.05
 74
0
 49
0.1
 74
0
 49
-0.05
 74
0
 49
0.1
 74
0
 49
-0.05
 74
0
  0
LTYPE
  5
1F8
100
AcDbSymbolTableRecord
100
AcDbLinetypeTableRecord
  2
DOT
 70
64
  3
. . . . . . . . . . . . . . . . . . . .
 72
65
 73
2
 40
0.2
 49
0.1
 74
0
 49
-0.1
 74
0
  0
LTYPE
  5
1F9
100
AcDbSymbolTableRecord
100
AcDbLinetypeTableRecord
  2
DASHED
 70
64
  3
- - - - - - - - - - - - - - - - - - - -
 72
65
 73
2
 40
0.2
 49
0.1
 74
0
 49
-0.1
 74
0
  0
ENDTAB
  0
TABLE
  2
LAYER
  5
2
100
AcDbSymbolTable
 70
36
  0
LAYER
  5
10
100
AcDbSymbolTableRecord
100
AcDbLayerTableRecord
  2
0
 70
0
 62
7
  6
CONTINUOUS
370
-3
390
F
  0
LAYER
  5
1FA
100
AcDbSymbolTableRecord
100
AcDbLayerTableRecord
  2
DEFAULT_1
 70
0
 62
7
  6
CENTER
370
-3
390
F
  0
LAYER
  5
1FB
100
AcDbSymbolTableRecord
100
AcDbLayerTableRecord
  2
DEFAULT_2
 70
0
 62
7
  6
HIDDEN
370
-3
390
F
  0
LAYER
  5
1FC
100
AcDbSymbolTableRecord
100
AcDbLayerTableRecord
  2
DEFAULT_3
 70
0
 62
7
  6
PHANTOM
370
-3
390
F
  0
LAYER
  5
1FD
100
AcDbSymbolTableRecord
100
AcDbLayerTableRecord
  2
00_COMPONENTS
 70
0
 62
7
  6
CONTINUOUS
370
-3
390
F
  0
LAYER
  5
1FE
100
AcDbSymbolTableRecord
100
AcDbLayerTableRecord
  2
01_1_DEFAULT_DATUMS
 70
0
 62
7
  6
CONTINUOUS
370
-3
390
F
  0
LAYER
  5
1FF
100
AcDbSymbolTableRecord
100
AcDbLayerTableRecord
  2
01_PLANES
 70
0
 62
7
  6
CONTINUOUS
370
-3
390
F
  0
LAYER
  5
200
100
AcDbSymbolTableRecord
100
AcDbLayerTableRecord
  2
02_COORD_SYS
 70
0
 62
7
  6
CONTINUOUS
370
-3
390
F
  0
LAYER
  5
201
100
AcDbSymbolTableRecord
100
AcDbLayerTableRecord
  2
03_AXES
 70
0
 62
7
  6
CONTINUOUS
370
-3
390
F
  0
LAYER
  5
202
100
AcDbSymbolTableRecord
100
AcDbLayerTableRecord
  2
04_POINTS
 70
0
 62
7
  6
CONTINUOUS
370
-3
390
F
  0
LAYER
  5
203
100
AcDbSymbolTableRecord
100
AcDbLayerTableRecord
  2
05_CURVES
 70
0
 62
7
  6
CONTINUOUS
370
-3
390
F
  0
LAYER
  5
204
100
AcDbSymbolTableRecord
100
AcDbLayerTableRecord
  2
06_SURFS
 70
0
 62
7
  6
CONTINUOUS
370
-3
390
F
  0
LAYER
  5
205
100
AcDbSymbolTableRecord
100
AcDbLayerTableRecord
  2
07_COSMETICS
 70
0
 62
7
  6
CONTINUOUS
370
-3
390
F
  0
LAYER
  5
206
100
AcDbSymbolTableRecord
100
AcDbLayerTableRecord
  2
10_NOTES
 70
0
 62
7
  6
CONTINUOUS
370
-3
390
F
  0
LAYER
  5
207
100
AcDbSymbolTableRecord
100
AcDbLayerTableRecord
  2
11_NOTES_PUB
 70
0
 62
7
  6
CONTINUOUS
370
-3
390
F
  0
LAYER
  5
208
100
AcDbSymbolTableRecord
100
AcDbLayerTableRecord
  2
13_REF_GTOL
 70
0
 62
7
  6
CONTINUOUS
370
-3
390
F
  0
LAYER
  5
209
100
AcDbSymbolTableRecord
100
AcDbLayerTableRecord
  2
16_MISC
 70
0
 62
7
  6
CONTINUOUS
370
-3
390
F
  0
LAYER
  5
20A
100
AcDbSymbolTableRecord
100
AcDbLayerTableRecord
  2
17_NO_PRINT
 70
0
 62
7
  6
CONTINUOUS
370
-3
390
F
  0
LAYER
  5
20B
100
AcDbSymbolTableRecord
100
AcDbLayerTableRecord
  2
18_DATUM_CAMS_JOINTS
 70
0
 62
7
  6
CONTINUOUS
370
-3
390
F
  0
LAYER
  5
20C
100
AcDbSymbolTableRecord
100
AcDbLayerTableRecord
  2
19_DATUM_FUNCTIONAL
 70
0
 62
7
  6
CONTINUOUS
370
-3
390
F
  0
LAYER
  5
20D
100
AcDbSymbolTableRecord
100
AcDbLayerTableRecord
  2
20_DATUM_KINEMATIC_SCHEME
 70
0
 62
7
  6
CONTINUOUS
370
-3
390
F
  0
ENDTAB
  0
TABLE
  2
STYLE
  5
3
100
AcDbSymbolTable
 70
1
  0
STYLE
  5
11
100
AcDbSymbolTableRecord
100
AcDbTextStyleTableRecord
  2
STANDARD
 70
0
 40
0.0
 41
1.0
 50
0.0
 71
0
 42
0.2
  3
ARIAL.TTF
  4

  0
STYLE
  5
20E
100
AcDbSymbolTableRecord
100
AcDbTextStyleTableRecord
  2
TEXTSTYLE_1
 70
0
 40
0.0
 41
0.8
 50
0.0
 71
0
 42
0.2
  3
gdt
  4

  0
ENDTAB
  0
TABLE
  2
VIEW
  5
6
100
AcDbSymbolTable
 70
0
  0
ENDTAB
  0
TABLE
  2
UCS
  5
7
100
AcDbSymbolTable
 70
0
  0
ENDTAB
  0
TABLE
  2
APPID
  5
9
100
AcDbSymbolTable
 70
1
  0
APPID
  5
20F
100
AcDbSymbolTableRecord
100
AcDbRegAppTableRecord
  2
ACAD
 70
0
  0
ENDTAB
  0
TABLE
  2
BLOCK_RECORD
  5
1
100
AcDbSymbolTable
 70
0
  0
BLOCK_RECORD
  5
210
100
AcDbSymbolTableRecord
100
AcDbBlockTableRecord
  2
*Model_Space
  0
BLOCK_RECORD
  5
211
100
AcDbSymbolTableRecord
100
AcDbBlockTableRecord
  2
*Paper_Space
  0
BLOCK_RECORD
  5
212
100
AcDbSymbolTableRecord
100
AcDbBlockTableRecord
  2
_FILLED
  0
ENDTAB
  0
TABLE
  2
DIMSTYLE
  5
A
100
AcDbSymbolTable
 70
1
100
AcDbDimStyleTable
 71
0
  0
DIMSTYLE
105
213
100
AcDbSymbolTableRecord
100
AcDbDimStyleTableRecord
  2
STANDARD
 70
0
  3

  4

 40
1.0
 41
0.774722546
 42
1.0
 43
0.38
 44
1.0
 45
0.0
 46
0.0
 47
0.01
 48
0.01
140
1.0846115644
141
0.09
142
0.0
143
25.4
144
1.0
145
0.0
146
1.0
147
0.625
 71
1
 72
0
 73
0
 74
0
 75
0
 76
0
 77
1
 78
8
 79
2
170
0
171
1
172
0
173
0
174
0
175
0
176
0
177
0
178
0
270
2
179
2
271
2
272
2
273
2
274
2
275
0
280
0
281
0
282
0
283
1
284
8
285
0
286
0
287
3
288
0
340
11
278
46
341
212
342
212
343
212
344
212
  0
ENDTAB
  0
ENDSEC
  0
SECTION
  2
BLOCKS
  0
BLOCK
  5
20
100
AcDbEntity
  8
0
100
AcDbBlockBegin
  2
*Model_Space
 70
0
 10
0.0
 20
0.0
 30
0.0
  3
*Model_Space
  1

  0
ENDBLK
  5
21
100
AcDbEntity
  8
0
100
AcDbBlockEnd
  0
BLOCK
  5
1C
100
AcDbEntity
  8
0
100
AcDbBlockBegin
  2
*Paper_Space
 70
0
 10
0.0
 20
0.0
 30
0.0
  3
*Paper_Space
  1

  0
ENDBLK
  5
1D
100
AcDbEntity
  8
0
100
AcDbBlockEnd
  0
BLOCK
  5
214
100
AcDbEntity
  8
0
100
AcDbBlockBegin
  2
_FILLED
 70
64
 10
0.0
 20
0.0
  3
_FILLED
  1

  0
SOLID
  5
215
100
AcDbEntity
  8
0
  6
BYBLOCK
 62
0
100
AcDbTrace
 10
0.0
 20
0.0
 11
-1.0
 21
0.25
 12
-1.0
 22
-0.25
 13
-1.0
 23
-0.25
  0
ENDBLK
  5
216
100
AcDbEntity
  8
0
  6
BYBLOCK
 62
0
100
AcDbBlockEnd
  0
ENDSEC
  0
SECTION
  2
ENTITIES
  0
LINE
  5
217
100
AcDbEntity
  8
0
100
AcDbLine
 62
7
  6
BYLAYER
 10
7.8426902392
 20
48.8298240277
 11
7.8426902392
 21
46.7184586425
  0
LINE
  5
218
100
AcDbEntity
  8
0
100
AcDbLine
 62
7
  6
BYLAYER
 10
7.8426902392
 20
45.7184586425
 11
7.8426902392
 21
43.6070961996
  0
LINE
  5
219
100
AcDbEntity
  8
0
100
AcDbLine
 62
7
  6
BYLAYER
 10
7.9176902392
 20
53.9184586426
 11
7.9176902392
 21
53.2638373873
  0
LINE
  5
21A
100
AcDbEntity
  8
0
100
AcDbLine
 62
7
  6
BYLAYER
 10
7.9176902392
 20
39.1730798977
 11
7.9176902392
 21
38.5184586425
  0
LINE
  5
21B
100
AcDbEntity
  8
0
100
AcDbLine
 62
7
  6
BYLAYER
 10
7.9319207237
 20
52.9452535617
 11
7.9319207237
 21
39.5452535617
  0
LINE
  5
21C
100
AcDbEntity
  8
0
100
AcDbLine
 62
7
  6
BYLAYER
 10
8.7319207237
 20
39.3452535617
 11
8.7319207237
 21
53.1452535617
  0
LINE
  5
21D
100
AcDbEntity
  8
0
100
AcDbLine
 62
7
  6
BYLAYER
 10
9.1176902352
 20
38.9184586315
 11
9.1176902366
 21
39.1774666712
  0
LINE
  5
21E
100
AcDbEntity
  8
0
100
AcDbLine
 62
7
  6
BYLAYER
 10
9.1176902371
 20
53.2594506138
 11
9.117690236
 21
53.5184586527
  0
LINE
  5
21F
100
AcDbEntity
  8
0
100
AcDbLine
 62
7
  6
BYLAYER
 10
9.3819207237
 20
39.3452535617
 11
9.3819207237
 21
53.1452535617
  0
LINE
  5
220
100
AcDbEntity
  8
0
100
AcDbLine
 62
7
  6
BYLAYER
 10
9.4676902392
 20
39.1782359112
 11
9.4676902392
 21
41.4687217626
  0
LINE
  5
221
100
AcDbEntity
  8
0
100
AcDbLine
 62
7
  6
BYLAYER
 10
9.4676902392
 20
50.9681955224
 11
9.4676902392
 21
53.2586813738
  0
LWPOLYLINE
  5
222
100
AcDbEntity
  8
0
100
AcDbPolyline
 62
7
  6
BYLAYER
 90
4
 70
0
 10
47.1110526815
 20
38.2184302975
 10
47.3431329304
 20
38.220149701
 10
47.6807662146
 20
38.2243661144
 10
47.9176905419
 20
38.2255293178
  0
LINE
  5
223
100
AcDbEntity
  8
0
100
AcDbLine
 62
7
  6
BYLAYER
 10
57.2960245949
 20
37.8184586425
 11
52.1020892913
 21
37.8184586425
  0
LINE
  5
224
100
AcDbEntity
  8
0
100
AcDbLine
 62
7
  6
BYLAYER
 10
52.1020892913
 20
38.1184586425
 11
55.9509006827
 21
38.1184586425
  0
LINE
  5
225
100
AcDbEntity
  8
0
100
AcDbLine
 62
7
  6
BYLAYER
 10
8.2176943978
 20
38.2184586425
 11
47.1110798002
 21
38.2184586425
  0
LINE
  5
226
100
AcDbEntity
  8
0
100
AcDbLine
 62
7
  6
BYLAYER
 10
47.1526778487
 20
38.2184586425
 11
56.158988241
 21
38.2184586425
  0
LINE
  5
227
100
AcDbEntity
  8
0
100
AcDbLine
 62
7
  6
BYLAYER
 10
56.379098886
 20
38.2184586425
 11
57.9176902392
 21
38.2184586425
  0
LINE
  5
228
100
AcDbEntity
  8
0
100
AcDbLine
 62
7
  6
BYLAYER
 10
57.870534241
 20
38.5184586425
 11
57.6696833323
 21
38.5184586425
  0
LINE
  5
229
100
AcDbEntity
  8
0
100
AcDbLine
 62
7
  6
BYLAYER
 10
56.2581635882
 20
38.5184586425
 11
56.4575483728
 21
38.5184583769
  0
LINE
  5
22A
100
AcDbEntity
  8
0
100
AcDbLine
 62
7
  6
BYLAYER
 10
55.7135723108
 20
38.9184586358
 11
9.1176902352
 21
38.9184586315
  0
LWPOLYLINE
  5
22B
100
AcDbEntity
  8
0
100
AcDbPolyline
 62
7
  6
BYLAYER
 90
4
 70
0
 10
47.9176906646
 20
38.2255424466
 10
48.1451453974
 20
38.2244559598
 10
48.4827482578
 20
38.2202727959
 10
48.7243312732
 20
38.218418164
  0
LINE
  5
22C
100
AcDbEntity
  8
0
100
AcDbLine
 62
7
  6
BYLAYER
 10
57.9179719817
 20
38.2345996597
 11
58.8426902392
 21
38.2184586425
  0
LINE
  5
22D
100
AcDbEntity
  8
0
100
AcDbLine
 62
7
  6
BYLAYER
 10
7.9176902392
 20
39.1730798976
 11
9.4676891335
 21
39.1784904364
  0
LINE
  5
22E
100
AcDbEntity
  8
0
100
AcDbLine
 62
7
  6
BYLAYER
 10
8.1319207237
 20
39.3452535617
 11
9.4676902392
 21
39.3452535617
  0
LINE
  5
22F
100
AcDbEntity
  8
0
100
AcDbLine
 62
7
  6
BYLAYER
 10
56.4575483728
 20
39.4684586425
 11
57.6696833323
 21
39.4684586425
  0
LINE
  5
230
100
AcDbEntity
  8
0
100
AcDbLine
 62
7
  6
BYLAYER
 10
9.3819207237
 20
39.5452535617
 11
7.9319207237
 21
39.5452535617
  0
LINE
  5
231
100
AcDbEntity
  8
0
100
AcDbLine
 62
7
  6
BYLAYER
 10
9.4676902392
 20
39.6223779062
 11
9.3819207237
 21
39.6223779062
  0
LINE
  5
232
100
AcDbEntity
  8
0
100
AcDbLine
 62
7
  6
BYLAYER
 10
56.4575483728
 20
39.8684586425
 11
57.2960245949
 21
39.8684586425
  0
LINE
  5
233
100
AcDbEntity
  8
0
100
AcDbLine
 62
7
  6
BYLAYER
 10
57.5919069657
 20
40.0184586425
 11
56.4529593162
 21
40.0184586425
  0
LINE
  5
234
100
AcDbEntity
  8
0
100
AcDbLine
 62
7
  6
BYLAYER
 10
9.3819207237
 20
40.1452535617
 11
9.4676902392
 21
40.1452535617
  0
LINE
  5
235
100
AcDbEntity
  8
0
100
AcDbLine
 62
7
  6
BYLAYER
 10
9.3819207237
 20
40.3452535617
 11
9.4676902392
 21
40.3452535617
  0
LINE
  5
236
100
AcDbEntity
  8
0
100
AcDbLine
 62
7
  6
BYLAYER
 10
9.4676902392
 20
40.9452535669
 11
9.3819207237
 21
40.9452535667
  0
LINE
  5
237
100
AcDbEntity
  8
0
100
AcDbLine
 62
7
  6
BYLAYER
 10
7.8426902392
 20
45.7184586425
 11
7.9319207237
 21
45.7184586425
  0
LINE
  5
238
100
AcDbEntity
  8
0
100
AcDbLine
 62
7
  6
BYLAYER
 10
7.8426902392
 20
46.7184586425
 11
7.9319207237
 21
46.7184586425
  0
LINE
  5
239
100
AcDbEntity
  8
0
100
AcDbLine
 62
7
  6
BYLAYER
 10
9.3819207237
 20
51.5452535567
 11
9.4676902392
 21
51.5452535566
  0
LINE
  5
23A
100
AcDbEntity
  8
0
100
AcDbLine
 62
7
  6
BYLAYER
 10
9.4676902392
 20
52.1452535617
 11
9.3819207237
 21
52.1452535617
  0
LINE
  5
23B
100
AcDbEntity
  8
0
100
AcDbLine
 62
7
  6
BYLAYER
 10
9.4676902392
 20
52.3452535617
 11
9.3819207237
 21
52.3452535617
  0
LINE
  5
23C
100
AcDbEntity
  8
0
100
AcDbLine
 62
7
  6
BYLAYER
 10
9.3819207237
 20
52.8681292173
 11
9.4676902392
 21
52.8681292173
  0
LINE
  5
23D
100
AcDbEntity
  8
0
100
AcDbLine
 62
7
  6
BYLAYER
 10
7.9319207237
 20
52.9452535617
 11
9.3819207237
 21
52.9452535617
  0
LINE
  5
23E
100
AcDbEntity
  8
0
100
AcDbLine
 62
7
  6
BYLAYER
 10
8.1319207237
 20
53.1452535617
 11
9.4676902392
 21
53.1452535617
  0
LINE
  5
23F
100
AcDbEntity
  8
0
100
AcDbLine
 62
7
  6
BYLAYER
 10
9.467690022
 20
53.2586813738
 11
7.9176902392
 21
53.2638373874
  0
LINE
  5
240
100
AcDbEntity
  8
0
100
AcDbLine
 62
7
  6
BYLAYER
 10
57.9179717877
 20
54.2023176219
 11
58.8426902392
 21
54.2184586425
  0
LWPOLYLINE
  5
241
100
AcDbEntity
  8
0
100
AcDbPolyline
 62
7
  6
BYLAYER
 90
4
 70
0
 10
48.7243292923
 20
54.2184823526
 10
48.4918688171
 20
54.2167618881
 10
48.1542370863
 20
54.212550196
 10
47.9176901511
 20
54.2113778959
  0
LINE
  5
242
100
AcDbEntity
  8
0
100
AcDbLine
 62
7
  6
BYLAYER
 10
9.117690236
 20
53.5184586527
 11
55.7135723107
 21
53.5184586487
  0
LINE
  5
243
100
AcDbEntity
  8
0
100
AcDbLine
 62
7
  6
BYLAYER
 10
56.2581634384
 20
53.9184586425
 11
57.870534241
 21
53.9184586425
  0
LINE
  5
244
100
AcDbEntity
  8
0
100
AcDbLine
 62
7
  6
BYLAYER
 10
8.2177177825
 20
54.2184586425
 11
48.643859433
 21
54.2184586425
  0
LINE
  5
245
100
AcDbEntity
  8
0
100
AcDbLine
 62
7
  6
BYLAYER
 10
48.724301606
 20
54.2184586425
 11
57.9176902392
 21
54.2184586425
  0
LWPOLYLINE
  5
246
100
AcDbEntity
  8
0
100
AcDbPolyline
 62
7
  6
BYLAYER
 90
4
 70
0
 10
47.9176898291
 20
54.2113866321
 10
47.6899550269
 20
54.2124650517
 10
47.3523541602
 20
54.2166525725
 10
47.1110489787
 20
54.2184870801
  0
LWPOLYLINE
  5
247
100
AcDbEntity
  8
0
100
AcDbPolyline
 62
7
  6
BYLAYER
 90
5
 70
0
 10
56.1589890496
 20
38.2184586426
 10
56.3237546652
 20
38.2682777029
 10
56.3997634151
 20
38.3410697683
 10
56.4570529001
 20
38.535676864
 10
56.4575483724
 20
38.5184583242
  0
LINE
  5
248
100
AcDbEntity
  8
0
100
AcDbLine
 62
7
  6
BYLAYER
 10
47.9176906417
 20
38.2308636489
 11
47.9176906646
 21
38.2255424466
  0
LINE
  5
249
100
AcDbEntity
  8
0
100
AcDbLine
 62
7
  6
BYLAYER
 10
47.9176898377
 20
54.2060645483
 11
47.9176898291
 21
54.2113866323
  0
LINE
  5
24A
100
AcDbEntity
  8
0
100
AcDbLine
 62
7
  6
BYLAYER
 10
55.7135723107
 20
53.5184586487
 11
55.7135723108
 21
38.9184586358
  0
LINE
  5
24B
100
AcDbEntity
  8
0
100
AcDbLine
 62
7
  6
BYLAYER
 10
56.2001055204
 20
53.83378757
 11
56.2001055204
 21
38.6031297498
  0
LINE
  5
24C
100
AcDbEntity
  8
0
100
AcDbLine
 62
7
  6
BYLAYER
 10
56.379098886
 20
38.3212797605
 11
56.379098886
 21
38.2184586425
  0
LINE
  5
24D
100
AcDbEntity
  8
0
100
AcDbLine
 62
7
  6
BYLAYER
 10
56.4529593518
 20
40.0184586425
 11
56.4529593518
 21
38.5184583769
  0
LINE
  5
24E
100
AcDbEntity
  8
0
100
AcDbLine
 62
7
  6
BYLAYER
 10
56.4575483728
 20
38.5184583769
 11
56.4575483728
 21
40.0184586425
  0
LINE
  5
24F
100
AcDbEntity
  8
0
100
AcDbLine
 62
7
  6
BYLAYER
 10
57.3929031274
 20
40.0184586425
 11
57.3929031274
 21
39.8506944941
  0
LINE
  5
250
100
AcDbEntity
  8
0
100
AcDbLine
 62
7
  6
BYLAYER
 10
57.5919069706
 20
40.0184586425
 11
57.5919069706
 21
39.7088001528
  0
LINE
  5
251
100
AcDbEntity
  8
0
100
AcDbLine
 62
7
  6
BYLAYER
 10
57.6696833323
 20
39.4684586425
 11
57.6696833323
 21
38.2184586425
  0
LINE
  5
252
100
AcDbEntity
  8
0
100
AcDbLine
 62
7
  6
BYLAYER
 10
57.9176902392
 20
54.218447526
 11
57.9176902392
 21
38.218469759
  0
LINE
  5
253
100
AcDbEntity
  8
0
100
AcDbLine
 62
7
  6
BYLAYER
 10
58.8426902392
 20
54.2183921306
 11
58.8426902392
 21
38.2185251544
  0
ARC
  5
254
100
AcDbEntity
  8
0
100
AcDbCircle
 62
7
  6
BYLAYER
 10
123.4181548199
 20
46.4848666874
 40
66.0299494221
100
AcDbArc
 50
186.7740358051
 51
186.9295253087
  0
ARC
  5
255
100
AcDbEntity
  8
0
100
AcDbCircle
 62
7
  6
BYLAYER
 10
122.6201766494
 20
46.3878436508
 40
65.2260976718
100
AcDbArc
 50
185.2815666556
 51
186.7720848202
  0
ARC
  5
256
100
AcDbEntity
  8
0
100
AcDbCircle
 62
7
  6
BYLAYER
 10
122.580305142
 20
46.0526850965
 40
65.1860786022
100
AcDbArc
 50
173.0694323952
 51
173.2269030278
  0
ARC
  5
257
100
AcDbEntity
  8
0
100
AcDbCircle
 62
7
  6
BYLAYER
 10
122.4263515052
 20
46.0695483158
 40
65.0312106144
100
AcDbArc
 50
173.2256595054
 51
174.720612795
  0
ARC
  5
258
100
AcDbEntity
  8
0
100
AcDbCircle
 62
7
  6
BYLAYER
 10
121.6877594979
 20
46.2980387548
 40
64.2893727625
100
AcDbArc
 50
184.2094134479
 51
185.2783632666
  0
ARC
  5
259
100
AcDbEntity
  8
0
100
AcDbCircle
 62
7
  6
BYLAYER
 10
121.4923078651
 20
46.1550853397
 40
64.0932588548
100
AcDbArc
 50
174.719925
 51
175.7924213071
  0
ARC
  5
25A
100
AcDbEntity
  8
0
100
AcDbCircle
 62
7
  6
BYLAYER
 10
120.7088143261
 20
46.227379382
 40
63.3078818351
100
AcDbArc
 50
180.0080735718
 51
184.210669471
  0
ARC
  5
25B
100
AcDbEntity
  8
0
100
AcDbCircle
 62
7
  6
BYLAYER
 10
120.5290980108
 20
46.2161576674
 40
63.1281649333
100
AcDbArc
 50
175.7835602224
 51
179.997911611
  0
ARC
  5
25C
100
AcDbEntity
  8
0
100
AcDbCircle
 62
7
  6
BYLAYER
 10
0.6676902392
 20
46.2184586425
 40
10.0
100
AcDbArc
 50
331.6423632951
 51
28.357636705
  0
ARC
  5
25D
100
AcDbEntity
  8
0
100
AcDbCircle
 62
7
  6
BYLAYER
 10
14.3426902392
 20
46.6184586425
 40
7.0
100
AcDbArc
 50
153.8058681593
 51
204.7802649617
  0
ARC
  5
25E
100
AcDbEntity
  8
0
100
AcDbCircle
 62
7
  6
BYLAYER
 10
8.1426902392
 20
48.8298240277
 40
0.3
100
AcDbArc
 50
133.7243540988
 51
180.0
  0
ARC
  5
25F
100
AcDbEntity
  8
0
100
AcDbCircle
 62
7
  6
BYLAYER
 10
8.1426902392
 20
43.6070932573
 40
0.3
100
AcDbArc
 50
180.0
 51
226.2756459012
  0
ARC
  5
260
100
AcDbEntity
  8
0
100
AcDbCircle
 62
7
  6
BYLAYER
 10
8.2176902392
 20
38.5184586425
 40
0.3
100
AcDbArc
 50
180.0
 51
270.0030266193
  0
ARC
  5
261
100
AcDbEntity
  8
0
100
AcDbCircle
 62
7
  6
BYLAYER
 10
8.2176902392
 20
53.9184586425
 40
0.3
100
AcDbArc
 50
89.9969728014
 51
180.0
  0
ARC
  5
262
100
AcDbEntity
  8
0
100
AcDbCircle
 62
7
  6
BYLAYER
 10
56.1619417692
 20
38.5185178037
 40
0.2910175558
100
AcDbArc
 50
358.2445383038
 51
359.9883522992
  0
ARC
  5
263
100
AcDbEntity
  8
0
100
AcDbCircle
 62
7
  6
BYLAYER
 10
56.1655748658
 20
38.5035657027
 40
0.2817961484
100
AcDbArc
 50
314.3317958372
 51
316.6537283651
  0
ARC
  5
264
100
AcDbEntity
  8
0
100
AcDbCircle
 62
7
  6
BYLAYER
 10
57.6101498175
 20
38.4954805409
 40
0.2768447282
100
AcDbArc
 50
282.0804027583
 51
283.0901745189
  0
ARC
  5
265
100
AcDbEntity
  8
0
100
AcDbCircle
 62
7
  6
BYLAYER
 10
57.6219471821
 20
53.9668543314
 40
0.2484412444
100
AcDbArc
 50
40.5849941584
 51
48.8304039737
  0
ARC
  5
266
100
AcDbEntity
  8
0
100
AcDbCircle
 62
7
  6
BYLAYER
 10
8.1319207237
 20
39.5452535617
 40
0.2
100
AcDbArc
 50
180.0
 51
270.0
  0
ARC
  5
267
100
AcDbEntity
  8
0
100
AcDbCircle
 62
7
  6
BYLAYER
 10
8.1319207237
 20
52.9452535617
 40
0.2
100
AcDbArc
 50
90.0
 51
180.0000000001
  0
SPLINE
  5
268
100
AcDbEntity
  8
0
100
AcDbSpline
 62
7
  6
BYLAYER
 70
0
 71
3
 72
11
 73
7
 74
0
 42
0.0000001
 43
0.0000001
 44
0.0000000001
 40
0.0
 40
0.0
 40
0.0
 40
0.0
 40
0.2509000182
 40
0.5012218286
 40
0.7508284906
 40
1.0
 40
1.0
 40
1.0
 40
1.0
 10
52.3318819033
 20
38.2184586425
 30
0.0
 10
52.3318819033
 20
38.2054545676
 30
0.0
 10
52.3370317679
 20
38.1791929856
 30
0.0
 10
52.359101655
 20
38.1459669627
 30
0.0
 10
52.3920827673
 20
38.1236743511
 30
0.0
 10
52.4182220317
 20
38.1184586425
 30
0.0
 10
52.4311365185
 20
38.1184586425
 30
0.0
  0
SPLINE
  5
269
100
AcDbEntity
  8
0
100
AcDbSpline
 62
7
  6
BYLAYER
 70
0
 71
3
 72
15
 73
11
 74
0
 42
0.0000001
 43
0.0000001
 44
0.0000000001
 40
0.0
 40
0.0
 40
0.0
 40
0.0
 40
0.1254209698
 40
0.2508677489
 40
0.3761027619
 40
0.5011983965
 40
0.6261114854
 40
0.750827156
 40
0.8754959371
 40
1.0
 40
1.0
 40
1.0
 40
1.0
 10
51.7050708307
 20
38.2184586425
 30
0.0
 10
51.7050708307
 20
38.1923306339
 30
0.0
 10
51.7101995927
 20
38.139928816
 30
0.0
 10
51.7329067833
 20
38.0644437466
 30
0.0
 10
51.7698341857
 20
37.9948444096
 30
0.0
 10
51.8195030756
 20
37.9338326595
 30
0.0
 10
51.8800526577
 20
37.8837674493
 30
0.0
 10
51.9491464098
 20
37.8465338895
 30
0.0
 10
52.024100565
 20
37.823632788
 30
0.0
 10
52.076152295
 20
37.8184586425
 30
0.0
 10
52.1020892913
 20
37.8184586425
 30
0.0
  0
SPLINE
  5
26A
100
AcDbEntity
  8
0
100
AcDbSpline
 62
7
  6
BYLAYER
 70
0
 71
3
 72
11
 73
7
 74
0
 42
0.0000001
 43
0.0000001
 44
0.0000000001
 40
0.0
 40
0.0
 40
0.0
 40
0.0
 40
0.2491717487
 40
0.4987784823
 40
0.7491002225
 40
1.0
 40
1.0
 40
1.0
 40
1.0
 10
52.1020892913
 20
38.1184586425
 30
0.0
 10
52.0891747921
 20
38.1184586425
 30
0.0
 10
52.0630355108
 20
38.1236743597
 30
0.0
 10
52.0300543974
 20
38.1459669934
 30
0.0
 10
52.0079845323
 20
38.179193015
 30
0.0
 10
52.0028346761
 20
38.2054545801
 30
0.0
 10
52.0028346761
 20
38.2184586425
 30
0.0
  0
SPLINE
  5
26B
100
AcDbEntity
  8
0
100
AcDbSpline
 62
7
  6
BYLAYER
 70
0
 71
3
 72
12
 73
8
 74
0
 42
0.0000001
 43
0.0000001
 44
0.0000000001
 40
0.0
 40
0.0
 40
0.0
 40
0.0
 40
0.2850362647
 40
0.5565043589
 40
0.8006323709
 40
0.9069931238
 40
1.0
 40
1.0
 40
1.0
 40
1.0
 10
55.7135724881
 20
53.5184585793
 30
0.0
 10
55.7344287318
 20
53.5700698933
 30
0.0
 10
55.7751875323
 20
53.6708245289
 30
0.0
 10
55.8317863157
 20
53.8165747115
 30
0.0
 10
55.8723554209
 20
53.9311429315
 30
0.0
 10
55.8964607686
 20
54.0143570014
 30
0.0
 10
55.9050780917
 20
54.0523763871
 30
0.0
 10
55.9081837723
 20
54.0702726567
 30
0.0
  0
SPLINE
  5
26C
100
AcDbEntity
  8
0
100
AcDbSpline
 62
7
  6
BYLAYER
 70
0
 71
3
 72
16
 73
12
 74
0
 42
0.0000001
 43
0.0000001
 44
0.0000000001
 40
0.0
 40
0.0
 40
0.0
 40
0.0
 40
0.0872678241
 40
0.1347439151
 40
0.1853785359
 40
0.2958040794
 40
0.417288845
 40
0.5492863147
 40
0.6917387483
 40
0.8432715614
 40
1.0
 40
1.0
 40
1.0
 40
1.0
 10
8.4377010661
 20
54.2184586425
 30
0.0
 10
8.4675896618
 20
54.2184586425
 30
0.0
 10
8.5138640984
 20
54.210726778
 30
0.0
 10
8.573799789
 20
54.1897108144
 30
0.0
 10
8.6387867731
 20
54.1598256239
 30
0.0
 10
8.721181326
 20
54.108250809
 30
0.0
 10
8.816169894
 20
54.0269258369
 30
0.0
 10
8.906291324
 20
53.9250493481
 30
0.0
 10
8.9883951323
 20
53.8040292029
 30
0.0
 10
9.0607845504
 20
53.6674047039
 30
0.0
 10
9.1005012796
 20
53.5693104468
 30
0.0
 10
9.1176902368
 20
53.5184586507
 30
0.0
  0
SPLINE
  5
26D
100
AcDbEntity
  8
0
100
AcDbSpline
 62
7
  6
BYLAYER
 70
0
 71
3
 72
9
 73
5
 74
0
 42
0.0000001
 43
0.0000001
 44
0.0000000001
 40
0.0
 40
0.0
 40
0.0
 40
0.0
 40
0.506458637
 40
1.0
 40
1.0
 40
1.0
 40
1.0
 10
47.9176900837
 20
54.206043866
 30
0.0
 10
47.7815016731
 20
54.2060552577
 30
0.0
 10
47.5126243779
 20
54.2107978756
 30
0.0
 10
47.2437918657
 20
54.2184493069
 30
0.0
 10
47.111076953
 20
54.2184586425
 30
0.0
  0
SPLINE
  5
26E
100
AcDbEntity
  8
0
100
AcDbSpline
 62
7
  6
BYLAYER
 70
0
 71
3
 72
13
 73
9
 74
0
 42
0.0000001
 43
0.0000001
 44
0.0000000001
 40
0.0
 40
0.0
 40
0.0
 40
0.0
 40
0.0691596936
 40
0.1600315306
 40
0.2702786606
 40
0.3968082793
 40
0.6856621744
 40
1.0
 40
1.0
 40
1.0
 40
1.0
 10
56.2001055204
 20
38.6031297153
 30
0.0
 10
56.1920288326
 20
38.6138340392
 30
0.0
 10
56.1698202858
 20
38.6358280303
 30
0.0
 10
56.1287502498
 20
38.6683683148
 30
0.0
 10
56.0764493505
 20
38.7045148884
 30
0.0
 10
55.9904666959
 20
38.7592375779
 30
0.0
 10
55.8684495147
 20
38.8309369928
 30
0.0
 10
55.7665620272
 20
38.8883470472
 30
0.0
 10
55.7135723107
 20
38.9184586358
 30
0.0
  0
SPLINE
  5
26F
100
AcDbEntity
  8
0
100
AcDbSpline
 62
7
  6
BYLAYER
 70
0
 71
3
 72
13
 73
9
 74
0
 42
0.0000001
 43
0.0000001
 44
0.0000000001
 40
0.0
 40
0.0
 40
0.0
 40
0.0
 40
0.2576850508
 40
0.3935812992
 40
0.5288323236
 40
0.6596012725
 40
0.7829934541
 40
1.0
 40
1.0
 40
1.0
 40
1.0
 10
55.9081856025
 20
38.3666329312
 30
0.0
 10
55.9423026747
 20
38.3705531541
 30
0.0
 10
55.9939444253
 20
38.3837130129
 30
0.0
 10
56.0573661652
 20
38.4148230432
 30
0.0
 10
56.101794613
 20
38.4451281014
 30
0.0
 10
56.1395686019
 20
38.4810910319
 30
0.0
 10
56.1775535167
 20
38.531292717
 30
0.0
 10
56.1951182668
 20
38.5746425807
 30
0.0
 10
56.2001055531
 20
38.6031296648
 30
0.0
  0
SPLINE
  5
270
100
AcDbEntity
  8
0
100
AcDbSpline
 62
7
  6
BYLAYER
 70
0
 71
3
 72
11
 73
7
 74
0
 42
0.0000001
 43
0.0000001
 44
0.0000000001
 40
0.0
 40
0.0
 40
0.0
 40
0.0
 40
0.3513144846
 40
0.4835558168
 40
0.6358822464
 40
1.0
 40
1.0
 40
1.0
 40
1.0
 10
56.2581635882
 20
38.5184586425
 30
0.0
 10
56.2457035774
 20
38.518462086
 30
0.0
 10
56.2310595115
 20
38.533610675
 30
0.0
 10
56.2199076528
 20
38.5525758803
 30
0.0
 10
56.2098810813
 20
38.5734822855
 30
0.0
 10
56.2038749933
 20
38.5907780244
 30
0.0
 10
56.2001055204
 20
38.6031297498
 30
0.0
  0
SPLINE
  5
271
100
AcDbEntity
  8
0
100
AcDbSpline
 62
7
  6
BYLAYER
 70
0
 71
3
 72
13
 73
9
 74
0
 42
0.0000001
 43
0.0000001
 44
0.0000000001
 40
0.0
 40
0.0
 40
0.0
 40
0.0
 40
0.236533767
 40
0.3645342303
 40
0.4957301125
 40
0.6276456331
 40
0.757598171
 40
1.0
 40
1.0
 40
1.0
 40
1.0
 10
55.9659690031
 20
38.2184586425
 30
0.0
 10
56.0025018978
 20
38.2184586426
 30
0.0
 10
56.0595846757
 20
38.2296106818
 30
0.0
 10
56.1273425217
 20
38.2660658438
 30
0.0
 10
56.1742339208
 20
38.3048768371
 30
0.0
 10
56.2119526627
 20
38.353023076
 30
0.0
 10
56.2474528164
 20
38.422755332
 30
0.0
 10
56.2581635869
 20
38.4810194193
 30
0.0
 10
56.258163575
 20
38.5184586425
 30
0.0
  0
SPLINE
  5
272
100
AcDbEntity
  8
0
100
AcDbSpline
 62
7
  6
BYLAYER
 70
0
 71
3
 72
9
 73
5
 74
0
 42
0.0000001
 43
0.0000001
 44
0.0000000001
 40
0.0
 40
0.0
 40
0.0
 40
0.0
 40
0.4984863867
 40
1.0
 40
1.0
 40
1.0
 40
1.0
 10
56.1589882436
 20
38.2184586425
 30
0.0
 10
56.1962175315
 20
38.2184643011
 30
0.0
 10
56.2714440687
 20
38.2339113535
 30
0.0
 10
56.3357053417
 20
38.2758213532
 30
0.0
 10
56.3624974933
 20
38.3019954965
 30
0.0
  0
SPLINE
  5
273
100
AcDbEntity
  8
0
100
AcDbSpline
 62
7
  6
BYLAYER
 70
0
 71
3
 72
9
 73
5
 74
0
 42
0.0000001
 43
0.0000001
 44
0.0000000001
 40
0.0
 40
0.0
 40
0.0
 40
0.0
 40
0.498792018
 40
1.0
 40
1.0
 40
1.0
 40
1.0
 10
56.3705022829
 20
38.3101391715
 30
0.0
 10
56.3955277917
 20
38.336652616
 30
0.0
 10
56.4357059357
 20
38.3998706423
 30
0.0
 10
56.4517014599
 20
38.472984675
 30
0.0
 10
56.4528227433
 20
38.5096028321
 30
0.0
  0
SPLINE
  5
274
100
AcDbEntity
  8
0
100
AcDbSpline
 62
7
  6
BYLAYER
 70
0
 71
3
 72
13
 73
9
 74
0
 42
0.0000001
 43
0.0000001
 44
0.0000000001
 40
0.0
 40
0.0
 40
0.0
 40
0.0
 40
0.263042885
 40
0.400309492
 40
0.5358635651
 40
0.6658427899
 40
0.7876254294
 40
1.0
 40
1.0
 40
1.0
 40
1.0
 10
55.9081839928
 20
54.0702844154
 30
0.0
 10
55.9430114554
 20
54.066282715
 30
0.0
 10
55.9955372281
 20
54.0527452431
 30
0.0
 10
56.0595998201
 20
54.0208006295
 30
0.0
 10
56.103893782
 20
53.9900833211
 30
0.0
 10
56.1411694135
 20
53.9540051877
 30
0.0
 10
56.1781906039
 20
53.9042504741
 30
0.0
 10
56.1952245391
 20
53.8616674363
 30
0.0
 10
56.2001055232
 20
53.8337876023
 30
0.0
  0
SPLINE
  5
275
100
AcDbEntity
  8
0
100
AcDbSpline
 62
7
  6
BYLAYER
 70
0
 71
3
 72
13
 73
9
 74
0
 42
0.0000001
 43
0.0000001
 44
0.0000000001
 40
0.0
 40
0.0
 40
0.0
 40
0.0
 40
0.1103902157
 40
0.1964167619
 40
0.3070430653
 40
0.4430563641
 40
0.6044870235
 40
1.0
 40
1.0
 40
1.0
 40
1.0
 10
55.9659678249
 20
54.2184586425
 30
0.0
 10
55.959932042
 20
54.2184587046
 30
0.0
 10
55.9504533288
 20
54.2101431582
 30
0.0
 10
55.9421646024
 20
54.1960346498
 30
0.0
 10
55.9347557583
 20
54.1792181736
 30
0.0
 10
55.9276913089
 20
54.1580906367
 30
0.0
 10
55.9177700389
 20
54.1214845948
 30
0.0
 10
55.9118693213
 20
54.091581434
 30
0.0
 10
55.9081816117
 20
54.0702727998
 30
0.0
  0
SPLINE
  5
276
100
AcDbEntity
  8
0
100
AcDbSpline
 62
7
  6
BYLAYER
 70
0
 71
3
 72
19
 73
15
 74
0
 42
0.0000001
 43
0.0000001
 44
0.0000000001
 40
0.0
 40
0.0
 40
0.0
 40
0.0
 40
0.0039200231
 40
0.0088151358
 40
0.0156646956
 40
0.0352225792
 40
0.0625890001
 40
0.0977656665
 40
0.1407600079
 40
0.2501931086
 40
0.390894325
 40
0.5629415685
 40
0.7661096166
 40
1.0
 40
1.0
 40
1.0
 40
1.0
 10
7.9176902392
 20
53.9184586428
 30
0.0
 10
7.9177579173
 20
53.9185867929
 30
0.0
 10
7.9182056261
 20
53.918387972
 30
0.0
 10
7.9187217777
 20
53.9184867486
 30
0.0
 10
7.9199147848
 20
53.918409957
 30
0.0
 10
7.921875382
 20
53.9183955978
 30
0.0
 10
7.9249205249
 20
53.9182369728
 30
0.0
 10
7.9288100068
 20
53.9180042185
 30
0.0
 10
7.9357271736
 20
53.9174581272
 30
0.0
 10
7.9465049113
 20
53.9163213362
 30
0.0
 10
7.9619645835
 20
53.9141459645
 30
0.0
 10
7.9807506264
 20
53.9108259365
 30
0.0
 10
8.0027803924
 20
53.906138106
 30
0.0
 10
8.0184632243
 20
53.9022324779
 30
0.0
 10
8.0268190084
 20
53.9000075448
 30
0.0
  0
SPLINE
  5
277
100
AcDbEntity
  8
0
100
AcDbSpline
 62
7
  6
BYLAYER
 70
0
 71
3
 72
13
 73
9
 74
0
 42
0.0000001
 43
0.0000001
 44
0.0000000001
 40
0.0
 40
0.0
 40
0.0
 40
0.0
 40
0.2167691084
 40
0.3404623226
 40
0.4717984492
 40
0.6078189745
 40
0.7442542632
 40
1.0
 40
1.0
 40
1.0
 40
1.0
 10
8.3163099362
 20
54.2184586425
 30
0.0
 10
8.2823493851
 20
54.2184586418
 30
0.0
 10
8.2283580621
 20
54.2058001126
 30
0.0
 10
8.1647206516
 20
54.1675877011
 30
0.0
 10
8.1188593797
 20
54.126320326
 30
0.0
 10
8.0808329505
 20
54.0752923514
 30
0.0
 10
8.0431976112
 20
54.0012801594
 30
0.0
 10
8.0293336988
 20
53.9399954549
 30
0.0
 10
8.0268189924
 20
53.9000075477
 30
0.0
  0
SPLINE
  5
278
100
AcDbEntity
  8
0
100
AcDbSpline
 62
7
  6
BYLAYER
 70
0
 71
3
 72
9
 73
5
 74
0
 42
0.0000001
 43
0.0000001
 44
0.0000000001
 40
0.0
 40
0.0
 40
0.0
 40
0.0
 40
0.457055329
 40
1.0
 40
1.0
 40
1.0
 40
1.0
 10
8.0268190084
 20
53.9000075448
 30
0.0
 10
8.0459062722
 20
53.8949279783
 30
0.0
 10
8.0871703835
 20
53.8820283026
 30
0.0
 10
8.1284199284
 20
53.8691606095
 30
0.0
 10
8.1509143831
 20
53.8624878424
 30
0.0
  0
SPLINE
  5
279
100
AcDbEntity
  8
0
100
AcDbSpline
 62
7
  6
BYLAYER
 70
0
 71
3
 72
14
 73
10
 74
0
 42
0.0000001
 43
0.0000001
 44
0.0000000001
 40
0.0
 40
0.0
 40
0.0
 40
0.0
 40
0.0877619589
 40
0.1894763663
 40
0.276503668
 40
0.371961626
 40
0.5812895356
 40
0.7980675778
 40
1.0
 40
1.0
 40
1.0
 40
1.0
 10
8.4377047404
 20
54.2184586425
 30
0.0
 10
8.4233685536
 20
54.2184586422
 30
0.0
 10
8.3923299403
 20
54.213746002
 30
0.0
 10
8.3504488516
 20
54.1957212993
 30
0.0
 10
8.3120611369
 20
54.1693006856
 30
0.0
 10
8.2648162087
 20
54.1258439031
 30
0.0
 10
8.2144385554
 20
54.0560287037
 30
0.0
 10
8.1720538816
 20
53.9620016034
 30
0.0
 10
8.1557465892
 20
53.8951172756
 30
0.0
 10
8.1509181641
 20
53.8624862894
 30
0.0
  0
SPLINE
  5
27A
100
AcDbEntity
  8
0
100
AcDbSpline
 62
7
  6
BYLAYER
 70
0
 71
3
 72
13
 73
9
 74
0
 42
0.0000001
 43
0.0000001
 44
0.0000000001
 40
0.0
 40
0.0
 40
0.0
 40
0.0
 40
0.2424023867
 40
0.3723550877
 40
0.5042706732
 40
0.6354664945
 40
0.7634668011
 40
1.0
 40
1.0
 40
1.0
 40
1.0
 10
56.2581634384
 20
53.9184586425
 30
0.0
 10
56.2581634384
 20
53.9558979556
 30
0.0
 10
56.247452602
 20
54.0141621624
 30
0.0
 10
56.2119522956
 20
54.0838944869
 30
0.0
 10
56.1742334698
 20
54.1320407011
 30
0.0
 10
56.1273420329
 20
54.1708516207
 30
0.0
 10
56.0595842464
 20
54.2073066508
 30
0.0
 10
56.0025015809
 20
54.2184586395
 30
0.0
 10
55.9659687702
 20
54.2184586425
 30
0.0
  0
SPLINE
  5
27B
100
AcDbEntity
  8
0
100
AcDbSpline
 62
7
  6
BYLAYER
 70
0
 71
3
 72
13
 73
9
 74
0
 42
0.0000001
 43
0.0000001
 44
0.0000000001
 40
0.0
 40
0.0
 40
0.0
 40
0.0
 40
0.283769281
 40
0.5537516872
 40
0.6798812333
 40
0.7976825224
 40
0.9050717014
 40
1.0
 40
1.0
 40
1.0
 40
1.0
 10
9.1176902365
 20
53.5184586525
 30
0.0
 10
9.0229469025
 20
53.5401746245
 30
0.0
 10
8.8391826294
 20
53.5883619282
 30
0.0
 10
8.620703212
 20
53.6698510482
 30
0.0
 10
8.4586919107
 20
53.7386689126
 30
0.0
 10
8.3482359026
 20
53.786443815
 30
0.0
 10
8.2464291587
 20
53.8272129363
 30
0.0
 10
8.1814725839
 20
53.8513752905
 30
0.0
 10
8.1509143831
 20
53.8624878424
 30
0.0
  0
SPLINE
  5
27C
100
AcDbEntity
  8
0
100
AcDbSpline
 62
7
  6
BYLAYER
 70
0
 71
3
 72
13
 73
9
 74
0
 42
0.0000001
 43
0.0000001
 44
0.0000000001
 40
0.0
 40
0.0
 40
0.0
 40
0.0
 40
0.314299724
 40
0.6031920701
 40
0.7297514193
 40
0.8400081178
 40
0.9308580395
 40
1.0
 40
1.0
 40
1.0
 40
1.0
 10
55.7135723107
 20
53.5184586487
 30
0.0
 10
55.7665630067
 20
53.5485534952
 30
0.0
 10
55.8684421529
 20
53.6059784028
 30
0.0
 10
55.9904620977
 20
53.6776841138
 30
0.0
 10
56.0764578442
 20
53.7324143133
 30
0.0
 10
56.1287620866
 20
53.7685616426
 30
0.0
 10
56.1698308552
 20
53.8010944307
 30
0.0
 10
56.1920315821
 20
53.8230854526
 30
0.0
 10
56.2001055204
 20
53.8337875354
 30
0.0
  0
SPLINE
  5
27D
100
AcDbEntity
  8
0
100
AcDbSpline
 62
7
  6
BYLAYER
 70
0
 71
3
 72
12
 73
8
 74
0
 42
0.0000001
 43
0.0000001
 44
0.0000000001
 40
0.0
 40
0.0
 40
0.0
 40
0.0
 40
0.1525971916
 40
0.2472317183
 40
0.3591803159
 40
0.6404391763
 40
1.0
 40
1.0
 40
1.0
 40
1.0
 10
56.2581634384
 20
53.9184586425
 30
0.0
 10
56.2527028792
 20
53.918260924
 30
0.0
 10
56.2439620028
 20
53.9145853407
 30
0.0
 10
56.2345215759
 20
53.9058428947
 30
0.0
 10
56.2237803228
 20
53.8919621087
 30
0.0
 10
56.2115284083
 20
53.8677633039
 30
0.0
 10
56.2038776977
 20
53.8460975848
 30
0.0
 10
56.2001055204
 20
53.83378757
 30
0.0
  0
SPLINE
  5
27E
100
AcDbEntity
  8
0
100
AcDbSpline
 62
7
  6
BYLAYER
 70
0
 71
3
 72
9
 73
5
 74
0
 42
0.0000001
 43
0.0000001
 44
0.0000000001
 40
0.0
 40
0.0
 40
0.0
 40
0.0
 40
0.4974441462
 40
1.0
 40
1.0
 40
1.0
 40
1.0
 10
57.6728507964
 20
38.2258296727
 30
0.0
 10
57.6933900029
 20
38.2306057777
 30
0.0
 10
57.7337274128
 20
38.2450221005
 30
0.0
 10
57.769372953
 20
38.2689121403
 30
0.0
 10
57.7854090555
 20
38.2829370954
 30
0.0
  0
SPLINE
  5
27F
100
AcDbEntity
  8
0
100
AcDbSpline
 62
7
  6
BYLAYER
 70
0
 71
3
 72
9
 73
5
 74
0
 42
0.0000001
 43
0.0000001
 44
0.0000000001
 40
0.0
 40
0.0
 40
0.0
 40
0.0
 40
0.4871481213
 40
1.0
 40
1.0
 40
1.0
 40
1.0
 10
57.7854090555
 20
38.2829370954
 30
0.0
 10
57.7985094306
 20
38.2943945037
 30
0.0
 10
57.822987752
 20
38.320828255
 30
0.0
 10
57.8412100005
 20
38.3519238715
 30
0.0
 10
57.8487916452
 20
38.3686037212
 30
0.0
  0
SPLINE
  5
280
100
AcDbEntity
  8
0
100
AcDbSpline
 62
7
  6
BYLAYER
 70
0
 71
3
 72
9
 73
5
 74
0
 42
0.0000001
 43
0.0000001
 44
0.0000000001
 40
0.0
 40
0.0
 40
0.0
 40
0.0
 40
0.4682968451
 40
1.0
 40
1.0
 40
1.0
 40
1.0
 10
57.8487916452
 20
38.3686037212
 30
0.0
 10
57.8586671424
 20
38.3903301162
 30
0.0
 10
57.8735121926
 20
38.4398219239
 30
0.0
 10
57.873803062
 20
38.4915597082
 30
0.0
 10
57.870534241
 20
38.5184586425
 30
0.0
  0
SPLINE
  5
281
100
AcDbEntity
  8
0
100
AcDbSpline
 62
7
  6
BYLAYER
 70
0
 71
3
 72
9
 73
5
 74
0
 42
0.0000001
 43
0.0000001
 44
0.0000000001
 40
0.0
 40
0.0
 40
0.0
 40
0.0
 40
0.4935323448
 40
1.0
 40
1.0
 40
1.0
 40
1.0
 10
47.1110776205
 20
38.2184586425
 30
0.0
 10
47.2437900828
 20
38.2184714941
 30
0.0
 10
47.5126224045
 20
38.2261267152
 30
0.0
 10
47.7814997731
 20
38.230860889
 30
0.0
 10
47.9176905828
 20
38.230873419
 30
0.0
  0
SPLINE
  5
282
100
AcDbEntity
  8
0
100
AcDbSpline
 62
7
  6
BYLAYER
 70
0
 71
3
 72
9
 73
5
 74
0
 42
0.0000001
 43
0.0000001
 44
0.0000000001
 40
0.0
 40
0.0
 40
0.0
 40
0.0
 40
0.5003516919
 40
1.0
 40
1.0
 40
1.0
 40
1.0
 10
57.6076902392
 20
54.2184586425
 30
0.0
 10
57.6397615019
 20
54.2184586425
 30
0.0
 10
57.7044354061
 20
54.2080423441
 30
0.0
 10
57.7613868726
 20
54.174956206
 30
0.0
 10
57.7854935934
 20
54.1538720398
 30
0.0
  0
SPLINE
  5
283
100
AcDbEntity
  8
0
100
AcDbSpline
 62
7
  6
BYLAYER
 70
0
 71
3
 72
9
 73
5
 74
0
 42
0.0000001
 43
0.0000001
 44
0.0000000001
 40
0.0
 40
0.0
 40
0.0
 40
0.0
 40
0.2433997751
 40
1.0
 40
1.0
 40
1.0
 40
1.0
 10
57.8106238281
 20
54.1284840787
 30
0.0
 10
57.8143743411
 20
54.1241050285
 30
0.0
 10
57.8291554354
 20
54.1055835769
 30
0.0
 10
57.8412566872
 20
54.0849393839
 30
0.0
 10
57.8486975963
 20
54.0686347798
 30
0.0
  0
SPLINE
  5
284
100
AcDbEntity
  8
0
100
AcDbSpline
 62
7
  6
BYLAYER
 70
0
 71
3
 72
9
 73
5
 74
0
 42
0.0000001
 43
0.0000001
 44
0.0000000001
 40
0.0
 40
0.0
 40
0.0
 40
0.0
 40
0.4682208825
 40
1.0
 40
1.0
 40
1.0
 40
1.0
 10
57.8486975963
 20
54.0686347798
 30
0.0
 10
57.8586265916
 20
54.0468782532
 30
0.0
 10
57.8735320208
 20
53.9972755687
 30
0.0
 10
57.8738108546
 20
53.9454217012
 30
0.0
 10
57.870534241
 20
53.9184586425
 30
0.0
  0
SPLINE
  5
285
100
AcDbEntity
  8
0
100
AcDbSpline
 62
7
  6
BYLAYER
 70
0
 71
3
 72
13
 73
9
 74
0
 42
0.0000001
 43
0.0000001
 44
0.0000000001
 40
0.0
 40
0.0
 40
0.0
 40
0.0
 40
0.2181176041
 40
0.3422762061
 40
0.4738387695
 40
0.609758599
 40
0.7457856731
 40
1.0
 40
1.0
 40
1.0
 40
1.0
 10
8.3163101349
 20
38.2184586425
 30
0.0
 10
8.2821386192
 20
38.2184586431
 30
0.0
 10
8.2278539913
 20
38.231267996
 30
0.0
 10
8.164049362
 20
38.2698235669
 30
0.0
 10
8.1182370154
 20
38.3112835734
 30
0.0
 10
8.0803743575
 20
38.3623753995
 30
0.0
 10
8.0430534084
 20
38.4361847643
 30
0.0
 10
8.0293185524
 20
38.4971616161
 30
0.0
 10
8.0268190546
 20
38.536909734
 30
0.0
  0
SPLINE
  5
286
100
AcDbEntity
  8
0
100
AcDbSpline
 62
7
  6
BYLAYER
 70
0
 71
3
 72
19
 73
15
 74
0
 42
0.0000001
 43
0.0000001
 44
0.0000000001
 40
0.0
 40
0.0
 40
0.0
 40
0.0
 40
0.2338903415
 40
0.4370587126
 40
0.6091064483
 40
0.7498077854
 40
0.8592406051
 40
0.9022347434
 40
0.937411234
 40
0.9647775345
 40
0.9843353558
 40
0.9911849012
 40
0.9960800048
 40
1.0
 40
1.0
 40
1.0
 40
1.0
 10
8.0268189581
 20
38.5369097272
 30
0.0
 10
8.0184631794
 20
38.5346847508
 30
0.0
 10
8.0027803496
 20
38.5307790181
 30
0.0
 10
7.9807505818
 20
38.5260909621
 30
0.0
 10
7.9619645469
 20
38.5227706321
 30
0.0
 10
7.9465048791
 20
38.5205949474
 30
0.0
 10
7.9357271849
 20
38.5194580516
 30
0.0
 10
7.9288099779
 20
38.5189120806
 30
0.0
 10
7.9249205953
 20
38.5186795744
 30
0.0
 10
7.9218752007
 20
38.5185210645
 30
0.0
 10
7.9199151232
 20
38.5185071816
 30
0.0
 10
7.9187214155
 20
38.5184301905
 30
0.0
 10
7.9182064937
 20
38.5185296699
 30
0.0
 10
7.9177564087
 20
38.5183297079
 30
0.0
 10
7.9176902392
 20
38.5184586425
 30
0.0
  0
SPLINE
  5
287
100
AcDbEntity
  8
0
100
AcDbSpline
 62
7
  6
BYLAYER
 70
0
 71
3
 72
14
 73
10
 74
0
 42
0.0000001
 43
0.0000001
 44
0.0000000001
 40
0.0
 40
0.0
 40
0.0
 40
0.0
 40
0.0877626497
 40
0.189477524
 40
0.2765049793
 40
0.3719629308
 40
0.5812904471
 40
0.7980679385
 40
1.0
 40
1.0
 40
1.0
 40
1.0
 10
8.4377014453
 20
38.2184586425
 30
0.0
 10
8.4233651661
 20
38.2184586436
 30
0.0
 10
8.3923264071
 20
38.2231712424
 30
0.0
 10
8.3504451117
 20
38.2411958415
 30
0.0
 10
8.3120572658
 20
38.267616327
 30
0.0
 10
8.2648122872
 20
38.3110728627
 30
0.0
 10
8.2144346423
 20
38.3808877414
 30
0.0
 10
8.1720501247
 20
38.4749145318
 30
0.0
 10
8.1557430389
 20
38.541798664
 30
0.0
 10
8.1509147291
 20
38.5744295603
 30
0.0
  0
SPLINE
  5
288
100
AcDbEntity
  8
0
100
AcDbSpline
 62
7
  6
BYLAYER
 70
0
 71
3
 72
9
 73
5
 74
0
 42
0.0000001
 43
0.0000001
 44
0.0000000001
 40
0.0
 40
0.0
 40
0.0
 40
0.0
 40
0.5429442083
 40
1.0
 40
1.0
 40
1.0
 40
1.0
 10
8.1509144549
 20
38.5744294643
 30
0.0
 10
8.1284199647
 20
38.5677568078
 30
0.0
 10
8.0871702675
 20
38.5548894679
 30
0.0
 10
8.045906254
 20
38.5419893243
 30
0.0
 10
8.0268189581
 20
38.5369097272
 30
0.0
  0
SPLINE
  5
289
100
AcDbEntity
  8
0
100
AcDbSpline
 62
7
  6
BYLAYER
 70
0
 71
3
 72
13
 73
9
 74
0
 42
0.0000001
 43
0.0000001
 44
0.0000000001
 40
0.0
 40
0.0
 40
0.0
 40
0.0
 40
0.0949265473
 40
0.2023160884
 40
0.3201177905
 40
0.4462471305
 40
0.7162296631
 40
1.0
 40
1.0
 40
1.0
 40
1.0
 10
8.1509144549
 20
38.5744294643
 30
0.0
 10
8.1814740775
 20
38.5855363562
 30
0.0
 10
8.2464314022
 20
38.6096956481
 30
0.0
 10
8.3482350861
 20
38.6504715732
 30
0.0
 10
8.4586898418
 20
38.6982498118
 30
0.0
 10
8.6207015471
 20
38.767067021
 30
0.0
 10
8.8391821833
 20
38.848554849
 30
0.0
 10
9.0229481924
 20
38.896735382
 30
0.0
 10
9.1176902359
 20
38.9184586317
 30
0.0
  0
SPLINE
  5
28A
100
AcDbEntity
  8
0
100
AcDbSpline
 62
7
  6
BYLAYER
 70
0
 71
3
 72
12
 73
8
 74
0
 42
0.0000001
 43
0.0000001
 44
0.0000000001
 40
0.0
 40
0.0
 40
0.0
 40
0.0
 40
0.0930017875
 40
0.1993623641
 40
0.4434909856
 40
0.7149498304
 40
1.0
 40
1.0
 40
1.0
 40
1.0
 10
55.9081856053
 20
38.3666329332
 30
0.0
 10
55.9050805381
 20
38.3845286708
 30
0.0
 10
55.8964637245
 20
38.4225479413
 30
0.0
 10
55.8723587606
 20
38.5057629807
 30
0.0
 10
55.8317901448
 20
38.6203321508
 30
0.0
 10
55.7751899033
 20
38.7660862434
 30
0.0
 10
55.7344298453
 20
38.8668437059
 30
0.0
 10
55.7135723116
 20
38.9184586337
 30
0.0
  0
SPLINE
  5
28B
100
AcDbEntity
  8
0
100
AcDbSpline
 62
7
  6
BYLAYER
 70
0
 71
3
 72
13
 73
9
 74
0
 42
0.0000001
 43
0.0000001
 44
0.0000000001
 40
0.0
 40
0.0
 40
0.0
 40
0.0
 40
0.1108958354
 40
0.1974653432
 40
0.308385906
 40
0.4442729212
 40
0.605091109
 40
1.0
 40
1.0
 40
1.0
 40
1.0
 10
55.9659776582
 20
38.2184586426
 30
0.0
 10
55.9599185781
 20
38.2184597676
 30
0.0
 10
55.9504863996
 20
38.2269783233
 30
0.0
 10
55.9422300382
 20
38.2411411462
 30
0.0
 10
55.9348063427
 20
38.2579870575
 30
0.0
 10
55.9277262255
 20
38.2790636164
 30
0.0
 10
55.9177782005
 20
38.3155596938
 30
0.0
 10
55.9118821918
 20
38.3453741132
 30
0.0
 10
55.9081945344
 20
38.3666335196
 30
0.0
  0
SPLINE
  5
28C
100
AcDbEntity
  8
0
100
AcDbSpline
 62
7
  6
BYLAYER
 70
0
 71
3
 72
9
 73
5
 74
0
 42
0.0000001
 43
0.0000001
 44
0.0000000001
 40
0.0
 40
0.0
 40
0.0
 40
0.0
 40
0.5064629386
 40
1.0
 40
1.0
 40
1.0
 40
1.0
 10
47.9176905828
 20
38.230873419
 30
0.0
 10
48.0538801546
 20
38.2308635292
 30
0.0
 10
48.322757481
 20
38.226119071
 30
0.0
 10
48.5915899766
 20
38.2184702554
 30
0.0
 10
48.7243037368
 20
38.2184586425
 30
0.0
  0
SPLINE
  5
28D
100
AcDbEntity
  8
0
100
AcDbSpline
 62
7
  6
BYLAYER
 70
0
 71
3
 72
9
 73
5
 74
0
 42
0.0000001
 43
0.0000001
 44
0.0000000001
 40
0.0
 40
0.0
 40
0.0
 40
0.0
 40
0.4935409989
 40
1.0
 40
1.0
 40
1.0
 40
1.0
 10
48.7243028012
 20
54.2184586425
 30
0.0
 10
48.5915880543
 20
54.2184487612
 30
0.0
 10
48.3227556812
 20
54.2107968761
 30
0.0
 10
48.0538785222
 20
54.2060577218
 30
0.0
 10
47.9176900837
 20
54.206043866
 30
0.0
  0
SPLINE
  5
28E
100
AcDbEntity
  8
0
100
AcDbSpline
 62
7
  6
BYLAYER
 70
0
 71
3
 72
14
 73
10
 74
0
 42
0.0000001
 43
0.0000001
 44
0.0000000001
 40
0.0
 40
0.0
 40
0.0
 40
0.0
 40
0.1569623998
 40
0.3086932513
 40
0.4513250685
 40
0.583469705
 40
0.7051313583
 40
0.8156821918
 40
1.0
 40
1.0
 40
1.0
 40
1.0
 10
9.1176902361
 20
38.9184586337
 30
0.0
 10
9.1002297049
 20
38.8676935243
 30
0.0
 10
9.0606530687
 20
38.7695738269
 30
0.0
 10
8.9884860793
 20
38.6328199441
 30
0.0
 10
8.9062620677
 20
38.5118839993
 30
0.0
 10
8.8162643995
 20
38.4100204603
 30
0.0
 10
8.7210496357
 20
38.3286051929
 30
0.0
 10
8.6006214704
 20
38.2532068334
 30
0.0
 10
8.5007411786
 20
38.2184586425
 30
0.0
 10
8.4377011894
 20
38.2184586425
 30
0.0
  0
ELLIPSE
  5
28F
100
AcDbEntity
  8
0
100
AcDbEllipse
 62
7
  6
BYLAYER
 10
55.9509006827
 20
38.2184586425
 30
0.0
 11
0.1070495508
 21
-0.0
 31
0.0
 40
0.9341468435
 41
4.7123889804
 42
6.2831853072
  0
ELLIPSE
  5
290
100
AcDbEntity
  8
0
100
AcDbEllipse
 62
7
  6
BYLAYER
 10
57.2960245949
 20
39.4684586425
 30
0.0
 11
0.0
 21
0.4
 31
0.0
 40
0.9341468435
 41
-1.5707963268
 42
0.0
  0
ELLIPSE
  5
291
100
AcDbEntity
  8
0
100
AcDbEllipse
 62
7
  6
BYLAYER
 10
57.2960245949
 20
38.2184586425
 30
0.0
 11
0.0
 21
0.4
 31
0.0
 40
0.9341468435
 41
-3.1415926536
 42
-1.5707963267
  0
ELLIPSE
  5
292
100
AcDbEntity
  8
0
100
AcDbEllipse
 62
7
  6
BYLAYER
 10
55.9509006827
 20
38.2184586425
 30
0.0
 11
0.4281982033
 21
0.0
 31
0.0
 40
0.9341468435
 41
-1.5707963268
 42
0.0000000001
  0
ENDSEC
  0
SECTION
  2
OBJECTS
  0
DICTIONARY
  5
C
100
AcDbDictionary
280
0
281
1
  3
ACAD_GROUP
350
D
  3
ACAD_MLINESTYLE
350
17
  3
ACAD_LAYOUT
350
1A
  3
ACAD_PLOTSETTINGS
350
19
  3
ACAD_PLOTSTYLENAME
350
E
  0
DICTIONARY
  5
D
102
{ACAD_REACTORS
330
C
102
}
100
AcDbDictionary
280
0
281
1
  0
ACDBDICTIONARYWDFLT
  5
E
102
{ACAD_REACTORS
330
C
102
}
100
AcDbDictionary
281
1
  3
Normal
350
F
100
AcDbDictionaryWithDefault
340
F
  0
DICTIONARY
  5
17
102
{ACAD_REACTORS
330
C
102
}
100
AcDbDictionary
280
0
281
1
  3
Standard
350
18
  0
DICTIONARY
  5
19
102
{ACAD_REACTORS
330
C
102
}
100
AcDbDictionary
281
1
  0
DICTIONARY
  5
1A
102
{ACAD_REACTORS
330
C
102
}
100
AcDbDictionary
281
1
  3
Model
350
293
  3
Layout1
350
294
  0
ACDBPLACEHOLDER
  5
F
102
{ACAD_REACTORS
330
E
102
}
  0
MLINESTYLE
  5
18
102
{ACAD_REACTORS
330
17
102
}
100
AcDbMlineStyle
  2
STANDARD
 70
0
  3

 62
256
 51
90.0
 52
90.0
 71
2
 49
0.5
 62
256
  6
BYLAYER
 49
-0.5
 62
256
  6
BYLAYER
  0
LAYOUT
  5
293
102
{ACAD_REACTORS
330
1A
102
}
100
AcDbPlotSettings
  1

  2
none_device
  4

  6

 40
0.0
 41
0.0
 42
0.0
 43
0.0
 44
210.0
 45
297.0
 46
0.0
 47
0.0
 48
0.0
 49
0.0
140
0.0
141
0.0
142
1.0
143
1.0
 70
1024
 72
1
 73
0
 74
0
  7

 75
0
147
1.0
148
0.0
149
0.0
100
AcDbLayout
  1
Model
 70
0
 71
0
 10
0.0
 20
0.0
 11
210.0
 21
297.0
 12
0.0
 22
0.0
 32
0.0
 14
0.0
 24
0.0
 34
0.0
 15
0.0
 25
0.0
 35
0.0
146
0.0
 13
0.0
 23
0.0
 33
0.0
 16
1.0
 26
0.0
 36
0.0
 17
0.0
 27
1.0
 37
0.0
 76
0
330
210
345
0
346
0
  0
LAYOUT
  5
294
102
{ACAD_REACTORS
330
1A
102
}
100
AcDbPlotSettings
  1

  2
none_device
  4

  6

 40
0.0
 41
0.0
 42
0.0
 43
0.0
 44
210.0
 45
297.0
 46
0.0
 47
0.0
 48
0.0
 49
0.0
140
0.0
141
0.0
142
1.0
143
1.0
 70
0
 72
1
 73
0
 74
0
  7

 75
0
147
1.0
148
0.0
149
0.0
100
AcDbLayout
  1
Layout1
 70
0
 71
1
 10
0.0
 20
0.0
 11
210.0
 21
297.0
 12
0.0
 22
0.0
 32
0.0
 14
0.0
 24
0.0
 34
0.0
 15
0.0
 25
0.0
 35
0.0
146
0.0
 13
0.0
 23
0.0
 33
0.0
 16
1.0
 26
0.0
 36
0.0
 17
0.0
 27
1.0
 37
0.0
 76
0
330
211
345
0
346
0
  0
ENDSEC
  0
EOF
