999
DXF file: C:\Users\sesa63760\Dev\_Creo\CAD\MCADID0000524_3D-CAD\drw0001_3.dxf
999
Pro/ENGINEER 2019471 by Parametric Technology Corporation
  0
SECTION
  2
HEADER
  9
$ACADVER
  1
AC1024
  9
$DWGCODEPAGE
  3
ANSI_1252
  9
$EXTMAX
 10
75.5909643481
 20
106.9072210066
 30
0.0
  9
$EXTMIN
 10
0.0
 20
0.0
 30
0.0
  9
$LIMMIN
 10
0.0
 20
0.0
  9
$LIMMAX
 10
75.5909643481
 20
106.9072210066
  9
$VIEWCTR
 10
37.795482174
 20
53.4536105033
  9
$VIEWSIZE
 40
106.9072210066
  9
$CLAYER
  8
0
  9
$LTSCALE
 40
6.9687669989
  9
$CELTYPE
  6
BYLAYER
  9
$DIMSCALE
 40
1.0
  9
$DIMASZ
 40
0.8998924327
  9
$DIMEXO
 40
1.0
  9
$DIMDLI
 40
4.814784472
  9
$DIMEXE
 40
1.0
  9
$DIMCEN
 40
1.1403436907
  9
$DIMLFAC
 40
1.0
  9
$DIMBLK
  1
_FILLED
  9
$DIMALT
 70
0
  9
$DIMALTF
 40
0.0393700787
  9
$DIMTXT
 40
1.2598494058
  9
$DIMTOL
 70
1
  9
$DIMLIM
 70
0
  9
$DIMTFAC
 40
1.0
  9
$DIMTP
 40
0.01
  9
$DIMTM
 40
0.01
  9
$DIMGAP
 40
0.625
  9
$DIMDSEP
 70
46
  9
$AUNITS
 70
0
  9
$PDMODE
 70
3
  9
$PDSIZE
 40
0.3125
  9
$HANDSEED
  5
42A
  9
$TILEMODE
 70
1
  9
$MEASUREMENT
 70
1
  9
$INSUNITS
 70
4
  0
ENDSEC
  0
SECTION
  2
CLASSES
  0
CLASS
  1
ACDBDICTIONARYWDFLT
  2
AcDbDictionaryWithDefault
  3
AutoCAD 2000
 90
0
 91
1
280
0
281
0
  0
CLASS
  1
ACDBPLACEHOLDER
  2
AcDbPlaceHolder
  3
AutoCAD 2000
 90
0
 91
1
280
0
281
0
  0
CLASS
  1
LAYOUT
  2
AcDbLayout
  3
AutoCAD 2000
 90
0
 91
0
280
0
281
0
  0
ENDSEC
  0
SECTION
  2
TABLES
  0
TABLE
  2
VPORT
  5
8
100
AcDbSymbolTable
 70
2
  0
VPORT
  5
1F4
100
AcDbSymbolTableRecord
100
AcDbViewportTableRecord
  2
*ACTIVE
 70
0
 10
0.0
 20
0.0
 11
1.0
 21
1.0
 12
37.795482174
 22
53.4536105033
 13
0.0
 23
0.0
 14
1.0
 24
1.0
 15
0.0
 25
0.0
 16
0.0
 26
0.0
 36
1.0
 17
0.0
 27
0.0
 37
0.0
 40
106.9072210066
 41
0.7070707071
 42
50.0
 43
0.0
 44
0.0
 50
0.0
 51
0.0
 71
0
 72
100
 73
1
 74
1
 75
0
 76
0
 77
0
 78
0
  0
ENDTAB
  0
TABLE
  2
LTYPE
  5
5
100
AcDbSymbolTable
 70
6
  0
LTYPE
  5
14
100
AcDbSymbolTableRecord
100
AcDbLinetypeTableRecord
  2
BYBLOCK
 70
0
  3

 72
65
 73
0
 40
0.0
  0
LTYPE
  5
15
100
AcDbSymbolTableRecord
100
AcDbLinetypeTableRecord
  2
BYLAYER
 70
0
  3

 72
65
 73
0
 40
0.0
  0
LTYPE
  5
16
100
AcDbSymbolTableRecord
100
AcDbLinetypeTableRecord
  2
CONTINUOUS
 70
64
  3
Solid line
 72
65
 73
0
 40
0.0
  0
LTYPE
  5
1F5
100
AcDbSymbolTableRecord
100
AcDbLinetypeTableRecord
  2
CENTER
 70
64
  3
____ _ ____ _ ____ _ ____ _ ____ _ ____ _ ____
 72
65
 73
4
 40
0.6
 49
0.375
 74
0
 49
-0.075
 74
0
 49
0.075
 74
0
 49
-0.075
 74
0
  0
LTYPE
  5
1F6
100
AcDbSymbolTableRecord
100
AcDbLinetypeTableRecord
  2
HIDDEN
 70
64
  3
- - - - - - - - - - - - - - - - - - - -
 72
65
 73
2
 40
0.2
 49
0.1
 74
0
 49
-0.1
 74
0
  0
LTYPE
  5
1F7
100
AcDbSymbolTableRecord
100
AcDbLinetypeTableRecord
  2
PHANTOM
 70
64
  3
_____ _ _ _____ _ _ _____ _ _ _____
 72
65
 73
6
 40
0.8
 49
0.45
 74
0
 49
-0.05
 74
0
 49
0.1
 74
0
 49
-0.05
 74
0
 49
0.1
 74
0
 49
-0.05
 74
0
  0
LTYPE
  5
1F8
100
AcDbSymbolTableRecord
100
AcDbLinetypeTableRecord
  2
DOT
 70
64
  3
. . . . . . . . . . . . . . . . . . . .
 72
65
 73
2
 40
0.2
 49
0.1
 74
0
 49
-0.1
 74
0
  0
LTYPE
  5
1F9
100
AcDbSymbolTableRecord
100
AcDbLinetypeTableRecord
  2
DASHED
 70
64
  3
- - - - - - - - - - - - - - - - - - - -
 72
65
 73
2
 40
0.2
 49
0.1
 74
0
 49
-0.1
 74
0
  0
ENDTAB
  0
TABLE
  2
LAYER
  5
2
100
AcDbSymbolTable
 70
36
  0
LAYER
  5
10
100
AcDbSymbolTableRecord
100
AcDbLayerTableRecord
  2
0
 70
0
 62
7
  6
CONTINUOUS
370
-3
390
F
  0
LAYER
  5
1FA
100
AcDbSymbolTableRecord
100
AcDbLayerTableRecord
  2
DEFAULT_1
 70
0
 62
7
  6
CENTER
370
-3
390
F
  0
LAYER
  5
1FB
100
AcDbSymbolTableRecord
100
AcDbLayerTableRecord
  2
DEFAULT_2
 70
0
 62
8
  6
HIDDEN
370
-3
390
F
  0
LAYER
  5
1FC
100
AcDbSymbolTableRecord
100
AcDbLayerTableRecord
  2
DEFAULT_3
 70
0
 62
7
  6
PHANTOM
370
-3
390
F
  0
LAYER
  5
1FD
100
AcDbSymbolTableRecord
100
AcDbLayerTableRecord
  2
00_COMPONENTS
 70
0
 62
7
  6
CONTINUOUS
370
-3
390
F
  0
LAYER
  5
1FE
100
AcDbSymbolTableRecord
100
AcDbLayerTableRecord
  2
01_1_DEFAULT_DATUMS
 70
0
 62
7
  6
CONTINUOUS
370
-3
390
F
  0
LAYER
  5
1FF
100
AcDbSymbolTableRecord
100
AcDbLayerTableRecord
  2
01_PLANES
 70
0
 62
7
  6
CONTINUOUS
370
-3
390
F
  0
LAYER
  5
200
100
AcDbSymbolTableRecord
100
AcDbLayerTableRecord
  2
02_COORD_SYS
 70
0
 62
7
  6
CONTINUOUS
370
-3
390
F
  0
LAYER
  5
201
100
AcDbSymbolTableRecord
100
AcDbLayerTableRecord
  2
03_AXES
 70
0
 62
7
  6
CONTINUOUS
370
-3
390
F
  0
LAYER
  5
202
100
AcDbSymbolTableRecord
100
AcDbLayerTableRecord
  2
04_POINTS
 70
0
 62
7
  6
CONTINUOUS
370
-3
390
F
  0
LAYER
  5
203
100
AcDbSymbolTableRecord
100
AcDbLayerTableRecord
  2
05_CURVES
 70
0
 62
7
  6
CONTINUOUS
370
-3
390
F
  0
LAYER
  5
204
100
AcDbSymbolTableRecord
100
AcDbLayerTableRecord
  2
06_SURFS
 70
0
 62
7
  6
CONTINUOUS
370
-3
390
F
  0
LAYER
  5
205
100
AcDbSymbolTableRecord
100
AcDbLayerTableRecord
  2
07_COSMETICS
 70
0
 62
7
  6
CONTINUOUS
370
-3
390
F
  0
LAYER
  5
206
100
AcDbSymbolTableRecord
100
AcDbLayerTableRecord
  2
10_NOTES
 70
0
 62
7
  6
CONTINUOUS
370
-3
390
F
  0
LAYER
  5
207
100
AcDbSymbolTableRecord
100
AcDbLayerTableRecord
  2
11_NOTES_PUB
 70
0
 62
7
  6
CONTINUOUS
370
-3
390
F
  0
LAYER
  5
208
100
AcDbSymbolTableRecord
100
AcDbLayerTableRecord
  2
13_REF_GTOL
 70
0
 62
7
  6
CONTINUOUS
370
-3
390
F
  0
LAYER
  5
209
100
AcDbSymbolTableRecord
100
AcDbLayerTableRecord
  2
16_MISC
 70
0
 62
7
  6
CONTINUOUS
370
-3
390
F
  0
LAYER
  5
20A
100
AcDbSymbolTableRecord
100
AcDbLayerTableRecord
  2
17_NO_PRINT
 70
0
 62
7
  6
CONTINUOUS
370
-3
390
F
  0
LAYER
  5
20B
100
AcDbSymbolTableRecord
100
AcDbLayerTableRecord
  2
18_DATUM_CAMS_JOINTS
 70
0
 62
7
  6
CONTINUOUS
370
-3
390
F
  0
LAYER
  5
20C
100
AcDbSymbolTableRecord
100
AcDbLayerTableRecord
  2
19_DATUM_FUNCTIONAL
 70
0
 62
7
  6
CONTINUOUS
370
-3
390
F
  0
LAYER
  5
20D
100
AcDbSymbolTableRecord
100
AcDbLayerTableRecord
  2
20_DATUM_KINEMATIC_SCHEME
 70
0
 62
7
  6
CONTINUOUS
370
-3
390
F
  0
ENDTAB
  0
TABLE
  2
STYLE
  5
3
100
AcDbSymbolTable
 70
1
  0
STYLE
  5
11
100
AcDbSymbolTableRecord
100
AcDbTextStyleTableRecord
  2
STANDARD
 70
0
 40
0.0
 41
0.8
 50
0.0
 71
0
 42
0.2
  3
txt
  4

  0
STYLE
  5
20E
100
AcDbSymbolTableRecord
100
AcDbTextStyleTableRecord
  2
TEXTSTYLE_1
 70
0
 40
0.0
 41
0.8
 50
0.0
 71
0
 42
0.2
  3
gdt
  4

  0
ENDTAB
  0
TABLE
  2
VIEW
  5
6
100
AcDbSymbolTable
 70
0
  0
ENDTAB
  0
TABLE
  2
UCS
  5
7
100
AcDbSymbolTable
 70
0
  0
ENDTAB
  0
TABLE
  2
APPID
  5
9
100
AcDbSymbolTable
 70
1
  0
APPID
  5
20F
100
AcDbSymbolTableRecord
100
AcDbRegAppTableRecord
  2
ACAD
 70
0
  0
ENDTAB
  0
TABLE
  2
BLOCK_RECORD
  5
1
100
AcDbSymbolTable
 70
0
  0
BLOCK_RECORD
  5
210
100
AcDbSymbolTableRecord
100
AcDbBlockTableRecord
  2
*Model_Space
  0
BLOCK_RECORD
  5
211
100
AcDbSymbolTableRecord
100
AcDbBlockTableRecord
  2
*Paper_Space
  0
BLOCK_RECORD
  5
212
100
AcDbSymbolTableRecord
100
AcDbBlockTableRecord
  2
_FILLED
  0
ENDTAB
  0
TABLE
  2
DIMSTYLE
  5
A
100
AcDbSymbolTable
 70
1
100
AcDbDimStyleTable
 71
0
  0
DIMSTYLE
105
213
100
AcDbSymbolTableRecord
100
AcDbDimStyleTableRecord
  2
STANDARD
 70
0
  3

  4

 40
1.0
 41
0.8998924327
 42
1.0
 43
0.38
 44
1.0
 45
0.0
 46
0.0
 47
0.01
 48
0.01
140
1.2598494058
141
0.09
142
0.0
143
25.4
144
1.0
145
0.0
146
1.0
147
0.625
 71
1
 72
0
 73
0
 74
0
 75
0
 76
0
 77
1
 78
8
 79
2
170
0
171
1
172
0
173
0
174
0
175
0
176
0
177
0
178
0
270
2
179
2
271
2
272
2
273
2
274
2
275
0
280
0
281
0
282
0
283
1
284
8
285
0
286
0
287
3
288
0
340
11
278
46
341
212
342
212
343
212
344
212
  0
ENDTAB
  0
ENDSEC
  0
SECTION
  2
BLOCKS
  0
BLOCK
  5
20
100
AcDbEntity
  8
0
100
AcDbBlockBegin
  2
*Model_Space
 70
0
 10
0.0
 20
0.0
 30
0.0
  3
*Model_Space
  1

  0
ENDBLK
  5
21
100
AcDbEntity
  8
0
100
AcDbBlockEnd
  0
BLOCK
  5
1C
100
AcDbEntity
  8
0
100
AcDbBlockBegin
  2
*Paper_Space
 70
0
 10
0.0
 20
0.0
 30
0.0
  3
*Paper_Space
  1

  0
ENDBLK
  5
1D
100
AcDbEntity
  8
0
100
AcDbBlockEnd
  0
BLOCK
  5
214
100
AcDbEntity
  8
0
100
AcDbBlockBegin
  2
_FILLED
 70
64
 10
0.0
 20
0.0
  3
_FILLED
  1

  0
SOLID
  5
215
100
AcDbEntity
  8
0
  6
BYBLOCK
 62
0
100
AcDbTrace
 10
0.0
 20
0.0
 11
-1.0
 21
0.25
 12
-1.0
 22
-0.25
 13
-1.0
 23
-0.25
  0
ENDBLK
  5
216
100
AcDbEntity
  8
0
  6
BYBLOCK
 62
0
100
AcDbBlockEnd
  0
ENDSEC
  0
SECTION
  2
ENTITIES
  0
LINE
  5
217
100
AcDbEntity
  8
0
100
AcDbLine
 62
7
  6
CONTINUOUS
 10
61.8423093075
 20
10.1682442932
 11
15.8423093075
 21
10.1682442932
  0
LINE
  5
218
100
AcDbEntity
  8
0
100
AcDbLine
 62
7
  6
CONTINUOUS
 10
13.0004043841
 20
20.2101492166
 11
13.0423093075
 21
20.1682442932
  0
LINE
  5
219
100
AcDbEntity
  8
0
100
AcDbLine
 62
7
  6
CONTINUOUS
 10
10.8842142309
 20
25.4433379124
 11
10.8423093075
 21
25.4851121937
  0
LINE
  5
21A
100
AcDbEntity
  8
0
100
AcDbLine
 62
7
  6
CONTINUOUS
 10
17.7004043841
 20
20.2101492166
 11
17.7423093075
 21
20.1682442932
  0
LINE
  5
21B
100
AcDbEntity
  8
0
100
AcDbLine
 62
7
  6
CONTINUOUS
 10
13.0940397727
 20
79.7189788151
 11
13.2214617466
 21
79.8439475916
  0
LINE
  5
21C
100
AcDbEntity
  8
0
100
AcDbLine
 62
7
  6
CONTINUOUS
 10
13.0940397727
 20
25.6175097712
 11
13.2214617466
 21
25.4925409948
  0
LINE
  5
21D
100
AcDbEntity
  8
0
100
AcDbLine
 62
7
  6
CONTINUOUS
 10
13.0004043841
 20
28.8865429613
 11
13.0423093075
 21
28.8445069874
  0
LINE
  5
21E
100
AcDbEntity
  8
0
100
AcDbLine
 62
7
  6
CONTINUOUS
 10
28.8429925738
 20
90.1406156139
 11
28.8168783503
 21
90.1145013903
  0
LINE
  5
21F
100
AcDbEntity
  8
0
100
AcDbLine
 62
7
  6
CONTINUOUS
 10
10.8423093075
 20
76.4851121937
 11
11.0797705401
 21
76.6026335457
  0
LINE
  5
220
100
AcDbEntity
  8
0
100
AcDbLine
 62
7
  6
CONTINUOUS
 10
43.6429184805
 20
19.3682442932
 11
43.2423093075
 21
19.3682442932
  0
LINE
  5
221
100
AcDbEntity
  8
0
100
AcDbLine
 62
7
  6
CONTINUOUS
 10
34.4423093075
 20
19.3682442932
 11
34.0417001345
 21
19.3682442932
  0
LINE
  5
222
100
AcDbEntity
  8
0
100
AcDbLine
 62
7
  6
CONTINUOUS
 10
34.3768500631
 20
19.7033942217
 11
34.6098332152
 21
19.7033942217
  0
LINE
  5
223
100
AcDbEntity
  8
0
100
AcDbLine
 62
7
  6
CONTINUOUS
 10
43.0747853999
 20
19.7033942217
 11
43.3077685519
 21
19.7033942217
  0
LINE
  5
224
100
AcDbEntity
  8
0
100
AcDbLine
 62
7
  6
CONTINUOUS
 10
43.9786065637
 20
20.0081266783
 11
43.0628384499
 21
20.0081266783
  0
LINE
  5
225
100
AcDbEntity
  8
0
100
AcDbLine
 62
7
  6
CONTINUOUS
 10
34.6217801651
 20
20.0081266783
 11
33.7060120514
 21
20.0081266783
  0
LINE
  5
226
100
AcDbEntity
  8
0
100
AcDbLine
 62
7
  6
CONTINUOUS
 10
28.9423093075
 20
20.1682442932
 11
27.4423093075
 21
20.1682442932
  0
LINE
  5
227
100
AcDbEntity
  8
0
100
AcDbLine
 62
7
  6
CONTINUOUS
 10
23.3423093075
 20
20.1682442932
 11
21.8423093075
 21
20.1682442932
  0
LINE
  5
228
100
AcDbEntity
  8
0
100
AcDbLine
 62
7
  6
CONTINUOUS
 10
17.7423093075
 20
20.1682442932
 11
15.5423093075
 21
20.1682442932
  0
LINE
  5
229
100
AcDbEntity
  8
0
100
AcDbLine
 62
7
  6
CONTINUOUS
 10
13.0423093075
 20
20.1682442932
 11
10.8423093075
 21
20.1682442932
  0
LINE
  5
22A
100
AcDbEntity
  8
0
100
AcDbLine
 62
7
  6
CONTINUOUS
 10
28.9004043841
 20
20.2101492166
 11
27.4842142309
 21
20.2101492166
  0
LINE
  5
22B
100
AcDbEntity
  8
0
100
AcDbLine
 62
7
  6
CONTINUOUS
 10
23.3004043841
 20
20.2101492166
 11
21.8842142309
 21
20.2101492166
  0
LINE
  5
22C
100
AcDbEntity
  8
0
100
AcDbLine
 62
7
  6
CONTINUOUS
 10
17.7004043841
 20
20.2101492166
 11
15.5842142309
 21
20.2101492166
  0
LINE
  5
22D
100
AcDbEntity
  8
0
100
AcDbLine
 62
7
  6
CONTINUOUS
 10
13.0004043841
 20
20.2101492166
 11
10.8842142309
 21
20.2101492166
  0
LINE
  5
22E
100
AcDbEntity
  8
0
100
AcDbLine
 62
7
  6
CONTINUOUS
 10
60.1423093075
 20
20.6682442932
 11
46.1423093075
 21
20.6682442932
  0
LINE
  5
22F
100
AcDbEntity
  8
0
100
AcDbLine
 62
7
  6
CONTINUOUS
 10
42.7423093075
 20
21.2182442932
 11
40.9923093075
 21
21.2182442932
  0
LINE
  5
230
100
AcDbEntity
  8
0
100
AcDbLine
 62
7
  6
CONTINUOUS
 10
36.6923093075
 20
21.2182442932
 11
36.1423093075
 21
21.2182442932
  0
LINE
  5
231
100
AcDbEntity
  8
0
100
AcDbLine
 62
7
  6
CONTINUOUS
 10
36.7923093075
 20
21.3182442932
 11
40.8923093075
 21
21.3182442932
  0
LINE
  5
232
100
AcDbEntity
  8
0
100
AcDbLine
 62
7
  6
CONTINUOUS
 10
36.8923093075
 20
21.4182442932
 11
40.7923093075
 21
21.4182442932
  0
LINE
  5
233
100
AcDbEntity
  8
0
100
AcDbLine
 62
7
  6
CONTINUOUS
 10
33.9549757791
 20
21.4966613825
 11
34.6468711446
 21
21.4966613825
  0
LINE
  5
234
100
AcDbEntity
  8
0
100
AcDbLine
 62
7
  6
CONTINUOUS
 10
43.0377474704
 20
21.4966613825
 11
43.7296428359
 21
21.4966613825
  0
LINE
  5
235
100
AcDbEntity
  8
0
100
AcDbLine
 62
7
  6
CONTINUOUS
 10
43.5232600736
 20
22.1913197529
 11
43.0328485284
 21
22.1913197529
  0
LINE
  5
236
100
AcDbEntity
  8
0
100
AcDbLine
 62
7
  6
CONTINUOUS
 10
34.6517700867
 20
22.1913197529
 11
34.1613585414
 21
22.1913197529
  0
LINE
  5
237
100
AcDbEntity
  8
0
100
AcDbLine
 62
7
  6
CONTINUOUS
 10
10.8423093075
 20
28.8513763926
 11
11.0797705401
 21
28.7338550406
  0
LINE
  5
238
100
AcDbEntity
  8
0
100
AcDbLine
 62
7
  6
CONTINUOUS
 10
23.3004043841
 20
20.2101492166
 11
23.3423093075
 21
20.1682442932
  0
LINE
  5
239
100
AcDbEntity
  8
0
100
AcDbLine
 62
7
  6
CONTINUOUS
 10
8.9423093075
 20
63.6682442932
 11
8.9423093075
 21
54.6682442932
  0
LINE
  5
23A
100
AcDbEntity
  8
0
100
AcDbLine
 62
7
  6
CONTINUOUS
 10
10.6278022214
 20
64.1682442932
 11
10.6278022214
 21
54.1682442932
  0
LINE
  5
23B
100
AcDbEntity
  8
0
100
AcDbLine
 62
7
  6
CONTINUOUS
 10
10.8423093075
 20
15.1682442932
 11
10.8423093075
 21
25.4851121937
  0
LINE
  5
23C
100
AcDbEntity
  8
0
100
AcDbLine
 62
7
  6
CONTINUOUS
 10
10.8423093075
 20
28.8513763926
 11
10.8423093075
 21
53.1682442932
  0
LINE
  5
23D
100
AcDbEntity
  8
0
100
AcDbLine
 62
7
  6
CONTINUOUS
 10
10.8423093075
 20
65.1682442932
 11
10.8423093075
 21
76.4851121937
  0
LINE
  5
23E
100
AcDbEntity
  8
0
100
AcDbLine
 62
7
  6
CONTINUOUS
 10
10.8423093075
 20
79.8513763926
 11
10.8423093075
 21
82.1682442932
  0
LINE
  5
23F
100
AcDbEntity
  8
0
100
AcDbLine
 62
7
  6
CONTINUOUS
 10
10.8842142309
 20
20.2101492166
 11
10.8842142309
 21
25.4433379124
  0
LINE
  5
240
100
AcDbEntity
  8
0
100
AcDbLine
 62
7
  6
CONTINUOUS
 10
10.8842142309
 20
28.893150674
 11
10.8842142309
 21
53.0564978308
  0
LINE
  5
241
100
AcDbEntity
  8
0
100
AcDbLine
 62
7
  6
CONTINUOUS
 10
11.0923093075
 20
79.7338550406
 11
11.0923093075
 21
76.6026335457
  0
LINE
  5
242
100
AcDbEntity
  8
0
100
AcDbLine
 62
7
  6
CONTINUOUS
 10
11.0923093075
 20
28.7338550406
 11
11.0923093075
 21
25.6026335457
  0
LINE
  5
243
100
AcDbEntity
  8
0
100
AcDbLine
 62
7
  6
CONTINUOUS
 10
35.0929925738
 20
90.1406156139
 11
35.0668783503
 21
90.1145013903
  0
LINE
  5
244
100
AcDbEntity
  8
0
100
AcDbLine
 62
7
  6
CONTINUOUS
 10
10.8842142309
 20
25.4433379124
 11
13.0004043841
 21
25.449945625
  0
LINE
  5
245
100
AcDbEntity
  8
0
100
AcDbLine
 62
7
  6
CONTINUOUS
 10
10.8423093075
 20
25.4851121937
 11
13.2214617466
 21
25.4925409948
  0
LINE
  5
246
100
AcDbEntity
  8
0
100
AcDbLine
 62
7
  6
CONTINUOUS
 10
11.6423093075
 20
25.6043900488
 11
11.0797705401
 21
25.6026335457
  0
LINE
  5
247
100
AcDbEntity
  8
0
100
AcDbLine
 62
7
  6
CONTINUOUS
 10
13.0940397727
 20
25.6175097712
 11
11.6423093075
 21
25.6129768054
  0
LINE
  5
248
100
AcDbEntity
  8
0
100
AcDbLine
 62
7
  6
CONTINUOUS
 10
40.6423093075
 20
22.6682442932
 11
37.7423093075
 21
22.6682442932
  0
LINE
  5
249
100
AcDbEntity
  8
0
100
AcDbLine
 62
7
  6
CONTINUOUS
 10
38.0026370883
 20
23.1682442932
 11
40.1423093075
 21
23.1682442932
  0
LINE
  5
24A
100
AcDbEntity
  8
0
100
AcDbLine
 62
7
  6
CONTINUOUS
 10
42.7423093075
 20
23.9682442932
 11
42.0923093075
 21
23.9682442932
  0
LINE
  5
24B
100
AcDbEntity
  8
0
100
AcDbLine
 62
7
  6
CONTINUOUS
 10
35.5923093075
 20
23.9682442932
 11
34.9423093075
 21
23.9682442932
  0
LINE
  5
24C
100
AcDbEntity
  8
0
100
AcDbLine
 62
7
  6
CONTINUOUS
 10
42.3923093075
 20
24.4182442932
 11
41.3923093075
 21
24.4182442932
  0
LINE
  5
24D
100
AcDbEntity
  8
0
100
AcDbLine
 62
7
  6
CONTINUOUS
 10
36.2923093075
 20
24.4182442932
 11
35.2923093075
 21
24.4182442932
  0
LINE
  5
24E
100
AcDbEntity
  8
0
100
AcDbLine
 62
7
  6
CONTINUOUS
 10
37.5423093075
 20
25.3182442932
 11
40.1423093075
 21
25.3182442932
  0
LINE
  5
24F
100
AcDbEntity
  8
0
100
AcDbLine
 62
7
  6
CONTINUOUS
 10
37.0423093075
 20
25.6182442932
 11
40.6423093075
 21
25.6182442932
  0
LINE
  5
250
100
AcDbEntity
  8
0
100
AcDbLine
 62
7
  6
CONTINUOUS
 10
38.0173093075
 20
25.8182442932
 11
39.6673093075
 21
25.8182442932
  0
LINE
  5
251
100
AcDbEntity
  8
0
100
AcDbLine
 62
7
  6
CONTINUOUS
 10
64.4631568684
 20
25.4925409948
 11
66.8423093075
 21
25.4851121937
  0
LINE
  5
252
100
AcDbEntity
  8
0
100
AcDbLine
 62
7
  6
CONTINUOUS
 10
66.0423093075
 20
25.6043900488
 11
66.604848075
 21
25.6026335457
  0
LINE
  5
253
100
AcDbEntity
  8
0
100
AcDbLine
 62
7
  6
CONTINUOUS
 10
64.5905788424
 20
25.6175097712
 11
66.0423093075
 21
25.6129768054
  0
LINE
  5
254
100
AcDbEntity
  8
0
100
AcDbLine
 62
7
  6
CONTINUOUS
 10
34.9423093075
 20
21.8182442932
 11
36.1423093075
 21
21.2182442932
  0
LINE
  5
255
100
AcDbEntity
  8
0
100
AcDbLine
 62
7
  6
CONTINUOUS
 10
28.9004043841
 20
20.2101492166
 11
28.9423093075
 21
20.1682442932
  0
LINE
  5
256
100
AcDbEntity
  8
0
100
AcDbLine
 62
7
  6
CONTINUOUS
 10
11.6423093075
 20
79.7320985376
 11
11.6423093075
 21
79.723511781
  0
LINE
  5
257
100
AcDbEntity
  8
0
100
AcDbLine
 62
7
  6
CONTINUOUS
 10
11.6423093075
 20
76.6129768054
 11
11.6423093075
 21
76.6043900488
  0
LINE
  5
258
100
AcDbEntity
  8
0
100
AcDbLine
 62
7
  6
CONTINUOUS
 10
11.6423093075
 20
28.7320985376
 11
11.6423093075
 21
28.723511781
  0
LINE
  5
259
100
AcDbEntity
  8
0
100
AcDbLine
 62
7
  6
CONTINUOUS
 10
11.6423093075
 20
25.6129768054
 11
11.6423093075
 21
25.6043900488
  0
LINE
  5
25A
100
AcDbEntity
  8
0
100
AcDbLine
 62
7
  6
CONTINUOUS
 10
11.9278022214
 20
64.1682442932
 11
11.9278022214
 21
54.1682442932
  0
LINE
  5
25B
100
AcDbEntity
  8
0
100
AcDbLine
 62
7
  6
CONTINUOUS
 10
12.0430407607
 20
53.1682442932
 11
12.0430407607
 21
65.1682442932
  0
LINE
  5
25C
100
AcDbEntity
  8
0
100
AcDbLine
 62
7
  6
CONTINUOUS
 10
13.0004043841
 20
53.0564978308
 11
13.0004043841
 21
28.8865429613
  0
LINE
  5
25D
100
AcDbEntity
  8
0
100
AcDbLine
 62
7
  6
CONTINUOUS
 10
13.0004043841
 20
25.449945625
 11
13.0004043841
 21
20.2101492166
  0
LINE
  5
25E
100
AcDbEntity
  8
0
100
AcDbLine
 62
7
  6
CONTINUOUS
 10
13.0423093075
 20
53.0984027542
 11
13.0423093075
 21
28.8445069874
  0
LINE
  5
25F
100
AcDbEntity
  8
0
100
AcDbLine
 62
7
  6
CONTINUOUS
 10
13.0423093075
 20
25.491981599
 11
13.0423093075
 21
20.1682442932
  0
LINE
  5
260
100
AcDbEntity
  8
0
100
AcDbLine
 62
7
  6
CONTINUOUS
 10
13.0940397727
 20
25.6175097712
 11
13.0940397727
 21
28.7189788151
  0
LINE
  5
261
100
AcDbEntity
  8
0
100
AcDbLine
 62
7
  6
CONTINUOUS
 10
13.0940397727
 20
76.6175097712
 11
13.0940397727
 21
79.7189788151
  0
LINE
  5
262
100
AcDbEntity
  8
0
100
AcDbLine
 62
7
  6
CONTINUOUS
 10
13.2214617466
 20
25.4925409948
 11
13.2214617466
 21
28.8439475916
  0
LINE
  5
263
100
AcDbEntity
  8
0
100
AcDbLine
 62
7
  6
CONTINUOUS
 10
13.2214617466
 20
76.4925409948
 11
13.2214617466
 21
79.8439475916
  0
LINE
  5
264
100
AcDbEntity
  8
0
100
AcDbLine
 62
7
  6
CONTINUOUS
 10
66.0423093075
 20
28.723511781
 11
64.5905788424
 21
28.7189788151
  0
LINE
  5
265
100
AcDbEntity
  8
0
100
AcDbLine
 62
7
  6
CONTINUOUS
 10
66.0423093075
 20
28.7320985376
 11
66.604848075
 21
28.7338550406
  0
LINE
  5
266
100
AcDbEntity
  8
0
100
AcDbLine
 62
7
  6
CONTINUOUS
 10
64.4631568684
 20
28.8439475916
 11
66.8423093075
 21
28.8513763926
  0
LINE
  5
267
100
AcDbEntity
  8
0
100
AcDbLine
 62
7
  6
CONTINUOUS
 10
39.8673093075
 20
26.0182442932
 11
37.8173093075
 21
26.0182442932
  0
LINE
  5
268
100
AcDbEntity
  8
0
100
AcDbLine
 62
7
  6
CONTINUOUS
 10
35.2923093075
 20
26.1432442932
 11
36.2923093075
 21
26.1432442932
  0
LINE
  5
269
100
AcDbEntity
  8
0
100
AcDbLine
 62
7
  6
CONTINUOUS
 10
41.3923093075
 20
26.1432442932
 11
42.3923093075
 21
26.1432442932
  0
LINE
  5
26A
100
AcDbEntity
  8
0
100
AcDbLine
 62
7
  6
CONTINUOUS
 10
36.2923093075
 20
26.5932442932
 11
34.9423093075
 21
26.5932442932
  0
LINE
  5
26B
100
AcDbEntity
  8
0
100
AcDbLine
 62
7
  6
CONTINUOUS
 10
41.3923093075
 20
26.5932442932
 11
42.7423093075
 21
26.5932442932
  0
LINE
  5
26C
100
AcDbEntity
  8
0
100
AcDbLine
 62
7
  6
CONTINUOUS
 10
11.6423093075
 20
28.723511781
 11
13.0940397727
 21
28.7189788151
  0
LINE
  5
26D
100
AcDbEntity
  8
0
100
AcDbLine
 62
7
  6
CONTINUOUS
 10
11.0797705401
 20
28.7338550406
 11
11.6423093075
 21
28.7320985376
  0
LINE
  5
26E
100
AcDbEntity
  8
0
100
AcDbLine
 62
7
  6
CONTINUOUS
 10
13.2214617466
 20
28.8439475916
 11
10.8423093075
 21
28.8513763926
  0
LINE
  5
26F
100
AcDbEntity
  8
0
100
AcDbLine
 62
7
  6
CONTINUOUS
 10
13.0004043841
 20
28.8865429613
 11
10.8842142309
 21
28.893150674
  0
LINE
  5
270
100
AcDbEntity
  8
0
100
AcDbLine
 62
7
  6
CONTINUOUS
 10
37.5423093075
 20
25.3182442932
 11
37.0423093075
 21
25.4636988386
  0
LINE
  5
271
100
AcDbEntity
  8
0
100
AcDbLine
 62
7
  6
CONTINUOUS
 10
15.5423093075
 20
20.1682442932
 11
15.5423093075
 21
53.0984027542
  0
LINE
  5
272
100
AcDbEntity
  8
0
100
AcDbLine
 62
7
  6
CONTINUOUS
 10
15.5842142309
 20
20.2101492166
 11
15.5842142309
 21
53.0564978308
  0
LINE
  5
273
100
AcDbEntity
  8
0
100
AcDbLine
 62
7
  6
CONTINUOUS
 10
17.7004043841
 20
53.0564978308
 11
17.7004043841
 21
20.2101492166
  0
LINE
  5
274
100
AcDbEntity
  8
0
100
AcDbLine
 62
7
  6
CONTINUOUS
 10
17.7423093075
 20
53.0984027542
 11
17.7423093075
 21
20.1682442932
  0
LINE
  5
275
100
AcDbEntity
  8
0
100
AcDbLine
 62
7
  6
CONTINUOUS
 10
35.5923093075
 20
23.9682442932
 11
36.2923093075
 21
23.2682442932
  0
LINE
  5
276
100
AcDbEntity
  8
0
100
AcDbLine
 62
7
  6
CONTINUOUS
 10
40.7923093075
 20
21.4182442932
 11
40.9923093075
 21
21.2182442932
  0
LINE
  5
277
100
AcDbEntity
  8
0
100
AcDbLine
 62
7
  6
CONTINUOUS
 10
43.6429184805
 20
19.3682442932
 11
43.3077685519
 21
19.7033942217
  0
LINE
  5
278
100
AcDbEntity
  8
0
100
AcDbLine
 62
7
  6
CONTINUOUS
 10
40.6423093075
 20
22.6682442932
 11
40.1423093075
 21
23.1682442932
  0
LINE
  5
279
100
AcDbEntity
  8
0
100
AcDbLine
 62
7
  6
CONTINUOUS
 10
21.5423093075
 20
72.3681503921
 11
21.5423093075
 21
75.9683382018
  0
LINE
  5
27A
100
AcDbEntity
  8
0
100
AcDbLine
 62
7
  6
CONTINUOUS
 10
11.3274971804
 20
53.4034321661
 11
11.0923093075
 21
53.1682442932
  0
LINE
  5
27B
100
AcDbEntity
  8
0
100
AcDbLine
 62
7
  6
CONTINUOUS
 10
13.0004043841
 20
53.0564978308
 11
13.0423093075
 21
53.0984027542
  0
LINE
  5
27C
100
AcDbEntity
  8
0
100
AcDbLine
 62
7
  6
CONTINUOUS
 10
10.8842142309
 20
53.0564978308
 11
10.8423093075
 21
53.0984027542
  0
LINE
  5
27D
100
AcDbEntity
  8
0
100
AcDbLine
 62
7
  6
CONTINUOUS
 10
44.2689390147
 20
20.7410054131
 11
44.6423093075
 21
20.3676351202
  0
LINE
  5
27E
100
AcDbEntity
  8
0
100
AcDbLine
 62
7
  6
CONTINUOUS
 10
37.7423093075
 20
22.6682442932
 11
37.0423093075
 21
23.6682442932
  0
LINE
  5
27F
100
AcDbEntity
  8
0
100
AcDbLine
 62
7
  6
CONTINUOUS
 10
38.0026370883
 20
23.1682442932
 11
37.5423093075
 21
23.8258554086
  0
LINE
  5
280
100
AcDbEntity
  8
0
100
AcDbLine
 62
7
  6
CONTINUOUS
 10
21.8423093075
 20
20.1682442932
 11
21.8423093075
 21
53.0984027542
  0
LINE
  5
281
100
AcDbEntity
  8
0
100
AcDbLine
 62
7
  6
CONTINUOUS
 10
21.8842142309
 20
20.2101492166
 11
21.8842142309
 21
53.0564978308
  0
LINE
  5
282
100
AcDbEntity
  8
0
100
AcDbLine
 62
7
  6
CONTINUOUS
 10
22.0423093086
 20
72.3682442941
 11
22.0423093077
 21
75.9682442941
  0
LINE
  5
283
100
AcDbEntity
  8
0
100
AcDbLine
 62
7
  6
CONTINUOUS
 10
22.5423093075
 20
72.6682442932
 11
22.5423093075
 21
75.6682442932
  0
LINE
  5
284
100
AcDbEntity
  8
0
100
AcDbLine
 62
7
  6
CONTINUOUS
 10
23.2423093062
 20
70.6682442932
 11
23.2423093066
 21
71.1682442933
  0
LINE
  5
285
100
AcDbEntity
  8
0
100
AcDbLine
 62
7
  6
CONTINUOUS
 10
23.2423093084
 20
77.1682442921
 11
23.2423093088
 21
77.6682442932
  0
LINE
  5
286
100
AcDbEntity
  8
0
100
AcDbLine
 62
7
  6
CONTINUOUS
 10
23.3004043841
 20
53.0564978308
 11
23.3004043841
 21
20.2101492166
  0
LINE
  5
287
100
AcDbEntity
  8
0
100
AcDbLine
 62
7
  6
CONTINUOUS
 10
23.3423093075
 20
53.0984027542
 11
23.3423093075
 21
20.1682442932
  0
LINE
  5
288
100
AcDbEntity
  8
0
100
AcDbLine
 62
7
  6
CONTINUOUS
 10
24.4405093075
 20
92.9508842932
 11
24.4405093075
 21
87.1682442932
  0
LINE
  5
289
100
AcDbEntity
  8
0
100
AcDbLine
 62
7
  6
CONTINUOUS
 10
17.7004043841
 20
53.0564978308
 11
17.7423093075
 21
53.0984027542
  0
LINE
  5
28A
100
AcDbEntity
  8
0
100
AcDbLine
 62
7
  6
CONTINUOUS
 10
15.5842142309
 20
53.0564978308
 11
15.5423093075
 21
53.0984027542
  0
LINE
  5
28B
100
AcDbEntity
  8
0
100
AcDbLine
 62
7
  6
CONTINUOUS
 10
43.7296428359
 20
21.4966613825
 11
44.0751786936
 21
21.0100711932
  0
LINE
  5
28C
100
AcDbEntity
  8
0
100
AcDbLine
 62
7
  6
CONTINUOUS
 10
27.4423093075
 20
20.1682442932
 11
27.4423093075
 21
53.0984027542
  0
LINE
  5
28D
100
AcDbEntity
  8
0
100
AcDbLine
 62
7
  6
CONTINUOUS
 10
27.4842142309
 20
20.2101492166
 11
27.4842142309
 21
53.0564978308
  0
LINE
  5
28E
100
AcDbEntity
  8
0
100
AcDbLine
 62
7
  6
CONTINUOUS
 10
28.2505093075
 20
92.9508842932
 11
28.2505093075
 21
87.1682442932
  0
LINE
  5
28F
100
AcDbEntity
  8
0
100
AcDbLine
 62
7
  6
CONTINUOUS
 10
23.3004043841
 20
53.0564978308
 11
23.3423093075
 21
53.0984027542
  0
LINE
  5
290
100
AcDbEntity
  8
0
100
AcDbLine
 62
7
  6
CONTINUOUS
 10
66.604848075
 20
79.7338550406
 11
66.8423093075
 21
79.8513763926
  0
LINE
  5
291
100
AcDbEntity
  8
0
100
AcDbLine
 62
7
  6
CONTINUOUS
 10
66.604848075
 20
25.6026335457
 11
66.8423093075
 21
25.4851121937
  0
LINE
  5
292
100
AcDbEntity
  8
0
100
AcDbLine
 62
7
  6
CONTINUOUS
 10
21.8842142309
 20
53.0564978308
 11
21.8423093075
 21
53.0984027542
  0
LINE
  5
293
100
AcDbEntity
  8
0
100
AcDbLine
 62
7
  6
CONTINUOUS
 10
11.0923093075
 20
65.1682442932
 11
11.3274971804
 21
64.9330564203
  0
LINE
  5
294
100
AcDbEntity
  8
0
100
AcDbLine
 62
7
  6
CONTINUOUS
 10
43.0747853999
 20
19.7033942217
 11
43.2423093075
 21
19.3682442932
  0
LINE
  5
295
100
AcDbEntity
  8
0
100
AcDbLine
 62
7
  6
CONTINUOUS
 10
28.8062215602
 20
94.1846820308
 11
28.8168783503
 21
90.1145013903
  0
LINE
  5
296
100
AcDbEntity
  8
0
100
AcDbLine
 62
7
  6
CONTINUOUS
 10
28.8429925738
 20
90.1406156139
 11
28.8324041576
 21
94.1846820308
  0
LINE
  5
297
100
AcDbEntity
  8
0
100
AcDbLine
 62
7
  6
CONTINUOUS
 10
28.9004043841
 20
53.0564978308
 11
28.9004043841
 21
20.2101492166
  0
LINE
  5
298
100
AcDbEntity
  8
0
100
AcDbLine
 62
7
  6
CONTINUOUS
 10
28.9423093075
 20
53.0984027542
 11
28.9423093075
 21
20.1682442932
  0
LINE
  5
299
100
AcDbEntity
  8
0
100
AcDbLine
 62
7
  6
CONTINUOUS
 10
30.4423093088
 20
77.6682442932
 11
30.4423093084
 21
77.168244293
  0
LINE
  5
29A
100
AcDbEntity
  8
0
100
AcDbLine
 62
7
  6
CONTINUOUS
 10
30.4423093066
 20
71.1682442943
 11
30.4423093062
 21
70.6682442932
  0
LINE
  5
29B
100
AcDbEntity
  8
0
100
AcDbLine
 62
7
  6
CONTINUOUS
 10
30.6254093075
 20
87.1682442932
 11
30.6254093075
 21
90.1145013903
  0
LINE
  5
29C
100
AcDbEntity
  8
0
100
AcDbLine
 62
7
  6
CONTINUOUS
 10
30.6639976149
 20
87.1682442932
 11
30.6639976149
 21
90.1145013903
  0
LINE
  5
29D
100
AcDbEntity
  8
0
100
AcDbLine
 62
7
  6
CONTINUOUS
 10
31.1423093075
 20
75.6682442932
 11
31.1423093075
 21
72.6682442932
  0
LINE
  5
29E
100
AcDbEntity
  8
0
100
AcDbLine
 62
7
  6
CONTINUOUS
 10
31.1790487255
 20
90.1145013903
 11
31.1790487255
 21
87.1682442932
  0
LINE
  5
29F
100
AcDbEntity
  8
0
100
AcDbLine
 62
7
  6
CONTINUOUS
 10
31.6423093064
 20
75.9682442923
 11
31.6423093074
 21
72.3682442923
  0
LINE
  5
2A0
100
AcDbEntity
  8
0
100
AcDbLine
 62
7
  6
CONTINUOUS
 10
31.8423093075
 20
97.2361389499
 11
31.8423093075
 21
97.2623902801
  0
LINE
  5
2A1
100
AcDbEntity
  8
0
100
AcDbLine
 62
7
  6
CONTINUOUS
 10
32.1423093075
 20
75.9683381943
 11
32.1423093075
 21
72.3681503845
  0
LINE
  5
2A2
100
AcDbEntity
  8
0
100
AcDbLine
 62
7
  6
CONTINUOUS
 10
27.4842142309
 20
53.0564978308
 11
27.4423093075
 21
53.0984027542
  0
LINE
  5
2A3
100
AcDbEntity
  8
0
100
AcDbLine
 62
7
  6
CONTINUOUS
 10
34.6468711446
 20
56.8398272039
 11
34.6217801651
 21
58.3283619081
  0
LINE
  5
2A4
100
AcDbEntity
  8
0
100
AcDbLine
 62
7
  6
CONTINUOUS
 10
35.0668783503
 20
90.1145013903
 11
35.0745924166
 21
87.1682442932
  0
LINE
  5
2A5
100
AcDbEntity
  8
0
100
AcDbLine
 62
7
  6
CONTINUOUS
 10
35.100775014
 20
87.1682442932
 11
35.0929925738
 21
90.1406156139
  0
LINE
  5
2A6
100
AcDbEntity
  8
0
100
AcDbLine
 62
7
  6
CONTINUOUS
 10
33.0423093075
 20
20.3676351202
 11
33.0423093075
 21
57.9688534662
  0
LINE
  5
2A7
100
AcDbEntity
  8
0
100
AcDbLine
 62
7
  6
CONTINUOUS
 10
33.4156796004
 20
57.5954831733
 11
33.4156796004
 21
20.7410054131
  0
LINE
  5
2A8
100
AcDbEntity
  8
0
100
AcDbLine
 62
7
  6
CONTINUOUS
 10
33.6094399215
 20
21.0100711932
 11
33.6094399215
 21
57.3264173932
  0
LINE
  5
2A9
100
AcDbEntity
  8
0
100
AcDbLine
 62
7
  6
CONTINUOUS
 10
33.6804604182
 20
87.1682442932
 11
33.6804604182
 21
90.1145013903
  0
LINE
  5
2AA
100
AcDbEntity
  8
0
100
AcDbLine
 62
7
  6
CONTINUOUS
 10
34.1613585414
 20
22.1913197529
 11
34.1613585414
 21
56.1451688334
  0
LINE
  5
2AB
100
AcDbEntity
  8
0
100
AcDbLine
 62
7
  6
CONTINUOUS
 10
34.6517700867
 20
56.1451688334
 11
34.6517700867
 21
22.1913197529
  0
LINE
  5
2AC
100
AcDbEntity
  8
0
100
AcDbLine
 62
7
  6
CONTINUOUS
 10
34.9423093075
 20
26.5932442932
 11
34.9423093075
 21
21.8182442932
  0
LINE
  5
2AD
100
AcDbEntity
  8
0
100
AcDbLine
 62
7
  6
CONTINUOUS
 10
34.9423093075
 20
51.7432442932
 11
34.9423093075
 21
56.5182442932
  0
LINE
  5
2AE
100
AcDbEntity
  8
0
100
AcDbLine
 62
7
  6
CONTINUOUS
 10
35.2923093075
 20
24.4182442932
 11
35.2923093075
 21
26.1432442932
  0
LINE
  5
2AF
100
AcDbEntity
  8
0
100
AcDbLine
 62
7
  6
CONTINUOUS
 10
35.2923093075
 20
52.1932442932
 11
35.2923093075
 21
53.9182442932
  0
LINE
  5
2B0
100
AcDbEntity
  8
0
100
AcDbLine
 62
7
  6
CONTINUOUS
 10
34.6217801651
 20
20.0081266783
 11
34.6468711446
 21
21.4966613825
  0
LINE
  5
2B1
100
AcDbEntity
  8
0
100
AcDbLine
 62
7
  6
CONTINUOUS
 10
28.9004043841
 20
53.0564978308
 11
28.9423093075
 21
53.0984027542
  0
LINE
  5
2B2
100
AcDbEntity
  8
0
100
AcDbLine
 62
7
  6
CONTINUOUS
 10
36.1423093075
 20
57.1182442932
 11
34.9423093075
 21
56.5182442932
  0
LINE
  5
2B3
100
AcDbEntity
  8
0
100
AcDbLine
 62
7
  6
CONTINUOUS
 10
41.3923093075
 20
50.2682442932
 11
41.2923093075
 21
50.2682442932
  0
LINE
  5
2B4
100
AcDbEntity
  8
0
100
AcDbLine
 62
7
  6
CONTINUOUS
 10
36.0923093075
 20
26.5932442932
 11
36.0923093075
 21
51.7432442932
  0
LINE
  5
2B5
100
AcDbEntity
  8
0
100
AcDbLine
 62
7
  6
CONTINUOUS
 10
36.2923093075
 20
57.1182442932
 11
36.2923093075
 21
55.0682442932
  0
LINE
  5
2B6
100
AcDbEntity
  8
0
100
AcDbLine
 62
7
  6
CONTINUOUS
 10
36.2923093075
 20
53.9182442932
 11
36.2923093075
 21
52.1932442932
  0
LINE
  5
2B7
100
AcDbEntity
  8
0
100
AcDbLine
 62
7
  6
CONTINUOUS
 10
36.2923093075
 20
26.1432442932
 11
36.2923093075
 21
24.4182442932
  0
LINE
  5
2B8
100
AcDbEntity
  8
0
100
AcDbLine
 62
7
  6
CONTINUOUS
 10
36.2923093075
 20
21.2182442932
 11
36.2923093075
 21
23.2682442932
  0
LINE
  5
2B9
100
AcDbEntity
  8
0
100
AcDbLine
 62
7
  6
CONTINUOUS
 10
36.2923093075
 20
26.5932442932
 11
36.2923093075
 21
51.7432442932
  0
LINE
  5
2BA
100
AcDbEntity
  8
0
100
AcDbLine
 62
7
  6
CONTINUOUS
 10
37.0423093075
 20
54.6682442932
 11
37.0423093075
 21
23.6682442932
  0
LINE
  5
2BB
100
AcDbEntity
  8
0
100
AcDbLine
 62
7
  6
CONTINUOUS
 10
37.5423093075
 20
54.5106331778
 11
37.5423093075
 21
53.0182442932
  0
LINE
  5
2BC
100
AcDbEntity
  8
0
100
AcDbLine
 62
7
  6
CONTINUOUS
 10
37.5423093075
 20
23.8258554086
 11
37.5423093075
 21
25.3182442932
  0
LINE
  5
2BD
100
AcDbEntity
  8
0
100
AcDbLine
 62
7
  6
CONTINUOUS
 10
37.8173093075
 20
52.3182442932
 11
37.8173093075
 21
26.0182442932
  0
LINE
  5
2BE
100
AcDbEntity
  8
0
100
AcDbLine
 62
7
  6
CONTINUOUS
 10
38.0173093075
 20
25.8182442932
 11
38.0173093075
 21
52.5182442932
  0
LINE
  5
2BF
100
AcDbEntity
  8
0
100
AcDbLine
 62
7
  6
CONTINUOUS
 10
37.0423093075
 20
54.6682442932
 11
37.7423093075
 21
55.6682442932
  0
LINE
  5
2C0
100
AcDbEntity
  8
0
100
AcDbLine
 62
7
  6
CONTINUOUS
 10
38.0026370883
 20
55.1682442932
 11
37.5423093075
 21
54.5106331778
  0
LINE
  5
2C1
100
AcDbEntity
  8
0
100
AcDbLine
 62
7
  6
CONTINUOUS
 10
36.2923093075
 20
55.0682442932
 11
35.5923093075
 21
54.3682442932
  0
LINE
  5
2C2
100
AcDbEntity
  8
0
100
AcDbLine
 62
7
  6
CONTINUOUS
 10
40.9923093075
 20
57.1182442932
 11
40.7923093075
 21
56.9182442932
  0
LINE
  5
2C3
100
AcDbEntity
  8
0
100
AcDbLine
 62
7
  6
CONTINUOUS
 10
43.3077685519
 20
58.6330943646
 11
43.6429184805
 21
58.9682442932
  0
LINE
  5
2C4
100
AcDbEntity
  8
0
100
AcDbLine
 62
7
  6
CONTINUOUS
 10
40.6423093075
 20
55.6682442932
 11
40.1423093075
 21
55.1682442932
  0
LINE
  5
2C5
100
AcDbEntity
  8
0
100
AcDbLine
 62
7
  6
CONTINUOUS
 10
10.8842142309
 20
28.893150674
 11
10.8423093075
 21
28.8513763926
  0
LINE
  5
2C6
100
AcDbEntity
  8
0
100
AcDbLine
 62
7
  6
CONTINUOUS
 10
13.0940397727
 20
28.7189788151
 11
13.2214617466
 21
28.8439475916
  0
LINE
  5
2C7
100
AcDbEntity
  8
0
100
AcDbLine
 62
7
  6
CONTINUOUS
 10
37.5423093075
 20
53.0182442932
 11
37.0423093075
 21
52.8727897477
  0
LINE
  5
2C8
100
AcDbEntity
  8
0
100
AcDbLine
 62
7
  6
CONTINUOUS
 10
41.3923093075
 20
50.7682442932
 11
41.2923093075
 21
50.7682442932
  0
LINE
  5
2C9
100
AcDbEntity
  8
0
100
AcDbLine
 62
7
  6
CONTINUOUS
 10
41.2923093075
 20
51.2682442932
 11
41.3923093075
 21
51.2682442932
  0
LINE
  5
2CA
100
AcDbEntity
  8
0
100
AcDbLine
 62
7
  6
CONTINUOUS
 10
36.2923093075
 20
51.7432442932
 11
34.9423093075
 21
51.7432442932
  0
LINE
  5
2CB
100
AcDbEntity
  8
0
100
AcDbLine
 62
7
  6
CONTINUOUS
 10
41.3923093075
 20
51.7432442932
 11
42.7423093075
 21
51.7432442932
  0
LINE
  5
2CC
100
AcDbEntity
  8
0
100
AcDbLine
 62
7
  6
CONTINUOUS
 10
42.3923093075
 20
52.1932442932
 11
41.3923093075
 21
52.1932442932
  0
LINE
  5
2CD
100
AcDbEntity
  8
0
100
AcDbLine
 62
7
  6
CONTINUOUS
 10
36.2923093075
 20
52.1932442932
 11
35.2923093075
 21
52.1932442932
  0
LINE
  5
2CE
100
AcDbEntity
  8
0
100
AcDbLine
 62
7
  6
CONTINUOUS
 10
37.8173093075
 20
52.3182442932
 11
39.8673093075
 21
52.3182442932
  0
LINE
  5
2CF
100
AcDbEntity
  8
0
100
AcDbLine
 62
7
  6
CONTINUOUS
 10
39.6673093075
 20
52.5182442932
 11
38.0173093075
 21
52.5182442932
  0
LINE
  5
2D0
100
AcDbEntity
  8
0
100
AcDbLine
 62
7
  6
CONTINUOUS
 10
40.6423093075
 20
52.7182442932
 11
37.0423093075
 21
52.7182442932
  0
LINE
  5
2D1
100
AcDbEntity
  8
0
100
AcDbLine
 62
7
  6
CONTINUOUS
 10
40.1423093075
 20
53.0182442932
 11
37.5423093075
 21
53.0182442932
  0
LINE
  5
2D2
100
AcDbEntity
  8
0
100
AcDbLine
 62
7
  6
CONTINUOUS
 10
10.8842142309
 20
53.0564978308
 11
13.0004043841
 21
53.0564978308
  0
LINE
  5
2D3
100
AcDbEntity
  8
0
100
AcDbLine
 62
7
  6
CONTINUOUS
 10
15.5842142309
 20
53.0564978308
 11
17.7004043841
 21
53.0564978308
  0
LINE
  5
2D4
100
AcDbEntity
  8
0
100
AcDbLine
 62
7
  6
CONTINUOUS
 10
21.8842142309
 20
53.0564978308
 11
23.3004043841
 21
53.0564978308
  0
LINE
  5
2D5
100
AcDbEntity
  8
0
100
AcDbLine
 62
7
  6
CONTINUOUS
 10
27.4842142309
 20
53.0564978308
 11
28.9004043841
 21
53.0564978308
  0
LINE
  5
2D6
100
AcDbEntity
  8
0
100
AcDbLine
 62
7
  6
CONTINUOUS
 10
13.0423093075
 20
53.0984027542
 11
10.8423093075
 21
53.0984027542
  0
LINE
  5
2D7
100
AcDbEntity
  8
0
100
AcDbLine
 62
7
  6
CONTINUOUS
 10
15.5423093075
 20
53.0984027542
 11
17.7423093075
 21
53.0984027542
  0
LINE
  5
2D8
100
AcDbEntity
  8
0
100
AcDbLine
 62
7
  6
CONTINUOUS
 10
21.8423093075
 20
53.0984027542
 11
23.3423093075
 21
53.0984027542
  0
LINE
  5
2D9
100
AcDbEntity
  8
0
100
AcDbLine
 62
7
  6
CONTINUOUS
 10
27.4423093075
 20
53.0984027542
 11
28.9423093075
 21
53.0984027542
  0
LINE
  5
2DA
100
AcDbEntity
  8
0
100
AcDbLine
 62
7
  6
CONTINUOUS
 10
12.0430407607
 20
53.1682442932
 11
10.8423093075
 21
53.1682442932
  0
LINE
  5
2DB
100
AcDbEntity
  8
0
100
AcDbLine
 62
7
  6
CONTINUOUS
 10
65.6415778544
 20
53.1682442932
 11
66.8423093075
 21
53.1682442932
  0
LINE
  5
2DC
100
AcDbEntity
  8
0
100
AcDbLine
 62
7
  6
CONTINUOUS
 10
11.3274971804
 20
53.4034321661
 11
12.0430407607
 21
53.4034321661
  0
LINE
  5
2DD
100
AcDbEntity
  8
0
100
AcDbLine
 62
7
  6
CONTINUOUS
 10
65.6415778544
 20
53.4034321661
 11
66.3571214346
 21
53.4034321661
  0
LINE
  5
2DE
100
AcDbEntity
  8
0
100
AcDbLine
 62
7
  6
CONTINUOUS
 10
35.2923093075
 20
53.9182442932
 11
36.2923093075
 21
53.9182442932
  0
LINE
  5
2DF
100
AcDbEntity
  8
0
100
AcDbLine
 62
7
  6
CONTINUOUS
 10
41.3923093075
 20
53.9182442932
 11
42.3923093075
 21
53.9182442932
  0
LINE
  5
2E0
100
AcDbEntity
  8
0
100
AcDbLine
 62
7
  6
CONTINUOUS
 10
68.2423093075
 20
54.1682442932
 11
65.6415778544
 21
54.1682442932
  0
LINE
  5
2E1
100
AcDbEntity
  8
0
100
AcDbLine
 62
7
  6
CONTINUOUS
 10
12.0430407607
 20
54.1682442932
 11
9.4423093075
 21
54.1682442932
  0
LINE
  5
2E2
100
AcDbEntity
  8
0
100
AcDbLine
 62
7
  6
CONTINUOUS
 10
40.1423093075
 20
53.0182442932
 11
40.6423093075
 21
52.8727897477
  0
LINE
  5
2E3
100
AcDbEntity
  8
0
100
AcDbLine
 62
7
  6
CONTINUOUS
 10
37.0423093075
 20
54.6682442932
 11
37.5423093075
 21
54.5106331778
  0
LINE
  5
2E4
100
AcDbEntity
  8
0
100
AcDbLine
 62
7
  6
CONTINUOUS
 10
13.0940397727
 20
76.6175097712
 11
13.2214617466
 21
76.4925409948
  0
LINE
  5
2E5
100
AcDbEntity
  8
0
100
AcDbLine
 62
7
  6
CONTINUOUS
 10
64.5905788424
 20
28.7189788151
 11
64.4631568684
 21
28.8439475916
  0
LINE
  5
2E6
100
AcDbEntity
  8
0
100
AcDbLine
 62
7
  6
CONTINUOUS
 10
33.4156796004
 20
57.5954831733
 11
33.0423093075
 21
57.9688534662
  0
LINE
  5
2E7
100
AcDbEntity
  8
0
100
AcDbLine
 62
7
  6
CONTINUOUS
 10
34.0417001345
 20
58.9682442932
 11
34.3768500631
 21
58.6330943646
  0
LINE
  5
2E8
100
AcDbEntity
  8
0
100
AcDbLine
 62
7
  6
CONTINUOUS
 10
33.9549757791
 20
56.8398272039
 11
33.6094399215
 21
57.3264173932
  0
LINE
  5
2E9
100
AcDbEntity
  8
0
100
AcDbLine
 62
7
  6
CONTINUOUS
 10
38.0026370883
 20
55.1682442932
 11
37.7423093075
 21
55.6682442932
  0
LINE
  5
2EA
100
AcDbEntity
  8
0
100
AcDbLine
 62
7
  6
CONTINUOUS
 10
34.6098332152
 20
58.6330943646
 11
34.4423093075
 21
58.9682442932
  0
LINE
  5
2EB
100
AcDbEntity
  8
0
100
AcDbLine
 62
7
  6
CONTINUOUS
 10
43.0377474704
 20
21.4966613825
 11
43.0628384499
 21
20.0081266783
  0
LINE
  5
2EC
100
AcDbEntity
  8
0
100
AcDbLine
 62
7
  6
CONTINUOUS
 10
39.6673093075
 20
52.5182442932
 11
39.6673093075
 21
25.8182442932
  0
LINE
  5
2ED
100
AcDbEntity
  8
0
100
AcDbLine
 62
7
  6
CONTINUOUS
 10
39.8673093075
 20
26.0182442932
 11
39.8673093075
 21
52.3182442932
  0
LINE
  5
2EE
100
AcDbEntity
  8
0
100
AcDbLine
 62
7
  6
CONTINUOUS
 10
40.1423093075
 20
55.1682442932
 11
40.1423093075
 21
53.0182442932
  0
LINE
  5
2EF
100
AcDbEntity
  8
0
100
AcDbLine
 62
7
  6
CONTINUOUS
 10
40.1423093075
 20
23.1682442932
 11
40.1423093075
 21
25.3182442932
  0
LINE
  5
2F0
100
AcDbEntity
  8
0
100
AcDbLine
 62
7
  6
CONTINUOUS
 10
40.6423093075
 20
22.6682442932
 11
40.6423093075
 21
55.6682442932
  0
LINE
  5
2F1
100
AcDbEntity
  8
0
100
AcDbLine
 62
7
  6
CONTINUOUS
 10
41.2923093075
 20
51.2682442932
 11
41.2923093075
 21
50.2682442932
  0
LINE
  5
2F2
100
AcDbEntity
  8
0
100
AcDbLine
 62
7
  6
CONTINUOUS
 10
41.3923093075
 20
51.7432442932
 11
41.3923093075
 21
26.5932442932
  0
LINE
  5
2F3
100
AcDbEntity
  8
0
100
AcDbLine
 62
7
  6
CONTINUOUS
 10
41.3923093075
 20
23.2682442932
 11
41.3923093075
 21
21.2182442932
  0
LINE
  5
2F4
100
AcDbEntity
  8
0
100
AcDbLine
 62
7
  6
CONTINUOUS
 10
41.3923093075
 20
24.4182442932
 11
41.3923093075
 21
26.1432442932
  0
LINE
  5
2F5
100
AcDbEntity
  8
0
100
AcDbLine
 62
7
  6
CONTINUOUS
 10
41.3923093075
 20
52.1932442932
 11
41.3923093075
 21
53.9182442932
  0
LINE
  5
2F6
100
AcDbEntity
  8
0
100
AcDbLine
 62
7
  6
CONTINUOUS
 10
41.3923093075
 20
55.0682442932
 11
41.3923093075
 21
57.1182442932
  0
LINE
  5
2F7
100
AcDbEntity
  8
0
100
AcDbLine
 62
7
  6
CONTINUOUS
 10
41.5923093075
 20
26.5932442932
 11
41.5923093075
 21
51.7432442932
  0
LINE
  5
2F8
100
AcDbEntity
  8
0
100
AcDbLine
 62
7
  6
CONTINUOUS
 10
42.3923093075
 20
53.9182442932
 11
42.3923093075
 21
52.1932442932
  0
LINE
  5
2F9
100
AcDbEntity
  8
0
100
AcDbLine
 62
7
  6
CONTINUOUS
 10
42.3923093075
 20
26.1432442932
 11
42.3923093075
 21
24.4182442932
  0
LINE
  5
2FA
100
AcDbEntity
  8
0
100
AcDbLine
 62
7
  6
CONTINUOUS
 10
42.7423093075
 20
57.1182442932
 11
42.7423093075
 21
51.7432442932
  0
LINE
  5
2FB
100
AcDbEntity
  8
0
100
AcDbLine
 62
7
  6
CONTINUOUS
 10
42.7423093075
 20
21.2182442932
 11
42.7423093075
 21
26.5932442932
  0
LINE
  5
2FC
100
AcDbEntity
  8
0
100
AcDbLine
 62
7
  6
CONTINUOUS
 10
42.5916260412
 20
90.1406156139
 11
42.583843601
 21
87.1682442932
  0
LINE
  5
2FD
100
AcDbEntity
  8
0
100
AcDbLine
 62
7
  6
CONTINUOUS
 10
42.6100261984
 20
87.1682442932
 11
42.6177402648
 21
90.1145013903
  0
LINE
  5
2FE
100
AcDbEntity
  8
0
100
AcDbLine
 62
7
  6
CONTINUOUS
 10
43.0747853999
 20
58.6330943646
 11
43.2423093075
 21
58.9682442932
  0
LINE
  5
2FF
100
AcDbEntity
  8
0
100
AcDbLine
 62
7
  6
CONTINUOUS
 10
43.7296428359
 20
56.8398272039
 11
44.0751786936
 21
57.3264173932
  0
LINE
  5
300
100
AcDbEntity
  8
0
100
AcDbLine
 62
7
  6
CONTINUOUS
 10
13.0004043841
 20
25.449945625
 11
13.0423093075
 21
25.491981599
  0
LINE
  5
301
100
AcDbEntity
  8
0
100
AcDbLine
 62
7
  6
CONTINUOUS
 10
44.6423093075
 20
57.9688534662
 11
44.2689390147
 21
57.5954831733
  0
LINE
  5
302
100
AcDbEntity
  8
0
100
AcDbLine
 62
7
  6
CONTINUOUS
 10
10.8842142309
 20
20.2101492166
 11
10.8423093075
 21
20.1682442932
  0
LINE
  5
303
100
AcDbEntity
  8
0
100
AcDbLine
 62
7
  6
CONTINUOUS
 10
64.5905788424
 20
76.6175097712
 11
64.4631568684
 21
76.4925409948
  0
LINE
  5
304
100
AcDbEntity
  8
0
100
AcDbLine
 62
7
  6
CONTINUOUS
 10
42.7423093075
 20
54.3682442932
 11
42.0923093075
 21
54.3682442932
  0
LINE
  5
305
100
AcDbEntity
  8
0
100
AcDbLine
 62
7
  6
CONTINUOUS
 10
35.5923093075
 20
54.3682442932
 11
34.9423093075
 21
54.3682442932
  0
LINE
  5
306
100
AcDbEntity
  8
0
100
AcDbLine
 62
7
  6
CONTINUOUS
 10
38.0026370883
 20
55.1682442932
 11
40.1423093075
 21
55.1682442932
  0
LINE
  5
307
100
AcDbEntity
  8
0
100
AcDbLine
 62
7
  6
CONTINUOUS
 10
40.6423093075
 20
55.6682442932
 11
37.7423093075
 21
55.6682442932
  0
LINE
  5
308
100
AcDbEntity
  8
0
100
AcDbLine
 62
7
  6
CONTINUOUS
 10
34.1613585414
 20
56.1451688334
 11
34.6517700867
 21
56.1451688334
  0
LINE
  5
309
100
AcDbEntity
  8
0
100
AcDbLine
 62
7
  6
CONTINUOUS
 10
43.0328485284
 20
56.1451688334
 11
43.5232600736
 21
56.1451688334
  0
LINE
  5
30A
100
AcDbEntity
  8
0
100
AcDbLine
 62
7
  6
CONTINUOUS
 10
43.7296428359
 20
56.8398272039
 11
43.0377474704
 21
56.8398272039
  0
LINE
  5
30B
100
AcDbEntity
  8
0
100
AcDbLine
 62
7
  6
CONTINUOUS
 10
34.6468711446
 20
56.8398272039
 11
33.9549757791
 21
56.8398272039
  0
LINE
  5
30C
100
AcDbEntity
  8
0
100
AcDbLine
 62
7
  6
CONTINUOUS
 10
36.8923093075
 20
56.9182442932
 11
40.7923093075
 21
56.9182442932
  0
LINE
  5
30D
100
AcDbEntity
  8
0
100
AcDbLine
 62
7
  6
CONTINUOUS
 10
36.7923093075
 20
57.0182442932
 11
40.8923093075
 21
57.0182442932
  0
LINE
  5
30E
100
AcDbEntity
  8
0
100
AcDbLine
 62
7
  6
CONTINUOUS
 10
42.7423093075
 20
57.1182442932
 11
40.9923093075
 21
57.1182442932
  0
LINE
  5
30F
100
AcDbEntity
  8
0
100
AcDbLine
 62
7
  6
CONTINUOUS
 10
36.6923093075
 20
57.1182442932
 11
36.1423093075
 21
57.1182442932
  0
LINE
  5
310
100
AcDbEntity
  8
0
100
AcDbLine
 62
7
  6
CONTINUOUS
 10
36.8923093075
 20
56.9182442932
 11
36.6923093075
 21
57.1182442932
  0
LINE
  5
311
100
AcDbEntity
  8
0
100
AcDbLine
 62
7
  6
CONTINUOUS
 10
42.0923093075
 20
54.3682442932
 11
41.3923093075
 21
55.0682442932
  0
LINE
  5
312
100
AcDbEntity
  8
0
100
AcDbLine
 62
7
  6
CONTINUOUS
 10
43.0328485284
 20
56.1451688334
 11
43.0328485284
 21
22.1913197529
  0
LINE
  5
313
100
AcDbEntity
  8
0
100
AcDbLine
 62
7
  6
CONTINUOUS
 10
43.5232600736
 20
56.1451688334
 11
43.5232600736
 21
22.1913197529
  0
LINE
  5
314
100
AcDbEntity
  8
0
100
AcDbLine
 62
7
  6
CONTINUOUS
 10
44.0041581969
 20
90.1145013903
 11
44.0041581969
 21
87.1682442932
  0
LINE
  5
315
100
AcDbEntity
  8
0
100
AcDbLine
 62
7
  6
CONTINUOUS
 10
44.0751786936
 20
57.3264173932
 11
44.0751786936
 21
21.0100711932
  0
LINE
  5
316
100
AcDbEntity
  8
0
100
AcDbLine
 62
7
  6
CONTINUOUS
 10
44.2689390147
 20
20.7410054131
 11
44.2689390147
 21
57.5954831733
  0
LINE
  5
317
100
AcDbEntity
  8
0
100
AcDbLine
 62
7
  6
CONTINUOUS
 10
44.6423093075
 20
57.9688534662
 11
44.6423093075
 21
20.3676351202
  0
LINE
  5
318
100
AcDbEntity
  8
0
100
AcDbLine
 62
7
  6
CONTINUOUS
 10
44.8423093075
 20
21.9682442932
 11
44.8423093075
 21
59.9682442932
  0
LINE
  5
319
100
AcDbEntity
  8
0
100
AcDbLine
 62
7
  6
CONTINUOUS
 10
45.5423093075
 20
72.3681503921
 11
45.5423093075
 21
75.968338201
  0
LINE
  5
31A
100
AcDbEntity
  8
0
100
AcDbLine
 62
7
  6
CONTINUOUS
 10
45.8423093075
 20
97.2623902801
 11
45.8423093075
 21
97.2361389499
  0
LINE
  5
31B
100
AcDbEntity
  8
0
100
AcDbLine
 62
7
  6
CONTINUOUS
 10
46.0423093077
 20
72.3682442923
 11
46.0423093086
 21
75.9682442923
  0
LINE
  5
31C
100
AcDbEntity
  8
0
100
AcDbLine
 62
7
  6
CONTINUOUS
 10
43.0628384499
 20
58.3283619081
 11
43.0377474704
 21
56.8398272039
  0
LINE
  5
31D
100
AcDbEntity
  8
0
100
AcDbLine
 62
7
  6
CONTINUOUS
 10
15.5842142309
 20
20.2101492166
 11
15.5423093075
 21
20.1682442932
  0
LINE
  5
31E
100
AcDbEntity
  8
0
100
AcDbLine
 62
7
  6
CONTINUOUS
 10
33.7060120514
 20
58.3283619081
 11
34.6217801651
 21
58.3283619081
  0
LINE
  5
31F
100
AcDbEntity
  8
0
100
AcDbLine
 62
7
  6
CONTINUOUS
 10
43.0628384499
 20
58.3283619081
 11
43.9786065636
 21
58.3283619081
  0
LINE
  5
320
100
AcDbEntity
  8
0
100
AcDbLine
 62
7
  6
CONTINUOUS
 10
43.3077685519
 20
58.6330943646
 11
43.0747853999
 21
58.6330943646
  0
LINE
  5
321
100
AcDbEntity
  8
0
100
AcDbLine
 62
7
  6
CONTINUOUS
 10
34.6098332152
 20
58.6330943646
 11
34.3768500631
 21
58.6330943646
  0
LINE
  5
322
100
AcDbEntity
  8
0
100
AcDbLine
 62
7
  6
CONTINUOUS
 10
34.0417001345
 20
58.9682442932
 11
34.4423093075
 21
58.9682442932
  0
LINE
  5
323
100
AcDbEntity
  8
0
100
AcDbLine
 62
7
  6
CONTINUOUS
 10
43.2423093075
 20
58.9682442932
 11
43.6429184805
 21
58.9682442932
  0
LINE
  5
324
100
AcDbEntity
  8
0
100
AcDbLine
 62
7
  6
CONTINUOUS
 10
46.5055698895
 20
87.1682442932
 11
46.5055698895
 21
90.1145013903
  0
LINE
  5
325
100
AcDbEntity
  8
0
100
AcDbLine
 62
7
  6
CONTINUOUS
 10
46.5423093075
 20
75.6682442932
 11
46.5423093075
 21
72.6682442932
  0
LINE
  5
326
100
AcDbEntity
  8
0
100
AcDbLine
 62
7
  6
CONTINUOUS
 10
47.0206210002
 20
90.1145013903
 11
47.0206210002
 21
87.1682442932
  0
LINE
  5
327
100
AcDbEntity
  8
0
100
AcDbLine
 62
7
  6
CONTINUOUS
 10
47.0592093075
 20
90.1145013903
 11
47.0592093075
 21
87.1682442932
  0
LINE
  5
328
100
AcDbEntity
  8
0
100
AcDbLine
 62
7
  6
CONTINUOUS
 10
47.2423093088
 20
70.6682442932
 11
47.2423093084
 21
71.1682442943
  0
LINE
  5
329
100
AcDbEntity
  8
0
100
AcDbLine
 62
7
  6
CONTINUOUS
 10
47.2423093066
 20
77.168244293
 11
47.2423093062
 21
77.6682442932
  0
LINE
  5
32A
100
AcDbEntity
  8
0
100
AcDbLine
 62
7
  6
CONTINUOUS
 10
49.4341093075
 20
92.9508842932
 11
49.4341093075
 21
87.1682442932
  0
LINE
  5
32B
100
AcDbEntity
  8
0
100
AcDbLine
 62
7
  6
CONTINUOUS
 10
48.8522144575
 20
94.1846820308
 11
48.8416260412
 21
90.1406156139
  0
LINE
  5
32C
100
AcDbEntity
  8
0
100
AcDbLine
 62
7
  6
CONTINUOUS
 10
48.8677402648
 20
90.1145013903
 11
48.8783970549
 21
94.1846820308
  0
LINE
  5
32D
100
AcDbEntity
  8
0
100
AcDbLine
 62
7
  6
CONTINUOUS
 10
46.1423093075
 20
61.2682442932
 11
59.4423093075
 21
61.2682442932
  0
LINE
  5
32E
100
AcDbEntity
  8
0
100
AcDbLine
 62
7
  6
CONTINUOUS
 10
9.4423093075
 20
64.1682442932
 11
12.0430407607
 21
64.1682442932
  0
LINE
  5
32F
100
AcDbEntity
  8
0
100
AcDbLine
 62
7
  6
CONTINUOUS
 10
65.6415778544
 20
64.1682442932
 11
68.2423093075
 21
64.1682442932
  0
LINE
  5
330
100
AcDbEntity
  8
0
100
AcDbLine
 62
7
  6
CONTINUOUS
 10
10.8423093075
 20
79.8513763926
 11
11.0797705401
 21
79.7338550406
  0
LINE
  5
331
100
AcDbEntity
  8
0
100
AcDbLine
 62
7
  6
CONTINUOUS
 10
53.2441093075
 20
92.9508842932
 11
53.2441093075
 21
87.1682442932
  0
LINE
  5
332
100
AcDbEntity
  8
0
100
AcDbLine
 62
7
  6
CONTINUOUS
 10
34.6098332152
 20
19.7033942217
 11
34.4423093075
 21
19.3682442932
  0
LINE
  5
333
100
AcDbEntity
  8
0
100
AcDbLine
 62
7
  6
CONTINUOUS
 10
38.0026370883
 20
23.1682442932
 11
37.7423093075
 21
22.6682442932
  0
LINE
  5
334
100
AcDbEntity
  8
0
100
AcDbLine
 62
7
  6
CONTINUOUS
 10
66.3571214346
 20
64.9330564203
 11
66.5923093075
 21
65.1682442932
  0
LINE
  5
335
100
AcDbEntity
  8
0
100
AcDbLine
 62
7
  6
CONTINUOUS
 10
21.8842142309
 20
20.2101492166
 11
21.8423093075
 21
20.1682442932
  0
LINE
  5
336
100
AcDbEntity
  8
0
100
AcDbLine
 62
7
  6
CONTINUOUS
 10
10.8423093075
 20
25.4851121937
 11
11.0797705401
 21
25.6026335457
  0
LINE
  5
337
100
AcDbEntity
  8
0
100
AcDbLine
 62
7
  6
CONTINUOUS
 10
66.3571214346
 20
64.9330564203
 11
65.6415778544
 21
64.9330564203
  0
LINE
  5
338
100
AcDbEntity
  8
0
100
AcDbLine
 62
7
  6
CONTINUOUS
 10
12.0430407607
 20
64.9330564203
 11
11.3274971804
 21
64.9330564203
  0
LINE
  5
339
100
AcDbEntity
  8
0
100
AcDbLine
 62
7
  6
CONTINUOUS
 10
12.0430407607
 20
65.1682442932
 11
10.8423093075
 21
65.1682442932
  0
LINE
  5
33A
100
AcDbEntity
  8
0
100
AcDbLine
 62
7
  6
CONTINUOUS
 10
65.6415778544
 20
65.1682442932
 11
66.8423093075
 21
65.1682442932
  0
LINE
  5
33B
100
AcDbEntity
  8
0
100
AcDbLine
 62
7
  6
CONTINUOUS
 10
54.4423093062
 20
77.6682442932
 11
54.4423093066
 21
77.1682442921
  0
LINE
  5
33C
100
AcDbEntity
  8
0
100
AcDbLine
 62
7
  6
CONTINUOUS
 10
54.4423093084
 20
71.1682442933
 11
54.4423093088
 21
70.6682442932
  0
LINE
  5
33D
100
AcDbEntity
  8
0
100
AcDbLine
 62
7
  6
CONTINUOUS
 10
55.1423093075
 20
72.6682442932
 11
55.1423093075
 21
75.6682442932
  0
LINE
  5
33E
100
AcDbEntity
  8
0
100
AcDbLine
 62
7
  6
CONTINUOUS
 10
55.6423093074
 20
75.9682442941
 11
55.6423093064
 21
72.3682442941
  0
LINE
  5
33F
100
AcDbEntity
  8
0
100
AcDbLine
 62
7
  6
CONTINUOUS
 10
56.1423093075
 20
75.9683381943
 11
56.1423093075
 21
72.3681503854
  0
LINE
  5
340
100
AcDbEntity
  8
0
100
AcDbLine
 62
7
  6
CONTINUOUS
 10
33.9549757791
 20
21.4966613825
 11
33.6094399215
 21
21.0100711932
  0
LINE
  5
341
100
AcDbEntity
  8
0
100
AcDbLine
 62
7
  6
CONTINUOUS
 10
27.4842142309
 20
20.2101492166
 11
27.4423093075
 21
20.1682442932
  0
LINE
  5
342
100
AcDbEntity
  8
0
100
AcDbLine
 62
7
  6
CONTINUOUS
 10
54.4424032086
 20
70.6682442932
 11
47.2422153997
 21
70.6682442932
  0
LINE
  5
343
100
AcDbEntity
  8
0
100
AcDbLine
 62
7
  6
CONTINUOUS
 10
30.4424032086
 20
70.6682442932
 11
23.2422153989
 21
70.6682442932
  0
LINE
  5
344
100
AcDbEntity
  8
0
100
AcDbLine
 62
7
  6
CONTINUOUS
 10
54.4423093084
 20
71.1682442933
 11
47.2423093084
 21
71.1682442943
  0
LINE
  5
345
100
AcDbEntity
  8
0
100
AcDbLine
 62
7
  6
CONTINUOUS
 10
30.4423093066
 20
71.1682442943
 11
23.2423093066
 21
71.1682442933
  0
LINE
  5
346
100
AcDbEntity
  8
0
100
AcDbLine
 62
7
  6
CONTINUOUS
 10
30.1423093075
 20
71.6682442932
 11
23.5423093075
 21
71.6682442932
  0
LINE
  5
347
100
AcDbEntity
  8
0
100
AcDbLine
 62
7
  6
CONTINUOUS
 10
47.5423093075
 20
71.6682442932
 11
54.1423093075
 21
71.6682442932
  0
LINE
  5
348
100
AcDbEntity
  8
0
100
AcDbLine
 62
7
  6
CONTINUOUS
 10
33.0423093075
 20
20.3676351202
 11
33.4156796004
 21
20.7410054131
  0
LINE
  5
349
100
AcDbEntity
  8
0
100
AcDbLine
 62
7
  6
CONTINUOUS
 10
34.3768500631
 20
19.7033942217
 11
34.0417001345
 21
19.3682442932
  0
LINE
  5
34A
100
AcDbEntity
  8
0
100
AcDbLine
 62
7
  6
CONTINUOUS
 10
36.6923093075
 20
21.2182442932
 11
36.8923093075
 21
21.4182442932
  0
LINE
  5
34B
100
AcDbEntity
  8
0
100
AcDbLine
 62
7
  6
CONTINUOUS
 10
56.1423093075
 20
72.3682442945
 11
55.6423093064
 21
72.3682442941
  0
LINE
  5
34C
100
AcDbEntity
  8
0
100
AcDbLine
 62
7
  6
CONTINUOUS
 10
46.0423093077
 20
72.3682442923
 11
45.5423093075
 21
72.3682442919
  0
LINE
  5
34D
100
AcDbEntity
  8
0
100
AcDbLine
 62
7
  6
CONTINUOUS
 10
32.1423093075
 20
72.3682442919
 11
31.6423093074
 21
72.3682442923
  0
LINE
  5
34E
100
AcDbEntity
  8
0
100
AcDbLine
 62
7
  6
CONTINUOUS
 10
22.0423093086
 20
72.3682442941
 11
21.5423093075
 21
72.3682442945
  0
LINE
  5
34F
100
AcDbEntity
  8
0
100
AcDbLine
 62
7
  6
CONTINUOUS
 10
66.3571214346
 20
53.4034321661
 11
66.5923093075
 21
53.1682442932
  0
LINE
  5
350
100
AcDbEntity
  8
0
100
AcDbLine
 62
7
  6
CONTINUOUS
 10
59.4423093075
 20
61.2682442932
 11
61.4423093075
 21
59.2682442932
  0
LINE
  5
351
100
AcDbEntity
  8
0
100
AcDbLine
 62
7
  6
CONTINUOUS
 10
61.4423093075
 20
59.2682442932
 11
61.4423093075
 21
21.9682442932
  0
LINE
  5
352
100
AcDbEntity
  8
0
100
AcDbLine
 62
7
  6
CONTINUOUS
 10
41.3923093075
 20
23.2682442932
 11
42.0923093075
 21
23.9682442932
  0
LINE
  5
353
100
AcDbEntity
  8
0
100
AcDbLine
 62
7
  6
CONTINUOUS
 10
10.8423093075
 20
76.4851121937
 11
13.2214617466
 21
76.4925409948
  0
LINE
  5
354
100
AcDbEntity
  8
0
100
AcDbLine
 62
7
  6
CONTINUOUS
 10
11.6423093075
 20
76.6043900488
 11
11.0797705401
 21
76.6026335457
  0
LINE
  5
355
100
AcDbEntity
  8
0
100
AcDbLine
 62
7
  6
CONTINUOUS
 10
13.0940397727
 20
76.6175097712
 11
11.6423093075
 21
76.6129768054
  0
LINE
  5
356
100
AcDbEntity
  8
0
100
AcDbLine
 62
7
  6
CONTINUOUS
 10
21.5423093075
 20
75.9682442945
 11
22.0423093077
 21
75.9682442941
  0
LINE
  5
357
100
AcDbEntity
  8
0
100
AcDbLine
 62
7
  6
CONTINUOUS
 10
31.6423093064
 20
75.9682442923
 11
32.1423093075
 21
75.9682442919
  0
LINE
  5
358
100
AcDbEntity
  8
0
100
AcDbLine
 62
7
  6
CONTINUOUS
 10
45.5423093075
 20
75.9682442919
 11
46.0423093086
 21
75.9682442923
  0
LINE
  5
359
100
AcDbEntity
  8
0
100
AcDbLine
 62
7
  6
CONTINUOUS
 10
55.6423093074
 20
75.9682442941
 11
56.1423093075
 21
75.9682442945
  0
LINE
  5
35A
100
AcDbEntity
  8
0
100
AcDbLine
 62
7
  6
CONTINUOUS
 10
54.1423093075
 20
76.6682442932
 11
47.5423093075
 21
76.6682442932
  0
LINE
  5
35B
100
AcDbEntity
  8
0
100
AcDbLine
 62
7
  6
CONTINUOUS
 10
23.5423093075
 20
76.6682442932
 11
30.1423093075
 21
76.6682442932
  0
LINE
  5
35C
100
AcDbEntity
  8
0
100
AcDbLine
 62
7
  6
CONTINUOUS
 10
23.2423093084
 20
77.1682442921
 11
30.4423093084
 21
77.168244293
  0
LINE
  5
35D
100
AcDbEntity
  8
0
100
AcDbLine
 62
7
  6
CONTINUOUS
 10
47.2423093066
 20
77.168244293
 11
54.4423093066
 21
77.1682442921
  0
LINE
  5
35E
100
AcDbEntity
  8
0
100
AcDbLine
 62
7
  6
CONTINUOUS
 10
23.2422154064
 20
77.6682442932
 11
30.4424032162
 21
77.6682442932
  0
LINE
  5
35F
100
AcDbEntity
  8
0
100
AcDbLine
 62
7
  6
CONTINUOUS
 10
47.2422154064
 20
77.6682442932
 11
54.4424032153
 21
77.6682442932
  0
LINE
  5
360
100
AcDbEntity
  8
0
100
AcDbLine
 62
7
  6
CONTINUOUS
 10
64.4631568684
 20
76.4925409948
 11
66.8423093075
 21
76.4851121937
  0
LINE
  5
361
100
AcDbEntity
  8
0
100
AcDbLine
 62
7
  6
CONTINUOUS
 10
66.0423093075
 20
76.6043900488
 11
66.604848075
 21
76.6026335457
  0
LINE
  5
362
100
AcDbEntity
  8
0
100
AcDbLine
 62
7
  6
CONTINUOUS
 10
64.5905788424
 20
76.6175097712
 11
66.0423093075
 21
76.6129768054
  0
LINE
  5
363
100
AcDbEntity
  8
0
100
AcDbLine
 62
7
  6
CONTINUOUS
 10
64.4631568684
 20
79.8439475916
 11
64.4631568684
 21
76.4925409948
  0
LINE
  5
364
100
AcDbEntity
  8
0
100
AcDbLine
 62
7
  6
CONTINUOUS
 10
64.4631568684
 20
28.8439475916
 11
64.4631568684
 21
25.4925409948
  0
LINE
  5
365
100
AcDbEntity
  8
0
100
AcDbLine
 62
7
  6
CONTINUOUS
 10
64.5905788424
 20
79.7189788151
 11
64.5905788424
 21
76.6175097712
  0
LINE
  5
366
100
AcDbEntity
  8
0
100
AcDbLine
 62
7
  6
CONTINUOUS
 10
64.5905788424
 20
28.7189788151
 11
64.5905788424
 21
25.6175097712
  0
LINE
  5
367
100
AcDbEntity
  8
0
100
AcDbLine
 62
7
  6
CONTINUOUS
 10
65.6415778544
 20
53.1682442932
 11
65.6415778544
 21
65.1682442932
  0
LINE
  5
368
100
AcDbEntity
  8
0
100
AcDbLine
 62
7
  6
CONTINUOUS
 10
65.7568163937
 20
64.1682442932
 11
65.7568163937
 21
54.1682442932
  0
LINE
  5
369
100
AcDbEntity
  8
0
100
AcDbLine
 62
7
  6
CONTINUOUS
 10
66.0423093075
 20
76.6129768054
 11
66.0423093075
 21
76.6043900488
  0
LINE
  5
36A
100
AcDbEntity
  8
0
100
AcDbLine
 62
7
  6
CONTINUOUS
 10
66.0423093075
 20
25.6129768054
 11
66.0423093075
 21
25.6043900488
  0
LINE
  5
36B
100
AcDbEntity
  8
0
100
AcDbLine
 62
7
  6
CONTINUOUS
 10
66.0423093075
 20
28.723511781
 11
66.0423093075
 21
28.7320985376
  0
LINE
  5
36C
100
AcDbEntity
  8
0
100
AcDbLine
 62
7
  6
CONTINUOUS
 10
66.0423093075
 20
79.723511781
 11
66.0423093075
 21
79.7320985376
  0
LINE
  5
36D
100
AcDbEntity
  8
0
100
AcDbLine
 62
7
  6
CONTINUOUS
 10
66.5923093075
 20
79.7338550406
 11
66.5923093075
 21
76.6026335457
  0
LINE
  5
36E
100
AcDbEntity
  8
0
100
AcDbLine
 62
7
  6
CONTINUOUS
 10
66.5923093075
 20
28.7338550406
 11
66.5923093075
 21
25.6026335457
  0
LINE
  5
36F
100
AcDbEntity
  8
0
100
AcDbLine
 62
7
  6
CONTINUOUS
 10
66.8423093075
 20
82.1682442932
 11
66.8423093075
 21
79.8513763926
  0
LINE
  5
370
100
AcDbEntity
  8
0
100
AcDbLine
 62
7
  6
CONTINUOUS
 10
66.8423093075
 20
76.4851121937
 11
66.8423093075
 21
65.1682442932
  0
LINE
  5
371
100
AcDbEntity
  8
0
100
AcDbLine
 62
7
  6
CONTINUOUS
 10
66.8423093075
 20
53.1682442932
 11
66.8423093075
 21
28.8513763926
  0
LINE
  5
372
100
AcDbEntity
  8
0
100
AcDbLine
 62
7
  6
CONTINUOUS
 10
66.8423093075
 20
25.4851121937
 11
66.8423093075
 21
15.1682442932
  0
LINE
  5
373
100
AcDbEntity
  8
0
100
AcDbLine
 62
7
  6
CONTINUOUS
 10
67.0568163937
 20
64.1682442932
 11
67.0568163937
 21
54.1682442932
  0
LINE
  5
374
100
AcDbEntity
  8
0
100
AcDbLine
 62
7
  6
CONTINUOUS
 10
37.0423093075
 20
23.6682442932
 11
37.5423093075
 21
23.8258554086
  0
LINE
  5
375
100
AcDbEntity
  8
0
100
AcDbLine
 62
7
  6
CONTINUOUS
 10
40.1423093075
 20
25.3182442932
 11
40.6423093075
 21
25.4636988386
  0
LINE
  5
376
100
AcDbEntity
  8
0
100
AcDbLine
 62
7
  6
CONTINUOUS
 10
64.5905788424
 20
79.7189788151
 11
66.0423093075
 21
79.723511781
  0
LINE
  5
377
100
AcDbEntity
  8
0
100
AcDbLine
 62
7
  6
CONTINUOUS
 10
66.0423093075
 20
79.7320985376
 11
66.604848075
 21
79.7338550406
  0
LINE
  5
378
100
AcDbEntity
  8
0
100
AcDbLine
 62
7
  6
CONTINUOUS
 10
64.4631568684
 20
79.8439475916
 11
66.8423093075
 21
79.8513763926
  0
LINE
  5
379
100
AcDbEntity
  8
0
100
AcDbLine
 62
7
  6
CONTINUOUS
 10
11.6423093075
 20
79.723511781
 11
13.0940397727
 21
79.7189788151
  0
LINE
  5
37A
100
AcDbEntity
  8
0
100
AcDbLine
 62
7
  6
CONTINUOUS
 10
11.0797705401
 20
79.7338550406
 11
11.6423093075
 21
79.7320985376
  0
LINE
  5
37B
100
AcDbEntity
  8
0
100
AcDbLine
 62
7
  6
CONTINUOUS
 10
13.2214617466
 20
79.8439475916
 11
10.8423093075
 21
79.8513763926
  0
LINE
  5
37C
100
AcDbEntity
  8
0
100
AcDbLine
 62
7
  6
CONTINUOUS
 10
42.5916260412
 20
90.1406156139
 11
42.6177402648
 21
90.1145013903
  0
LINE
  5
37D
100
AcDbEntity
  8
0
100
AcDbLine
 62
7
  6
CONTINUOUS
 10
68.7423093075
 20
63.6682442932
 11
68.7423093075
 21
54.6682442932
  0
LINE
  5
37E
100
AcDbEntity
  8
0
100
AcDbLine
 62
7
  6
CONTINUOUS
 10
66.604848075
 20
28.7338550406
 11
66.8423093075
 21
28.8513763926
  0
LINE
  5
37F
100
AcDbEntity
  8
0
100
AcDbLine
 62
7
  6
CONTINUOUS
 10
15.8423093075
 20
87.1682442932
 11
61.8423093075
 21
87.1682442932
  0
LINE
  5
380
100
AcDbEntity
  8
0
100
AcDbLine
 62
7
  6
CONTINUOUS
 10
66.604848075
 20
76.6026335457
 11
66.8423093075
 21
76.4851121937
  0
LINE
  5
381
100
AcDbEntity
  8
0
100
AcDbLine
 62
7
  6
CONTINUOUS
 10
48.8416260412
 20
90.1406156139
 11
48.8677402648
 21
90.1145013903
  0
LINE
  5
382
100
AcDbEntity
  8
0
100
AcDbLine
 62
7
  6
CONTINUOUS
 10
64.5905788424
 20
25.6175097712
 11
64.4631568684
 21
25.4925409948
  0
LINE
  5
383
100
AcDbEntity
  8
0
100
AcDbLine
 62
7
  6
CONTINUOUS
 10
48.8677402648
 20
90.1145013903
 11
42.6177402648
 21
90.1145013903
  0
LINE
  5
384
100
AcDbEntity
  8
0
100
AcDbLine
 62
7
  6
CONTINUOUS
 10
35.0668783503
 20
90.1145013903
 11
28.8168783503
 21
90.1145013903
  0
LINE
  5
385
100
AcDbEntity
  8
0
100
AcDbLine
 62
7
  6
CONTINUOUS
 10
48.8416260412
 20
90.1406156139
 11
42.5916260412
 21
90.1406156139
  0
LINE
  5
386
100
AcDbEntity
  8
0
100
AcDbLine
 62
7
  6
CONTINUOUS
 10
35.0929925738
 20
90.1406156139
 11
28.8429925738
 21
90.1406156139
  0
LINE
  5
387
100
AcDbEntity
  8
0
100
AcDbLine
 62
7
  6
CONTINUOUS
 10
64.5905788424
 20
79.7189788151
 11
64.4631568684
 21
79.8439475916
  0
LINE
  5
388
100
AcDbEntity
  8
0
100
AcDbLine
 62
7
  6
CONTINUOUS
 10
24.4407638658
 20
92.9508842932
 11
28.2502547492
 21
92.9508842932
  0
LINE
  5
389
100
AcDbEntity
  8
0
100
AcDbLine
 62
7
  6
CONTINUOUS
 10
49.4343638658
 20
92.9508842932
 11
53.2438547492
 21
92.9508842932
  0
LINE
  5
38A
100
AcDbEntity
  8
0
100
AcDbLine
 62
7
  6
CONTINUOUS
 10
28.8062215602
 20
94.1846820308
 11
28.8324041576
 21
94.1846820308
  0
LINE
  5
38B
100
AcDbEntity
  8
0
100
AcDbLine
 62
7
  6
CONTINUOUS
 10
48.8522144575
 20
94.1846820308
 11
48.8783970549
 21
94.1846820308
  0
LINE
  5
38C
100
AcDbEntity
  8
0
100
AcDbLine
 62
7
  6
CONTINUOUS
 10
45.8423093075
 20
97.2361389499
 11
31.8423093075
 21
97.2361389499
  0
LINE
  5
38D
100
AcDbEntity
  8
0
100
AcDbLine
 62
7
  6
CONTINUOUS
 10
45.8423093075
 20
97.2623902801
 11
31.8423093075
 21
97.2623902801
  0
ARC
  5
38E
100
AcDbEntity
  8
0
100
AcDbCircle
 62
7
  6
CONTINUOUS
 10
15.8423093075
 20
15.1682442932
 40
4.9999999999
100
AcDbArc
 50
180.0
 51
270.0
  0
ARC
  5
38F
100
AcDbEntity
  8
0
100
AcDbCircle
 62
7
  6
CONTINUOUS
 10
34.4703650453
 20
20.4004915836
 40
1.0548835809
100
AcDbArc
 50
144.6995281844
 51
169.5296665557
  0
ARC
  5
390
100
AcDbEntity
  8
0
100
AcDbCircle
 62
7
  6
CONTINUOUS
 10
38.0173093075
 20
26.0182442932
 40
0.2
100
AcDbArc
 50
180.0
 51
270.0
  0
ARC
  5
391
100
AcDbEntity
  8
0
100
AcDbCircle
 62
7
  6
CONTINUOUS
 10
15.8423093075
 20
82.1682442932
 40
4.9999999999
100
AcDbArc
 50
90.0
 51
180.0
  0
ARC
  5
392
100
AcDbEntity
  8
0
100
AcDbCircle
 62
7
  6
CONTINUOUS
 10
30.4423093075
 20
72.3682442932
 40
1.7000123976
100
AcDbArc
 50
270.0031647865
 51
359.9968349591
  0
ARC
  5
393
100
AcDbEntity
  8
0
100
AcDbCircle
 62
7
  6
CONTINUOUS
 10
30.4423093075
 20
75.9682442932
 40
1.7000123976
100
AcDbArc
 50
0.0031647865
 51
89.996834959
  0
ARC
  5
394
100
AcDbEntity
  8
0
100
AcDbCircle
 62
7
  6
CONTINUOUS
 10
23.2423093075
 20
75.9682442932
 40
1.7000123976
100
AcDbArc
 50
90.0031647865
 51
179.9968349591
  0
ARC
  5
395
100
AcDbEntity
  8
0
100
AcDbCircle
 62
7
  6
CONTINUOUS
 10
23.2423093075
 20
72.3682442932
 40
1.7000123976
100
AcDbArc
 50
180.0031647865
 51
269.9968349591
  0
ARC
  5
396
100
AcDbEntity
  8
0
100
AcDbCircle
 62
7
  6
CONTINUOUS
 10
30.4423093075
 20
75.9682442932
 40
1.2000087516
100
AcDbArc
 50
0.0021912333
 51
89.9978087068
  0
ARC
  5
397
100
AcDbEntity
  8
0
100
AcDbCircle
 62
7
  6
CONTINUOUS
 10
23.2423093075
 20
75.9682442932
 40
1.2000087516
100
AcDbArc
 50
90.0021912333
 51
179.997808706
  0
ARC
  5
398
100
AcDbEntity
  8
0
100
AcDbCircle
 62
7
  6
CONTINUOUS
 10
23.2423093075
 20
72.3682442932
 40
1.2000087516
100
AcDbArc
 50
180.0021912342
 51
269.9978087274
  0
ARC
  5
399
100
AcDbEntity
  8
0
100
AcDbCircle
 62
7
  6
CONTINUOUS
 10
30.4423093075
 20
72.3682442932
 40
1.2000087516
100
AcDbArc
 50
270.0021912771
 51
359.9978087069
  0
ARC
  5
39A
100
AcDbEntity
  8
0
100
AcDbCircle
 62
7
  6
CONTINUOUS
 10
34.4703641035
 20
57.9359964714
 40
1.0548825052
100
AcDbArc
 50
190.4703252033
 51
215.3004778243
  0
ARC
  5
39B
100
AcDbEntity
  8
0
100
AcDbCircle
 62
7
  6
CONTINUOUS
 10
23.5423093075
 20
72.6682442932
 40
1.0
100
AcDbArc
 50
180.0
 51
270.0
  0
ARC
  5
39C
100
AcDbEntity
  8
0
100
AcDbCircle
 62
7
  6
CONTINUOUS
 10
23.5423093075
 20
75.6682442932
 40
1.0
100
AcDbArc
 50
90.0
 51
180.0
  0
ARC
  5
39D
100
AcDbEntity
  8
0
100
AcDbCircle
 62
7
  6
CONTINUOUS
 10
30.1423093075
 20
75.6682442932
 40
1.0
100
AcDbArc
 50
0.0
 51
90.0
  0
ARC
  5
39E
100
AcDbEntity
  8
0
100
AcDbCircle
 62
7
  6
CONTINUOUS
 10
30.1423093075
 20
72.6682442932
 40
1.0
100
AcDbArc
 50
270.0
 51
360.0
  0
ARC
  5
39F
100
AcDbEntity
  8
0
100
AcDbCircle
 62
7
  6
CONTINUOUS
 10
34.3617192945
 20
57.5605628014
 40
0.946683968
100
AcDbArc
 50
168.8285868084
 51
177.8860485618
  0
ARC
  5
3A0
100
AcDbEntity
  8
0
100
AcDbCircle
 62
7
  6
CONTINUOUS
 10
9.4423093075
 20
63.6682442932
 40
0.5
100
AcDbArc
 50
90.0
 51
180.0
  0
ARC
  5
3A1
100
AcDbEntity
  8
0
100
AcDbCircle
 62
7
  6
CONTINUOUS
 10
9.4423093075
 20
54.6682442932
 40
0.5
100
AcDbArc
 50
180.0
 51
270.0
  0
ARC
  5
3A2
100
AcDbEntity
  8
0
100
AcDbCircle
 62
7
  6
CONTINUOUS
 10
38.0173093075
 20
52.3182442932
 40
0.2
100
AcDbArc
 50
90.0
 51
180.0
  0
ARC
  5
3A3
100
AcDbEntity
  8
0
100
AcDbCircle
 62
7
  6
CONTINUOUS
 10
61.8423093075
 20
15.1682442932
 40
4.9999999999
100
AcDbArc
 50
270.0
 51
360.0
  0
ARC
  5
3A4
100
AcDbEntity
  8
0
100
AcDbCircle
 62
7
  6
CONTINUOUS
 10
60.1423093075
 20
21.9682442932
 40
1.3
100
AcDbArc
 50
270.0
 51
360.0
  0
ARC
  5
3A5
100
AcDbEntity
  8
0
100
AcDbCircle
 62
7
  6
CONTINUOUS
 10
46.1423093075
 20
21.9682442932
 40
1.3
100
AcDbArc
 50
180.0
 51
270.0
  0
ARC
  5
3A6
100
AcDbEntity
  8
0
100
AcDbCircle
 62
7
  6
CONTINUOUS
 10
43.2142545498
 20
20.4004921356
 40
1.054882462
100
AcDbArc
 50
10.4703237185
 51
35.3004781094
  0
ARC
  5
3A7
100
AcDbEntity
  8
0
100
AcDbCircle
 62
7
  6
CONTINUOUS
 10
39.6673093075
 20
26.0182442932
 40
0.2
100
AcDbArc
 50
270.0
 51
360.0
  0
ARC
  5
3A8
100
AcDbEntity
  8
0
100
AcDbCircle
 62
7
  6
CONTINUOUS
 10
61.8423093075
 20
82.1682442932
 40
4.9999999999
100
AcDbArc
 50
0.0
 51
90.0
  0
ARC
  5
3A9
100
AcDbEntity
  8
0
100
AcDbCircle
 62
7
  6
CONTINUOUS
 10
54.4423093075
 20
72.3682442932
 40
1.7000123976
100
AcDbArc
 50
270.0031647865
 51
359.9968349877
  0
ARC
  5
3AA
100
AcDbEntity
  8
0
100
AcDbCircle
 62
7
  6
CONTINUOUS
 10
54.4423093075
 20
75.9682442932
 40
1.7000123976
100
AcDbArc
 50
0.0031647865
 51
89.9968349877
  0
ARC
  5
3AB
100
AcDbEntity
  8
0
100
AcDbCircle
 62
7
  6
CONTINUOUS
 10
47.2423093075
 20
75.9682442932
 40
1.7000123976
100
AcDbArc
 50
90.0031647865
 51
179.9968349877
  0
ARC
  5
3AC
100
AcDbEntity
  8
0
100
AcDbCircle
 62
7
  6
CONTINUOUS
 10
47.2423093075
 20
72.3682442932
 40
1.7000123976
100
AcDbArc
 50
180.0031647865
 51
269.9968349877
  0
ARC
  5
3AD
100
AcDbEntity
  8
0
100
AcDbCircle
 62
7
  6
CONTINUOUS
 10
46.1423093075
 20
59.9682442932
 40
1.3
100
AcDbArc
 50
90.0
 51
180.0
  0
ARC
  5
3AE
100
AcDbEntity
  8
0
100
AcDbCircle
 62
7
  6
CONTINUOUS
 10
54.4423093075
 20
75.9682442932
 40
1.2000087516
100
AcDbArc
 50
0.0021910414
 51
89.9978084911
  0
ARC
  5
3AF
100
AcDbEntity
  8
0
100
AcDbCircle
 62
7
  6
CONTINUOUS
 10
47.2423093075
 20
75.9682442932
 40
1.2000087516
100
AcDbArc
 50
90.0021910404
 51
179.9978084911
  0
ARC
  5
3B0
100
AcDbEntity
  8
0
100
AcDbCircle
 62
7
  6
CONTINUOUS
 10
47.2423093075
 20
72.3682442932
 40
1.2000087516
100
AcDbArc
 50
180.0021910402
 51
269.997808448
  0
ARC
  5
3B1
100
AcDbEntity
  8
0
100
AcDbCircle
 62
7
  6
CONTINUOUS
 10
54.4423093075
 20
72.3682442932
 40
1.2000087516
100
AcDbArc
 50
270.0021909985
 51
359.9978084899
  0
ARC
  5
3B2
100
AcDbEntity
  8
0
100
AcDbCircle
 62
7
  6
CONTINUOUS
 10
43.2142535313
 20
57.9359970235
 40
1.0548836242
100
AcDbArc
 50
324.6995284705
 51
349.5296650673
  0
ARC
  5
3B3
100
AcDbEntity
  8
0
100
AcDbCircle
 62
7
  6
CONTINUOUS
 10
47.5423093075
 20
75.6682442932
 40
1.0
100
AcDbArc
 50
90.0
 51
180.0
  0
ARC
  5
3B4
100
AcDbEntity
  8
0
100
AcDbCircle
 62
7
  6
CONTINUOUS
 10
54.1423093075
 20
75.6682442932
 40
1.0
100
AcDbArc
 50
0.0
 51
90.0
  0
ARC
  5
3B5
100
AcDbEntity
  8
0
100
AcDbCircle
 62
7
  6
CONTINUOUS
 10
54.1423093075
 20
72.6682442932
 40
1.0
100
AcDbArc
 50
270.0
 51
360.0
  0
ARC
  5
3B6
100
AcDbEntity
  8
0
100
AcDbCircle
 62
7
  6
CONTINUOUS
 10
47.5423093075
 20
72.6682442932
 40
1.0
100
AcDbArc
 50
180.0
 51
270.0
  0
ARC
  5
3B7
100
AcDbEntity
  8
0
100
AcDbCircle
 62
7
  6
CONTINUOUS
 10
43.3228987585
 20
57.5605626287
 40
0.946684536
100
AcDbArc
 50
2.1139606293
 51
11.1714039663
  0
ARC
  5
3B8
100
AcDbEntity
  8
0
100
AcDbCircle
 62
7
  6
CONTINUOUS
 10
68.2423093075
 20
54.6682442932
 40
0.5
100
AcDbArc
 50
270.0
 51
360.0
  0
ARC
  5
3B9
100
AcDbEntity
  8
0
100
AcDbCircle
 62
7
  6
CONTINUOUS
 10
68.2423093075
 20
63.6682442932
 40
0.5
100
AcDbArc
 50
0.0
 51
90.0
  0
ARC
  5
3BA
100
AcDbEntity
  8
0
100
AcDbCircle
 62
7
  6
CONTINUOUS
 10
39.6673093075
 20
52.3182442932
 40
0.2
100
AcDbArc
 50
0.0
 51
90.0
  0
SPLINE
  5
3BB
100
AcDbEntity
  8
0
100
AcDbSpline
 62
7
  6
CONTINUOUS
 70
0
 71
3
 72
15
 73
11
 74
0
 42
0.0000001
 43
0.0000001
 44
0.0000000001
 40
0.0
 40
0.0
 40
0.0
 40
0.0
 40
0.1247824238
 40
0.2496695611
 40
0.3747704851
 40
0.5000034127
 40
0.6252353459
 40
0.7503338755
 40
0.8752185313
 40
1.0
 40
1.0
 40
1.0
 40
1.0
 10
30.8923093075
 20
91.6290943524
 30
0.0
 10
30.8923093075
 20
91.7261451297
 30
0.0
 10
30.8531019926
 20
91.9224890792
 30
0.0
 10
30.6858275562
 20
92.1700967878
 30
0.0
 10
30.43623251
 20
92.335507296
 30
0.0
 10
30.1423017979
 20
92.3933848965
 30
0.0
 10
29.8483742526
 20
92.3355016983
 30
0.0
 10
29.5987858652
 20
92.1700902507
 30
0.0
 10
29.431515652
 20
91.9224856647
 30
0.0
 10
29.3923093075
 20
91.7261443868
 30
0.0
 10
29.3923093075
 20
91.6290943524
 30
0.0
  0
SPLINE
  5
3BC
100
AcDbEntity
  8
0
100
AcDbSpline
 62
7
  6
CONTINUOUS
 70
0
 71
3
 72
15
 73
11
 74
0
 42
0.0000001
 43
0.0000001
 44
0.0000000001
 40
0.0
 40
0.0
 40
0.0
 40
0.0
 40
0.1247824238
 40
0.2496695611
 40
0.3747704851
 40
0.5000034127
 40
0.6252353459
 40
0.7503338755
 40
0.8752185313
 40
1.0
 40
1.0
 40
1.0
 40
1.0
 10
34.3923093075
 20
91.6290943524
 30
0.0
 10
34.3923093075
 20
91.7261451297
 30
0.0
 10
34.3531019926
 20
91.9224890792
 30
0.0
 10
34.1858275562
 20
92.1700967878
 30
0.0
 10
33.93623251
 20
92.335507296
 30
0.0
 10
33.6423017979
 20
92.3933848965
 30
0.0
 10
33.3483742526
 20
92.3355016983
 30
0.0
 10
33.0987858652
 20
92.1700902507
 30
0.0
 10
32.931515652
 20
91.9224856647
 30
0.0
 10
32.8923093075
 20
91.7261443868
 30
0.0
 10
32.8923093075
 20
91.6290943524
 30
0.0
  0
SPLINE
  5
3BD
100
AcDbEntity
  8
0
100
AcDbSpline
 62
7
  6
CONTINUOUS
 70
0
 71
3
 72
15
 73
11
 74
0
 42
0.0000001
 43
0.0000001
 44
0.0000000001
 40
0.0
 40
0.0
 40
0.0
 40
0.0
 40
0.1247824238
 40
0.2496695611
 40
0.3747704851
 40
0.5000034127
 40
0.6252353459
 40
0.7503338755
 40
0.8752185313
 40
1.0
 40
1.0
 40
1.0
 40
1.0
 10
32.5923093075
 20
93.6069670581
 30
0.0
 10
32.5923093075
 20
93.7040178354
 30
0.0
 10
32.5531019926
 20
93.900361785
 30
0.0
 10
32.3858275562
 20
94.1479694936
 30
0.0
 10
32.13623251
 20
94.3133800017
 30
0.0
 10
31.8423017979
 20
94.3712576023
 30
0.0
 10
31.5483742526
 20
94.313374404
 30
0.0
 10
31.2987858652
 20
94.1479629564
 30
0.0
 10
31.131515652
 20
93.9003583704
 30
0.0
 10
31.0923093075
 20
93.7040170926
 30
0.0
 10
31.0923093075
 20
93.6069670581
 30
0.0
  0
SPLINE
  5
3BE
100
AcDbEntity
  8
0
100
AcDbSpline
 62
7
  6
CONTINUOUS
 70
0
 71
3
 72
15
 73
11
 74
0
 42
0.0000001
 43
0.0000001
 44
0.0000000001
 40
0.0
 40
0.0
 40
0.0
 40
0.0
 40
0.1247824238
 40
0.2496695611
 40
0.3747704851
 40
0.5000034127
 40
0.6252353459
 40
0.7503338755
 40
0.8752185313
 40
1.0
 40
1.0
 40
1.0
 40
1.0
 10
34.3923093075
 20
95.5848397639
 30
0.0
 10
34.3923093075
 20
95.6818905412
 30
0.0
 10
34.3531019926
 20
95.8782344907
 30
0.0
 10
34.1858275562
 20
96.1258421993
 30
0.0
 10
33.93623251
 20
96.2912527075
 30
0.0
 10
33.6423017979
 20
96.349130308
 30
0.0
 10
33.3483742526
 20
96.2912471098
 30
0.0
 10
33.0987858652
 20
96.1258356622
 30
0.0
 10
32.931515652
 20
95.8782310761
 30
0.0
 10
32.8923093075
 20
95.6818897983
 30
0.0
 10
32.8923093075
 20
95.5848397639
 30
0.0
  0
SPLINE
  5
3BF
100
AcDbEntity
  8
0
100
AcDbSpline
 62
7
  6
CONTINUOUS
 70
0
 71
3
 72
15
 73
11
 74
0
 42
0.0000001
 43
0.0000001
 44
0.0000000001
 40
0.0
 40
0.0
 40
0.0
 40
0.0
 40
0.1247824238
 40
0.2496695611
 40
0.3747704851
 40
0.5000034127
 40
0.6252353459
 40
0.7503338755
 40
0.8752185313
 40
1.0
 40
1.0
 40
1.0
 40
1.0
 10
36.0923093075
 20
93.6069670581
 30
0.0
 10
36.0923093075
 20
93.7040178354
 30
0.0
 10
36.0531019926
 20
93.900361785
 30
0.0
 10
35.8858275562
 20
94.1479694936
 30
0.0
 10
35.63623251
 20
94.3133800017
 30
0.0
 10
35.3423017979
 20
94.3712576023
 30
0.0
 10
35.0483742526
 20
94.313374404
 30
0.0
 10
34.7987858652
 20
94.1479629564
 30
0.0
 10
34.631515652
 20
93.9003583704
 30
0.0
 10
34.5923093075
 20
93.7040170926
 30
0.0
 10
34.5923093075
 20
93.6069670581
 30
0.0
  0
SPLINE
  5
3C0
100
AcDbEntity
  8
0
100
AcDbSpline
 62
7
  6
CONTINUOUS
 70
0
 71
3
 72
15
 73
11
 74
0
 42
0.0000001
 43
0.0000001
 44
0.0000000001
 40
0.0
 40
0.0
 40
0.0
 40
0.0
 40
0.1247824238
 40
0.2496695611
 40
0.3747704851
 40
0.5000034127
 40
0.6252353459
 40
0.7503338755
 40
0.8752185313
 40
1.0
 40
1.0
 40
1.0
 40
1.0
 10
37.8923093075
 20
91.6290943524
 30
0.0
 10
37.8923093075
 20
91.7261451297
 30
0.0
 10
37.8531019926
 20
91.9224890792
 30
0.0
 10
37.6858275562
 20
92.1700967878
 30
0.0
 10
37.43623251
 20
92.335507296
 30
0.0
 10
37.1423017979
 20
92.3933848965
 30
0.0
 10
36.8483742526
 20
92.3355016983
 30
0.0
 10
36.5987858652
 20
92.1700902507
 30
0.0
 10
36.431515652
 20
91.9224856647
 30
0.0
 10
36.3923093075
 20
91.7261443868
 30
0.0
 10
36.3923093075
 20
91.6290943524
 30
0.0
  0
SPLINE
  5
3C1
100
AcDbEntity
  8
0
100
AcDbSpline
 62
7
  6
CONTINUOUS
 70
0
 71
3
 72
15
 73
11
 74
0
 42
0.0000001
 43
0.0000001
 44
0.0000000001
 40
0.0
 40
0.0
 40
0.0
 40
0.0
 40
0.1247824238
 40
0.2496695611
 40
0.3747704851
 40
0.5000034127
 40
0.6252353459
 40
0.7503338755
 40
0.8752185313
 40
1.0
 40
1.0
 40
1.0
 40
1.0
 10
37.8923093075
 20
95.5848397639
 30
0.0
 10
37.8923093075
 20
95.6818905412
 30
0.0
 10
37.8531019926
 20
95.8782344907
 30
0.0
 10
37.6858275562
 20
96.1258421993
 30
0.0
 10
37.43623251
 20
96.2912527075
 30
0.0
 10
37.1423017979
 20
96.349130308
 30
0.0
 10
36.8483742526
 20
96.2912471098
 30
0.0
 10
36.5987858652
 20
96.1258356622
 30
0.0
 10
36.431515652
 20
95.8782310761
 30
0.0
 10
36.3923093075
 20
95.6818897983
 30
0.0
 10
36.3923093075
 20
95.5848397639
 30
0.0
  0
SPLINE
  5
3C2
100
AcDbEntity
  8
0
100
AcDbSpline
 62
7
  6
CONTINUOUS
 70
0
 71
3
 72
15
 73
11
 74
0
 42
0.0000001
 43
0.0000001
 44
0.0000000001
 40
0.0
 40
0.0
 40
0.0
 40
0.0
 40
0.1247824238
 40
0.2496695611
 40
0.3747704851
 40
0.5000034127
 40
0.6252353459
 40
0.7503338755
 40
0.8752185313
 40
1.0
 40
1.0
 40
1.0
 40
1.0
 10
41.3923093075
 20
95.5848397639
 30
0.0
 10
41.3923093075
 20
95.6818905412
 30
0.0
 10
41.3531019926
 20
95.8782344907
 30
0.0
 10
41.1858275562
 20
96.1258421993
 30
0.0
 10
40.93623251
 20
96.2912527075
 30
0.0
 10
40.6423017979
 20
96.349130308
 30
0.0
 10
40.3483742526
 20
96.2912471098
 30
0.0
 10
40.0987858652
 20
96.1258356622
 30
0.0
 10
39.931515652
 20
95.8782310761
 30
0.0
 10
39.8923093075
 20
95.6818897983
 30
0.0
 10
39.8923093075
 20
95.5848397639
 30
0.0
  0
SPLINE
  5
3C3
100
AcDbEntity
  8
0
100
AcDbSpline
 62
7
  6
CONTINUOUS
 70
0
 71
3
 72
15
 73
11
 74
0
 42
0.0000001
 43
0.0000001
 44
0.0000000001
 40
0.0
 40
0.0
 40
0.0
 40
0.0
 40
0.1247824238
 40
0.2496695611
 40
0.3747704851
 40
0.5000034127
 40
0.6252353459
 40
0.7503338755
 40
0.8752185313
 40
1.0
 40
1.0
 40
1.0
 40
1.0
 10
39.5923093075
 20
93.6069670581
 30
0.0
 10
39.5923093075
 20
93.7040178354
 30
0.0
 10
39.5531019926
 20
93.900361785
 30
0.0
 10
39.3858275562
 20
94.1479694936
 30
0.0
 10
39.13623251
 20
94.3133800017
 30
0.0
 10
38.8423017979
 20
94.3712576023
 30
0.0
 10
38.5483742526
 20
94.313374404
 30
0.0
 10
38.2987858652
 20
94.1479629564
 30
0.0
 10
38.131515652
 20
93.9003583704
 30
0.0
 10
38.0923093075
 20
93.7040170926
 30
0.0
 10
38.0923093075
 20
93.6069670581
 30
0.0
  0
SPLINE
  5
3C4
100
AcDbEntity
  8
0
100
AcDbSpline
 62
7
  6
CONTINUOUS
 70
0
 71
3
 72
15
 73
11
 74
0
 42
0.0000001
 43
0.0000001
 44
0.0000000001
 40
0.0
 40
0.0
 40
0.0
 40
0.0
 40
0.1247824238
 40
0.2496695611
 40
0.3747704851
 40
0.5000034127
 40
0.6252353459
 40
0.7503338755
 40
0.8752185313
 40
1.0
 40
1.0
 40
1.0
 40
1.0
 10
41.3923093075
 20
91.6290943524
 30
0.0
 10
41.3923093075
 20
91.7261451297
 30
0.0
 10
41.3531019926
 20
91.9224890792
 30
0.0
 10
41.1858275562
 20
92.1700967878
 30
0.0
 10
40.93623251
 20
92.335507296
 30
0.0
 10
40.6423017979
 20
92.3933848965
 30
0.0
 10
40.3483742526
 20
92.3355016983
 30
0.0
 10
40.0987858652
 20
92.1700902507
 30
0.0
 10
39.931515652
 20
91.9224856647
 30
0.0
 10
39.8923093075
 20
91.7261443868
 30
0.0
 10
39.8923093075
 20
91.6290943524
 30
0.0
  0
SPLINE
  5
3C5
100
AcDbEntity
  8
0
100
AcDbSpline
 62
7
  6
CONTINUOUS
 70
0
 71
3
 72
15
 73
11
 74
0
 42
0.0000001
 43
0.0000001
 44
0.0000000001
 40
0.0
 40
0.0
 40
0.0
 40
0.0
 40
0.1247824238
 40
0.2496695611
 40
0.3747704851
 40
0.5000034127
 40
0.6252353459
 40
0.7503338755
 40
0.8752185313
 40
1.0
 40
1.0
 40
1.0
 40
1.0
 10
43.0923093075
 20
93.6069670581
 30
0.0
 10
43.0923093075
 20
93.7040178354
 30
0.0
 10
43.0531019926
 20
93.900361785
 30
0.0
 10
42.8858275562
 20
94.1479694936
 30
0.0
 10
42.63623251
 20
94.3133800017
 30
0.0
 10
42.3423017979
 20
94.3712576023
 30
0.0
 10
42.0483742526
 20
94.313374404
 30
0.0
 10
41.7987858652
 20
94.1479629564
 30
0.0
 10
41.631515652
 20
93.9003583704
 30
0.0
 10
41.5923093075
 20
93.7040170926
 30
0.0
 10
41.5923093075
 20
93.6069670581
 30
0.0
  0
SPLINE
  5
3C6
100
AcDbEntity
  8
0
100
AcDbSpline
 62
7
  6
CONTINUOUS
 70
0
 71
3
 72
15
 73
11
 74
0
 42
0.0000001
 43
0.0000001
 44
0.0000000001
 40
0.0
 40
0.0
 40
0.0
 40
0.0
 40
0.1247824238
 40
0.2496695611
 40
0.3747704851
 40
0.5000034127
 40
0.6252353459
 40
0.7503338755
 40
0.8752185313
 40
1.0
 40
1.0
 40
1.0
 40
1.0
 10
44.8923093075
 20
95.5848397639
 30
0.0
 10
44.8923093075
 20
95.6818905412
 30
0.0
 10
44.8531019926
 20
95.8782344907
 30
0.0
 10
44.6858275562
 20
96.1258421993
 30
0.0
 10
44.43623251
 20
96.2912527075
 30
0.0
 10
44.1423017979
 20
96.349130308
 30
0.0
 10
43.8483742526
 20
96.2912471098
 30
0.0
 10
43.5987858652
 20
96.1258356622
 30
0.0
 10
43.431515652
 20
95.8782310761
 30
0.0
 10
43.3923093075
 20
95.6818897983
 30
0.0
 10
43.3923093075
 20
95.5848397639
 30
0.0
  0
SPLINE
  5
3C7
100
AcDbEntity
  8
0
100
AcDbSpline
 62
7
  6
CONTINUOUS
 70
0
 71
3
 72
15
 73
11
 74
0
 42
0.0000001
 43
0.0000001
 44
0.0000000001
 40
0.0
 40
0.0
 40
0.0
 40
0.0
 40
0.1247824238
 40
0.2496695611
 40
0.3747704851
 40
0.5000034127
 40
0.6252353459
 40
0.7503338755
 40
0.8752185313
 40
1.0
 40
1.0
 40
1.0
 40
1.0
 10
44.8923093075
 20
91.6290943524
 30
0.0
 10
44.8923093075
 20
91.7261451297
 30
0.0
 10
44.8531019926
 20
91.9224890792
 30
0.0
 10
44.6858275562
 20
92.1700967878
 30
0.0
 10
44.43623251
 20
92.335507296
 30
0.0
 10
44.1423017979
 20
92.3933848965
 30
0.0
 10
43.8483742526
 20
92.3355016983
 30
0.0
 10
43.5987858652
 20
92.1700902507
 30
0.0
 10
43.431515652
 20
91.9224856647
 30
0.0
 10
43.3923093075
 20
91.7261443868
 30
0.0
 10
43.3923093075
 20
91.6290943524
 30
0.0
  0
SPLINE
  5
3C8
100
AcDbEntity
  8
0
100
AcDbSpline
 62
7
  6
CONTINUOUS
 70
0
 71
3
 72
15
 73
11
 74
0
 42
0.0000001
 43
0.0000001
 44
0.0000000001
 40
0.0
 40
0.0
 40
0.0
 40
0.0
 40
0.1247824238
 40
0.2496695611
 40
0.3747704851
 40
0.5000034127
 40
0.6252353459
 40
0.7503338755
 40
0.8752185313
 40
1.0
 40
1.0
 40
1.0
 40
1.0
 10
46.5923093075
 20
93.6069670581
 30
0.0
 10
46.5923093075
 20
93.7040178354
 30
0.0
 10
46.5531019926
 20
93.900361785
 30
0.0
 10
46.3858275562
 20
94.1479694936
 30
0.0
 10
46.13623251
 20
94.3133800017
 30
0.0
 10
45.8423017979
 20
94.3712576023
 30
0.0
 10
45.5483742526
 20
94.313374404
 30
0.0
 10
45.2987858652
 20
94.1479629564
 30
0.0
 10
45.131515652
 20
93.9003583704
 30
0.0
 10
45.0923093075
 20
93.7040170926
 30
0.0
 10
45.0923093075
 20
93.6069670581
 30
0.0
  0
SPLINE
  5
3C9
100
AcDbEntity
  8
0
100
AcDbSpline
 62
7
  6
CONTINUOUS
 70
0
 71
3
 72
15
 73
11
 74
0
 42
0.0000001
 43
0.0000001
 44
0.0000000001
 40
0.0
 40
0.0
 40
0.0
 40
0.0
 40
0.1247824238
 40
0.2496695611
 40
0.3747704851
 40
0.5000034127
 40
0.6252353459
 40
0.7503338755
 40
0.8752185313
 40
1.0
 40
1.0
 40
1.0
 40
1.0
 10
48.3923093075
 20
91.6290943524
 30
0.0
 10
48.3923093075
 20
91.7261451297
 30
0.0
 10
48.3531019926
 20
91.9224890792
 30
0.0
 10
48.1858275562
 20
92.1700967878
 30
0.0
 10
47.93623251
 20
92.335507296
 30
0.0
 10
47.6423017979
 20
92.3933848965
 30
0.0
 10
47.3483742526
 20
92.3355016983
 30
0.0
 10
47.0987858652
 20
92.1700902507
 30
0.0
 10
46.931515652
 20
91.9224856647
 30
0.0
 10
46.8923093075
 20
91.7261443868
 30
0.0
 10
46.8923093075
 20
91.6290943524
 30
0.0
  0
SPLINE
  5
3CA
100
AcDbEntity
  8
0
100
AcDbSpline
 62
7
  6
CONTINUOUS
 70
0
 71
3
 72
13
 73
9
 74
0
 42
0.0000001
 43
0.0000001
 44
0.0000000001
 40
0.0
 40
0.0
 40
0.0
 40
0.0
 40
0.1259849951
 40
0.2518586019
 40
0.5017348499
 40
0.7506268984
 40
0.8753593652
 40
1.0
 40
1.0
 40
1.0
 40
1.0
 10
31.8423093075
 20
97.2623902801
 30
0.0
 10
31.6413988246
 20
97.2623527455
 30
0.0
 10
31.2385400541
 20
97.2212959028
 30
0.0
 10
30.4700702732
 20
96.98356206
 30
0.0
 10
29.6242315792
 20
96.4054858675
 30
0.0
 10
29.0681387479
 20
95.5485860254
 30
0.0
 10
28.8435700349
 20
94.782346522
 30
0.0
 10
28.8057344261
 20
94.3834480453
 30
0.0
 10
28.8062215602
 20
94.1846820308
 30
0.0
  0
SPLINE
  5
3CB
100
AcDbEntity
  8
0
100
AcDbSpline
 62
7
  6
CONTINUOUS
 70
0
 71
3
 72
15
 73
11
 74
0
 42
0.0000001
 43
0.0000001
 44
0.0000000001
 40
0.0
 40
0.0
 40
0.0
 40
0.0
 40
0.1243686146
 40
0.2488579435
 40
0.3734267849
 40
0.49827539
 40
0.6233795227
 40
0.7486916619
 40
0.8743071607
 40
1.0
 40
1.0
 40
1.0
 40
1.0
 10
48.8783970549
 20
94.1846820308
 30
0.0
 10
48.878884291
 20
94.3834896584
 30
0.0
 10
48.8411973813
 20
94.782424227
 30
0.0
 10
48.6717475903
 20
95.3584825651
 30
0.0
 10
48.3940351786
 20
95.8920768996
 30
0.0
 10
48.0174585495
 20
96.3624067905
 30
0.0
 10
47.5554678482
 20
96.751111887
 30
0.0
 10
47.0247341575
 20
97.0418627207
 30
0.0
 10
46.4460800268
 20
97.221438475
 30
0.0
 10
46.0432343552
 20
97.2623527427
 30
0.0
 10
45.8423093075
 20
97.2623902801
 30
0.0
  0
SPLINE
  5
3CC
100
AcDbEntity
  8
0
100
AcDbSpline
 62
7
  6
CONTINUOUS
 70
0
 71
3
 72
9
 73
5
 74
0
 42
0.0000001
 43
0.0000001
 44
0.0000000001
 40
0.0
 40
0.0
 40
0.0
 40
0.0
 40
0.4840822935
 40
1.0
 40
1.0
 40
1.0
 40
1.0
 10
44.2515723374
 20
20.5921919436
 30
0.0
 10
44.239350959
 20
20.4874783907
 30
0.0
 10
44.1812191744
 20
20.2736781285
 30
0.0
 10
44.0566575321
 20
20.0889490528
 30
0.0
 10
43.9786065637
 20
20.0081266783
 30
0.0
  0
SPLINE
  5
3CD
100
AcDbEntity
  8
0
100
AcDbSpline
 62
7
  6
CONTINUOUS
 70
0
 71
3
 72
9
 73
5
 74
0
 42
0.0000001
 43
0.0000001
 44
0.0000000001
 40
0.0
 40
0.0
 40
0.0
 40
0.0
 40
0.5211201854
 40
1.0
 40
1.0
 40
1.0
 40
1.0
 10
43.9786063929
 20
20.0081264593
 30
0.0
 10
43.8880393345
 20
19.9143435779
 30
0.0
 10
43.6777594044
 20
19.7657491377
 30
0.0
 10
43.4274975352
 20
19.7077210738
 30
0.0
 10
43.3077685519
 20
19.7033942217
 30
0.0
  0
SPLINE
  5
3CE
100
AcDbEntity
  8
0
100
AcDbSpline
 62
7
  6
CONTINUOUS
 70
0
 71
3
 72
9
 73
5
 74
0
 42
0.0000001
 43
0.0000001
 44
0.0000000001
 40
0.0
 40
0.0
 40
0.0
 40
0.0
 40
0.2508559883
 40
1.0
 40
1.0
 40
1.0
 40
1.0
 10
44.2514923866
 20
20.5924961194
 30
0.0
 10
44.253909939
 20
20.6047715828
 30
0.0
 10
44.2628325038
 20
20.6538448208
 30
0.0
 10
44.2675896444
 20
20.7036667823
 30
0.0
 10
44.2689390147
 20
20.7410054131
 30
0.0
  0
SPLINE
  5
3CF
100
AcDbEntity
  8
0
100
AcDbSpline
 62
7
  6
CONTINUOUS
 70
0
 71
3
 72
9
 73
5
 74
0
 42
0.0000001
 43
0.0000001
 44
0.0000000001
 40
0.0
 40
0.0
 40
0.0
 40
0.0
 40
0.4788816836
 40
1.0
 40
1.0
 40
1.0
 40
1.0
 10
43.3077685519
 20
58.6330943646
 30
0.0
 10
43.4274979973
 20
58.6287674959
 30
0.0
 10
43.6777598245
 20
58.5707390704
 30
0.0
 10
43.8880396606
 20
58.4221446701
 30
0.0
 10
43.9786063906
 20
58.3283621294
 30
0.0
  0
SPLINE
  5
3D0
100
AcDbEntity
  8
0
100
AcDbSpline
 62
7
  6
CONTINUOUS
 70
0
 71
3
 72
9
 73
5
 74
0
 42
0.0000001
 43
0.0000001
 44
0.0000000001
 40
0.0
 40
0.0
 40
0.0
 40
0.0
 40
0.5159224648
 40
1.0
 40
1.0
 40
1.0
 40
1.0
 10
43.9786065636
 20
58.3283619081
 30
0.0
 10
44.056658238
 20
58.2475388031
 30
0.0
 10
44.1812196456
 20
58.0628095027
 30
0.0
 10
44.2393511934
 20
57.8490093089
 30
0.0
 10
44.2515724242
 20
57.7442968012
 30
0.0
  0
SPLINE
  5
3D1
100
AcDbEntity
  8
0
100
AcDbSpline
 62
7
  6
CONTINUOUS
 70
0
 71
3
 72
15
 73
11
 74
0
 42
0.0000001
 43
0.0000001
 44
0.0000000001
 40
0.0
 40
0.0
 40
0.0
 40
0.0
 40
0.1243646944
 40
0.2490921759
 40
0.3743438294
 40
0.4999839329
 40
0.6256227603
 40
0.7508820508
 40
0.8756278508
 40
1.0
 40
1.0
 40
1.0
 40
1.0
 10
29.6923193642
 20
91.6735964883
 30
0.0
 10
29.6923193642
 20
91.6156907114
 30
0.0
 10
29.7158457298
 20
91.4984221027
 30
0.0
 10
29.816120573
 20
91.3505113027
 30
0.0
 10
29.965878096
 20
91.251671791
 30
0.0
 10
30.1422848784
 20
91.2170462406
 30
0.0
 10
30.3186977675
 20
91.2516558146
 30
0.0
 10
30.4684764114
 20
91.3504859659
 30
0.0
 10
30.5687672994
 20
91.4984069207
 30
0.0
 10
30.5922992509
 20
91.6156872404
 30
0.0
 10
30.5922992509
 20
91.6735964883
 30
0.0
  0
SPLINE
  5
3D2
100
AcDbEntity
  8
0
100
AcDbSpline
 62
7
  6
CONTINUOUS
 70
0
 71
3
 72
11
 73
7
 74
0
 42
0.0000001
 43
0.0000001
 44
0.0000000001
 40
0.0
 40
0.0
 40
0.0
 40
0.0
 40
0.2487367796
 40
0.4981831298
 40
0.7486935442
 40
1.0
 40
1.0
 40
1.0
 40
1.0
 10
30.5922992509
 20
91.6735964883
 30
0.0
 10
30.5922992509
 20
91.731504128
 30
0.0
 10
30.5687800374
 20
91.8487720198
 30
0.0
 10
30.4684465306
 20
91.9966829826
 30
0.0
 10
30.3189001508
 20
92.0955284529
 30
0.0
 10
30.2008151856
 20
92.1186079017
 30
0.0
 10
30.1423093075
 20
92.1186079017
 30
0.0
  0
SPLINE
  5
3D3
100
AcDbEntity
  8
0
100
AcDbSpline
 62
7
  6
CONTINUOUS
 70
0
 71
3
 72
11
 73
7
 74
0
 42
0.0000001
 43
0.0000001
 44
0.0000000001
 40
0.0
 40
0.0
 40
0.0
 40
0.0
 40
0.2513064558
 40
0.5018168702
 40
0.7512632204
 40
1.0
 40
1.0
 40
1.0
 40
1.0
 10
30.1423093075
 20
92.1186079017
 30
0.0
 10
30.0838034294
 20
92.1186079017
 30
0.0
 10
29.9657184642
 20
92.0955284529
 30
0.0
 10
29.8161720845
 20
91.9966829826
 30
0.0
 10
29.7158385776
 20
91.8487720198
 30
0.0
 10
29.6923193642
 20
91.731504128
 30
0.0
 10
29.6923193642
 20
91.6735964883
 30
0.0
  0
SPLINE
  5
3D4
100
AcDbEntity
  8
0
100
AcDbSpline
 62
7
  6
CONTINUOUS
 70
0
 71
3
 72
15
 73
11
 74
0
 42
0.0000001
 43
0.0000001
 44
0.0000000001
 40
0.0
 40
0.0
 40
0.0
 40
0.0
 40
0.1243646944
 40
0.2490921759
 40
0.3743438294
 40
0.4999839329
 40
0.6256227603
 40
0.7508820508
 40
0.8756278508
 40
1.0
 40
1.0
 40
1.0
 40
1.0
 10
33.1923193642
 20
91.6735964883
 30
0.0
 10
33.1923193642
 20
91.6156907114
 30
0.0
 10
33.2158457298
 20
91.4984221027
 30
0.0
 10
33.316120573
 20
91.3505113027
 30
0.0
 10
33.465878096
 20
91.251671791
 30
0.0
 10
33.6422848784
 20
91.2170462406
 30
0.0
 10
33.8186977675
 20
91.2516558146
 30
0.0
 10
33.9684764114
 20
91.3504859659
 30
0.0
 10
34.0687672994
 20
91.4984069207
 30
0.0
 10
34.0922992509
 20
91.6156872404
 30
0.0
 10
34.0922992509
 20
91.6735964883
 30
0.0
  0
SPLINE
  5
3D5
100
AcDbEntity
  8
0
100
AcDbSpline
 62
7
  6
CONTINUOUS
 70
0
 71
3
 72
11
 73
7
 74
0
 42
0.0000001
 43
0.0000001
 44
0.0000000001
 40
0.0
 40
0.0
 40
0.0
 40
0.0
 40
0.2487367796
 40
0.4981831298
 40
0.7486935442
 40
1.0
 40
1.0
 40
1.0
 40
1.0
 10
34.0922992509
 20
91.6735964883
 30
0.0
 10
34.0922992509
 20
91.731504128
 30
0.0
 10
34.0687800374
 20
91.8487720198
 30
0.0
 10
33.9684465306
 20
91.9966829826
 30
0.0
 10
33.8189001508
 20
92.0955284529
 30
0.0
 10
33.7008151856
 20
92.1186079017
 30
0.0
 10
33.6423093075
 20
92.1186079017
 30
0.0
  0
SPLINE
  5
3D6
100
AcDbEntity
  8
0
100
AcDbSpline
 62
7
  6
CONTINUOUS
 70
0
 71
3
 72
11
 73
7
 74
0
 42
0.0000001
 43
0.0000001
 44
0.0000000001
 40
0.0
 40
0.0
 40
0.0
 40
0.0
 40
0.2513064558
 40
0.5018168702
 40
0.7512632204
 40
1.0
 40
1.0
 40
1.0
 40
1.0
 10
33.6423093075
 20
92.1186079017
 30
0.0
 10
33.5838034294
 20
92.1186079017
 30
0.0
 10
33.4657184642
 20
92.0955284529
 30
0.0
 10
33.3161720845
 20
91.9966829826
 30
0.0
 10
33.2158385776
 20
91.8487720198
 30
0.0
 10
33.1923193642
 20
91.731504128
 30
0.0
 10
33.1923193642
 20
91.6735964883
 30
0.0
  0
SPLINE
  5
3D7
100
AcDbEntity
  8
0
100
AcDbSpline
 62
7
  6
CONTINUOUS
 70
0
 71
3
 72
15
 73
11
 74
0
 42
0.0000001
 43
0.0000001
 44
0.0000000001
 40
0.0
 40
0.0
 40
0.0
 40
0.0
 40
0.1243646944
 40
0.2490921759
 40
0.3743438294
 40
0.4999839329
 40
0.6256227603
 40
0.7508820508
 40
0.8756278508
 40
1.0
 40
1.0
 40
1.0
 40
1.0
 10
31.3923193642
 20
93.651469194
 30
0.0
 10
31.3923193642
 20
93.5935634171
 30
0.0
 10
31.4158457298
 20
93.4762948084
 30
0.0
 10
31.516120573
 20
93.3283840084
 30
0.0
 10
31.665878096
 20
93.2295444967
 30
0.0
 10
31.8422848784
 20
93.1949189463
 30
0.0
 10
32.0186977675
 20
93.2295285203
 30
0.0
 10
32.1684764114
 20
93.3283586716
 30
0.0
 10
32.2687672994
 20
93.4762796264
 30
0.0
 10
32.2922992509
 20
93.5935599461
 30
0.0
 10
32.2922992509
 20
93.651469194
 30
0.0
  0
SPLINE
  5
3D8
100
AcDbEntity
  8
0
100
AcDbSpline
 62
7
  6
CONTINUOUS
 70
0
 71
3
 72
11
 73
7
 74
0
 42
0.0000001
 43
0.0000001
 44
0.0000000001
 40
0.0
 40
0.0
 40
0.0
 40
0.0
 40
0.2487367796
 40
0.4981831298
 40
0.7486935442
 40
1.0
 40
1.0
 40
1.0
 40
1.0
 10
32.2922992509
 20
93.651469194
 30
0.0
 10
32.2922992509
 20
93.7093768337
 30
0.0
 10
32.2687800374
 20
93.8266447255
 30
0.0
 10
32.1684465306
 20
93.9745556883
 30
0.0
 10
32.0189001508
 20
94.0734011586
 30
0.0
 10
31.9008151856
 20
94.0964806074
 30
0.0
 10
31.8423093075
 20
94.0964806074
 30
0.0
  0
SPLINE
  5
3D9
100
AcDbEntity
  8
0
100
AcDbSpline
 62
7
  6
CONTINUOUS
 70
0
 71
3
 72
11
 73
7
 74
0
 42
0.0000001
 43
0.0000001
 44
0.0000000001
 40
0.0
 40
0.0
 40
0.0
 40
0.0
 40
0.2513064558
 40
0.5018168702
 40
0.7512632204
 40
1.0
 40
1.0
 40
1.0
 40
1.0
 10
31.8423093075
 20
94.0964806074
 30
0.0
 10
31.7838034294
 20
94.0964806074
 30
0.0
 10
31.6657184642
 20
94.0734011586
 30
0.0
 10
31.5161720845
 20
93.9745556883
 30
0.0
 10
31.4158385776
 20
93.8266447255
 30
0.0
 10
31.3923193642
 20
93.7093768337
 30
0.0
 10
31.3923193642
 20
93.651469194
 30
0.0
  0
SPLINE
  5
3DA
100
AcDbEntity
  8
0
100
AcDbSpline
 62
7
  6
CONTINUOUS
 70
0
 71
3
 72
15
 73
11
 74
0
 42
0.0000001
 43
0.0000001
 44
0.0000000001
 40
0.0
 40
0.0
 40
0.0
 40
0.0
 40
0.1243646944
 40
0.2490921759
 40
0.3743438294
 40
0.4999839329
 40
0.6256227603
 40
0.7508820508
 40
0.8756278508
 40
1.0
 40
1.0
 40
1.0
 40
1.0
 10
33.1923193642
 20
95.6293418998
 30
0.0
 10
33.1923193642
 20
95.5714361229
 30
0.0
 10
33.2158457298
 20
95.4541675141
 30
0.0
 10
33.316120573
 20
95.3062567142
 30
0.0
 10
33.465878096
 20
95.2074172025
 30
0.0
 10
33.6422848784
 20
95.1727916521
 30
0.0
 10
33.8186977675
 20
95.2074012261
 30
0.0
 10
33.9684764114
 20
95.3062313774
 30
0.0
 10
34.0687672994
 20
95.4541523322
 30
0.0
 10
34.0922992509
 20
95.5714326518
 30
0.0
 10
34.0922992509
 20
95.6293418998
 30
0.0
  0
SPLINE
  5
3DB
100
AcDbEntity
  8
0
100
AcDbSpline
 62
7
  6
CONTINUOUS
 70
0
 71
3
 72
11
 73
7
 74
0
 42
0.0000001
 43
0.0000001
 44
0.0000000001
 40
0.0
 40
0.0
 40
0.0
 40
0.0
 40
0.2487367796
 40
0.4981831298
 40
0.7486935442
 40
1.0
 40
1.0
 40
1.0
 40
1.0
 10
34.0922992509
 20
95.6293418998
 30
0.0
 10
34.0922992509
 20
95.6872495395
 30
0.0
 10
34.0687800374
 20
95.8045174312
 30
0.0
 10
33.9684465306
 20
95.9524283941
 30
0.0
 10
33.8189001508
 20
96.0512738644
 30
0.0
 10
33.7008151856
 20
96.0743533132
 30
0.0
 10
33.6423093075
 20
96.0743533132
 30
0.0
  0
SPLINE
  5
3DC
100
AcDbEntity
  8
0
100
AcDbSpline
 62
7
  6
CONTINUOUS
 70
0
 71
3
 72
11
 73
7
 74
0
 42
0.0000001
 43
0.0000001
 44
0.0000000001
 40
0.0
 40
0.0
 40
0.0
 40
0.0
 40
0.2513064558
 40
0.5018168702
 40
0.7512632204
 40
1.0
 40
1.0
 40
1.0
 40
1.0
 10
33.6423093075
 20
96.0743533132
 30
0.0
 10
33.5838034294
 20
96.0743533132
 30
0.0
 10
33.4657184642
 20
96.0512738644
 30
0.0
 10
33.3161720845
 20
95.9524283941
 30
0.0
 10
33.2158385776
 20
95.8045174312
 30
0.0
 10
33.1923193642
 20
95.6872495395
 30
0.0
 10
33.1923193642
 20
95.6293418998
 30
0.0
  0
SPLINE
  5
3DD
100
AcDbEntity
  8
0
100
AcDbSpline
 62
7
  6
CONTINUOUS
 70
0
 71
3
 72
9
 73
5
 74
0
 42
0.0000001
 43
0.0000001
 44
0.0000000001
 40
0.0
 40
0.0
 40
0.0
 40
0.0
 40
0.4840822931
 40
1.0
 40
1.0
 40
1.0
 40
1.0
 10
33.4330462784
 20
57.7442966287
 30
0.0
 10
33.445267653
 20
57.8490101842
 30
0.0
 10
33.5033994373
 20
58.0628104518
 30
0.0
 10
33.627961081
 20
58.2475395321
 30
0.0
 10
33.7060120514
 20
58.3283619081
 30
0.0
  0
SPLINE
  5
3DE
100
AcDbEntity
  8
0
100
AcDbSpline
 62
7
  6
CONTINUOUS
 70
0
 71
3
 72
9
 73
5
 74
0
 42
0.0000001
 43
0.0000001
 44
0.0000000001
 40
0.0
 40
0.0
 40
0.0
 40
0.0
 40
0.5211201853
 40
1.0
 40
1.0
 40
1.0
 40
1.0
 10
33.7060122244
 20
58.3283621294
 30
0.0
 10
33.7965792828
 20
58.4221450101
 30
0.0
 10
34.0068592122
 20
58.5707394491
 30
0.0
 10
34.2571210803
 20
58.6287675126
 30
0.0
 10
34.3768500631
 20
58.6330943646
 30
0.0
  0
SPLINE
  5
3DF
100
AcDbEntity
  8
0
100
AcDbSpline
 62
7
  6
CONTINUOUS
 70
0
 71
3
 72
15
 73
11
 74
0
 42
0.0000001
 43
0.0000001
 44
0.0000000001
 40
0.0
 40
0.0
 40
0.0
 40
0.0
 40
0.1243646944
 40
0.2490921759
 40
0.3743438294
 40
0.4999839329
 40
0.6256227603
 40
0.7508820508
 40
0.8756278508
 40
1.0
 40
1.0
 40
1.0
 40
1.0
 10
34.8923193642
 20
93.651469194
 30
0.0
 10
34.8923193642
 20
93.5935634171
 30
0.0
 10
34.9158457298
 20
93.4762948084
 30
0.0
 10
35.016120573
 20
93.3283840084
 30
0.0
 10
35.165878096
 20
93.2295444967
 30
0.0
 10
35.3422848784
 20
93.1949189463
 30
0.0
 10
35.5186977675
 20
93.2295285203
 30
0.0
 10
35.6684764114
 20
93.3283586716
 30
0.0
 10
35.7687672994
 20
93.4762796264
 30
0.0
 10
35.7922992509
 20
93.5935599461
 30
0.0
 10
35.7922992509
 20
93.651469194
 30
0.0
  0
SPLINE
  5
3E0
100
AcDbEntity
  8
0
100
AcDbSpline
 62
7
  6
CONTINUOUS
 70
0
 71
3
 72
9
 73
5
 74
0
 42
0.0000001
 43
0.0000001
 44
0.0000000001
 40
0.0
 40
0.0
 40
0.0
 40
0.0
 40
0.7491430745
 40
1.0
 40
1.0
 40
1.0
 40
1.0
 10
33.4156796004
 20
20.7410054131
 30
0.0
 10
33.4170289671
 20
20.7036668796
 30
0.0
 10
33.4217862045
 20
20.6538449974
 30
0.0
 10
33.4307087126
 20
20.6047718191
 30
0.0
 10
33.4331262668
 20
20.5924963256
 30
0.0
  0
SPLINE
  5
3E1
100
AcDbEntity
  8
0
100
AcDbSpline
 62
7
  6
CONTINUOUS
 70
0
 71
3
 72
11
 73
7
 74
0
 42
0.0000001
 43
0.0000001
 44
0.0000000001
 40
0.0
 40
0.0
 40
0.0
 40
0.0
 40
0.2487367796
 40
0.4981831298
 40
0.7486935442
 40
1.0
 40
1.0
 40
1.0
 40
1.0
 10
35.7922992509
 20
93.651469194
 30
0.0
 10
35.7922992509
 20
93.7093768337
 30
0.0
 10
35.7687800374
 20
93.8266447255
 30
0.0
 10
35.6684465306
 20
93.9745556883
 30
0.0
 10
35.5189001508
 20
94.0734011586
 30
0.0
 10
35.4008151856
 20
94.0964806074
 30
0.0
 10
35.3423093075
 20
94.0964806074
 30
0.0
  0
SPLINE
  5
3E2
100
AcDbEntity
  8
0
100
AcDbSpline
 62
7
  6
CONTINUOUS
 70
0
 71
3
 72
11
 73
7
 74
0
 42
0.0000001
 43
0.0000001
 44
0.0000000001
 40
0.0
 40
0.0
 40
0.0
 40
0.0
 40
0.2513064558
 40
0.5018168702
 40
0.7512632204
 40
1.0
 40
1.0
 40
1.0
 40
1.0
 10
35.3423093075
 20
94.0964806074
 30
0.0
 10
35.2838034294
 20
94.0964806074
 30
0.0
 10
35.1657184642
 20
94.0734011586
 30
0.0
 10
35.0161720845
 20
93.9745556883
 30
0.0
 10
34.9158385776
 20
93.8266447255
 30
0.0
 10
34.8923193642
 20
93.7093768337
 30
0.0
 10
34.8923193642
 20
93.651469194
 30
0.0
  0
SPLINE
  5
3E3
100
AcDbEntity
  8
0
100
AcDbSpline
 62
7
  6
CONTINUOUS
 70
0
 71
3
 72
15
 73
11
 74
0
 42
0.0000001
 43
0.0000001
 44
0.0000000001
 40
0.0
 40
0.0
 40
0.0
 40
0.0
 40
0.1243646944
 40
0.2490921759
 40
0.3743438294
 40
0.4999839329
 40
0.6256227603
 40
0.7508820508
 40
0.8756278508
 40
1.0
 40
1.0
 40
1.0
 40
1.0
 10
36.6923193642
 20
91.6735964883
 30
0.0
 10
36.6923193642
 20
91.6156907114
 30
0.0
 10
36.7158457298
 20
91.4984221027
 30
0.0
 10
36.816120573
 20
91.3505113027
 30
0.0
 10
36.965878096
 20
91.251671791
 30
0.0
 10
37.1422848784
 20
91.2170462406
 30
0.0
 10
37.3186977675
 20
91.2516558146
 30
0.0
 10
37.4684764114
 20
91.3504859659
 30
0.0
 10
37.5687672994
 20
91.4984069207
 30
0.0
 10
37.5922992509
 20
91.6156872404
 30
0.0
 10
37.5922992509
 20
91.6735964883
 30
0.0
  0
SPLINE
  5
3E4
100
AcDbEntity
  8
0
100
AcDbSpline
 62
7
  6
CONTINUOUS
 70
0
 71
3
 72
11
 73
7
 74
0
 42
0.0000001
 43
0.0000001
 44
0.0000000001
 40
0.0
 40
0.0
 40
0.0
 40
0.0
 40
0.2487367796
 40
0.4981831298
 40
0.7486935442
 40
1.0
 40
1.0
 40
1.0
 40
1.0
 10
37.5922992509
 20
91.6735964883
 30
0.0
 10
37.5922992509
 20
91.731504128
 30
0.0
 10
37.5687800374
 20
91.8487720198
 30
0.0
 10
37.4684465306
 20
91.9966829826
 30
0.0
 10
37.3189001508
 20
92.0955284529
 30
0.0
 10
37.2008151856
 20
92.1186079017
 30
0.0
 10
37.1423093075
 20
92.1186079017
 30
0.0
  0
SPLINE
  5
3E5
100
AcDbEntity
  8
0
100
AcDbSpline
 62
7
  6
CONTINUOUS
 70
0
 71
3
 72
9
 73
5
 74
0
 42
0.0000001
 43
0.0000001
 44
0.0000000001
 40
0.0
 40
0.0
 40
0.0
 40
0.0
 40
0.4788816835
 40
1.0
 40
1.0
 40
1.0
 40
1.0
 10
34.3768500631
 20
19.7033942217
 30
0.0
 10
34.2571206173
 20
19.7077210905
 30
0.0
 10
34.0068587893
 20
19.7657495163
 30
0.0
 10
33.7965789527
 20
19.9143439175
 30
0.0
 10
33.7060122226
 20
20.0081264588
 30
0.0
  0
SPLINE
  5
3E6
100
AcDbEntity
  8
0
100
AcDbSpline
 62
7
  6
CONTINUOUS
 70
0
 71
3
 72
9
 73
5
 74
0
 42
0.0000001
 43
0.0000001
 44
0.0000000001
 40
0.0
 40
0.0
 40
0.0
 40
0.0
 40
0.5159224643
 40
1.0
 40
1.0
 40
1.0
 40
1.0
 10
33.7060120514
 20
20.0081266783
 30
0.0
 10
33.6279603789
 20
20.0889497818
 30
0.0
 10
33.5033989728
 20
20.2736790776
 30
0.0
 10
33.4452674247
 20
20.4874792659
 30
0.0
 10
33.4330461901
 20
20.5921917711
 30
0.0
  0
SPLINE
  5
3E7
100
AcDbEntity
  8
0
100
AcDbSpline
 62
7
  6
CONTINUOUS
 70
0
 71
3
 72
11
 73
7
 74
0
 42
0.0000001
 43
0.0000001
 44
0.0000000001
 40
0.0
 40
0.0
 40
0.0
 40
0.0
 40
0.2513064558
 40
0.5018168702
 40
0.7512632204
 40
1.0
 40
1.0
 40
1.0
 40
1.0
 10
37.1423093075
 20
92.1186079017
 30
0.0
 10
37.0838034294
 20
92.1186079017
 30
0.0
 10
36.9657184642
 20
92.0955284529
 30
0.0
 10
36.8161720845
 20
91.9966829826
 30
0.0
 10
36.7158385776
 20
91.8487720198
 30
0.0
 10
36.6923193642
 20
91.731504128
 30
0.0
 10
36.6923193642
 20
91.6735964883
 30
0.0
  0
SPLINE
  5
3E8
100
AcDbEntity
  8
0
100
AcDbSpline
 62
7
  6
CONTINUOUS
 70
0
 71
3
 72
15
 73
11
 74
0
 42
0.0000001
 43
0.0000001
 44
0.0000000001
 40
0.0
 40
0.0
 40
0.0
 40
0.0
 40
0.1243646944
 40
0.2490921759
 40
0.3743438294
 40
0.4999839329
 40
0.6256227603
 40
0.7508820508
 40
0.8756278508
 40
1.0
 40
1.0
 40
1.0
 40
1.0
 10
36.6923193642
 20
95.6293418998
 30
0.0
 10
36.6923193642
 20
95.5714361229
 30
0.0
 10
36.7158457298
 20
95.4541675141
 30
0.0
 10
36.816120573
 20
95.3062567142
 30
0.0
 10
36.965878096
 20
95.2074172025
 30
0.0
 10
37.1422848784
 20
95.1727916521
 30
0.0
 10
37.3186977675
 20
95.2074012261
 30
0.0
 10
37.4684764114
 20
95.3062313774
 30
0.0
 10
37.5687672994
 20
95.4541523322
 30
0.0
 10
37.5922992509
 20
95.5714326518
 30
0.0
 10
37.5922992509
 20
95.6293418998
 30
0.0
  0
SPLINE
  5
3E9
100
AcDbEntity
  8
0
100
AcDbSpline
 62
7
  6
CONTINUOUS
 70
0
 71
3
 72
11
 73
7
 74
0
 42
0.0000001
 43
0.0000001
 44
0.0000000001
 40
0.0
 40
0.0
 40
0.0
 40
0.0
 40
0.2487367796
 40
0.4981831298
 40
0.7486935442
 40
1.0
 40
1.0
 40
1.0
 40
1.0
 10
37.5922992509
 20
95.6293418998
 30
0.0
 10
37.5922992509
 20
95.6872495395
 30
0.0
 10
37.5687800374
 20
95.8045174312
 30
0.0
 10
37.4684465306
 20
95.9524283941
 30
0.0
 10
37.3189001508
 20
96.0512738644
 30
0.0
 10
37.2008151856
 20
96.0743533132
 30
0.0
 10
37.1423093075
 20
96.0743533132
 30
0.0
  0
SPLINE
  5
3EA
100
AcDbEntity
  8
0
100
AcDbSpline
 62
7
  6
CONTINUOUS
 70
0
 71
3
 72
11
 73
7
 74
0
 42
0.0000001
 43
0.0000001
 44
0.0000000001
 40
0.0
 40
0.0
 40
0.0
 40
0.0
 40
0.2513064558
 40
0.5018168702
 40
0.7512632204
 40
1.0
 40
1.0
 40
1.0
 40
1.0
 10
37.1423093075
 20
96.0743533132
 30
0.0
 10
37.0838034294
 20
96.0743533132
 30
0.0
 10
36.9657184642
 20
96.0512738644
 30
0.0
 10
36.8161720845
 20
95.9524283941
 30
0.0
 10
36.7158385776
 20
95.8045174312
 30
0.0
 10
36.6923193642
 20
95.6872495395
 30
0.0
 10
36.6923193642
 20
95.6293418998
 30
0.0
  0
SPLINE
  5
3EB
100
AcDbEntity
  8
0
100
AcDbSpline
 62
7
  6
CONTINUOUS
 70
0
 71
3
 72
15
 73
11
 74
0
 42
0.0000001
 43
0.0000001
 44
0.0000000001
 40
0.0
 40
0.0
 40
0.0
 40
0.0
 40
0.1243646944
 40
0.2490921759
 40
0.3743438294
 40
0.4999839329
 40
0.6256227603
 40
0.7508820508
 40
0.8756278508
 40
1.0
 40
1.0
 40
1.0
 40
1.0
 10
40.1923193642
 20
95.6293418998
 30
0.0
 10
40.1923193642
 20
95.5714361229
 30
0.0
 10
40.2158457298
 20
95.4541675141
 30
0.0
 10
40.316120573
 20
95.3062567142
 30
0.0
 10
40.465878096
 20
95.2074172025
 30
0.0
 10
40.6422848784
 20
95.1727916521
 30
0.0
 10
40.8186977675
 20
95.2074012261
 30
0.0
 10
40.9684764114
 20
95.3062313774
 30
0.0
 10
41.0687672994
 20
95.4541523322
 30
0.0
 10
41.0922992509
 20
95.5714326518
 30
0.0
 10
41.0922992509
 20
95.6293418998
 30
0.0
  0
SPLINE
  5
3EC
100
AcDbEntity
  8
0
100
AcDbSpline
 62
7
  6
CONTINUOUS
 70
0
 71
3
 72
11
 73
7
 74
0
 42
0.0000001
 43
0.0000001
 44
0.0000000001
 40
0.0
 40
0.0
 40
0.0
 40
0.0
 40
0.2487367796
 40
0.4981831298
 40
0.7486935442
 40
1.0
 40
1.0
 40
1.0
 40
1.0
 10
41.0922992509
 20
95.6293418998
 30
0.0
 10
41.0922992509
 20
95.6872495395
 30
0.0
 10
41.0687800374
 20
95.8045174312
 30
0.0
 10
40.9684465306
 20
95.9524283941
 30
0.0
 10
40.8189001508
 20
96.0512738644
 30
0.0
 10
40.7008151856
 20
96.0743533132
 30
0.0
 10
40.6423093075
 20
96.0743533132
 30
0.0
  0
SPLINE
  5
3ED
100
AcDbEntity
  8
0
100
AcDbSpline
 62
7
  6
CONTINUOUS
 70
0
 71
3
 72
11
 73
7
 74
0
 42
0.0000001
 43
0.0000001
 44
0.0000000001
 40
0.0
 40
0.0
 40
0.0
 40
0.0
 40
0.2513064558
 40
0.5018168702
 40
0.7512632204
 40
1.0
 40
1.0
 40
1.0
 40
1.0
 10
40.6423093075
 20
96.0743533132
 30
0.0
 10
40.5838034294
 20
96.0743533132
 30
0.0
 10
40.4657184642
 20
96.0512738644
 30
0.0
 10
40.3161720845
 20
95.9524283941
 30
0.0
 10
40.2158385776
 20
95.8045174312
 30
0.0
 10
40.1923193642
 20
95.6872495395
 30
0.0
 10
40.1923193642
 20
95.6293418998
 30
0.0
  0
SPLINE
  5
3EE
100
AcDbEntity
  8
0
100
AcDbSpline
 62
7
  6
CONTINUOUS
 70
0
 71
3
 72
15
 73
11
 74
0
 42
0.0000001
 43
0.0000001
 44
0.0000000001
 40
0.0
 40
0.0
 40
0.0
 40
0.0
 40
0.1243646944
 40
0.2490921759
 40
0.3743438294
 40
0.4999839329
 40
0.6256227603
 40
0.7508820508
 40
0.8756278508
 40
1.0
 40
1.0
 40
1.0
 40
1.0
 10
38.3923193642
 20
93.651469194
 30
0.0
 10
38.3923193642
 20
93.5935634171
 30
0.0
 10
38.4158457298
 20
93.4762948084
 30
0.0
 10
38.516120573
 20
93.3283840084
 30
0.0
 10
38.665878096
 20
93.2295444967
 30
0.0
 10
38.8422848784
 20
93.1949189463
 30
0.0
 10
39.0186977675
 20
93.2295285203
 30
0.0
 10
39.1684764114
 20
93.3283586716
 30
0.0
 10
39.2687672994
 20
93.4762796264
 30
0.0
 10
39.2922992509
 20
93.5935599461
 30
0.0
 10
39.2922992509
 20
93.651469194
 30
0.0
  0
SPLINE
  5
3EF
100
AcDbEntity
  8
0
100
AcDbSpline
 62
7
  6
CONTINUOUS
 70
0
 71
3
 72
11
 73
7
 74
0
 42
0.0000001
 43
0.0000001
 44
0.0000000001
 40
0.0
 40
0.0
 40
0.0
 40
0.0
 40
0.2487367796
 40
0.4981831298
 40
0.7486935442
 40
1.0
 40
1.0
 40
1.0
 40
1.0
 10
39.2922992509
 20
93.651469194
 30
0.0
 10
39.2922992509
 20
93.7093768337
 30
0.0
 10
39.2687800374
 20
93.8266447255
 30
0.0
 10
39.1684465306
 20
93.9745556883
 30
0.0
 10
39.0189001508
 20
94.0734011586
 30
0.0
 10
38.9008151856
 20
94.0964806074
 30
0.0
 10
38.8423093075
 20
94.0964806074
 30
0.0
  0
SPLINE
  5
3F0
100
AcDbEntity
  8
0
100
AcDbSpline
 62
7
  6
CONTINUOUS
 70
0
 71
3
 72
11
 73
7
 74
0
 42
0.0000001
 43
0.0000001
 44
0.0000000001
 40
0.0
 40
0.0
 40
0.0
 40
0.0
 40
0.2513064558
 40
0.5018168702
 40
0.7512632204
 40
1.0
 40
1.0
 40
1.0
 40
1.0
 10
38.8423093075
 20
94.0964806074
 30
0.0
 10
38.7838034294
 20
94.0964806074
 30
0.0
 10
38.6657184642
 20
94.0734011586
 30
0.0
 10
38.5161720845
 20
93.9745556883
 30
0.0
 10
38.4158385776
 20
93.8266447255
 30
0.0
 10
38.3923193642
 20
93.7093768337
 30
0.0
 10
38.3923193642
 20
93.651469194
 30
0.0
  0
SPLINE
  5
3F1
100
AcDbEntity
  8
0
100
AcDbSpline
 62
7
  6
CONTINUOUS
 70
0
 71
3
 72
15
 73
11
 74
0
 42
0.0000001
 43
0.0000001
 44
0.0000000001
 40
0.0
 40
0.0
 40
0.0
 40
0.0
 40
0.1243646944
 40
0.2490921759
 40
0.3743438294
 40
0.4999839329
 40
0.6256227603
 40
0.7508820508
 40
0.8756278508
 40
1.0
 40
1.0
 40
1.0
 40
1.0
 10
40.1923193642
 20
91.6735964883
 30
0.0
 10
40.1923193642
 20
91.6156907114
 30
0.0
 10
40.2158457298
 20
91.4984221027
 30
0.0
 10
40.316120573
 20
91.3505113027
 30
0.0
 10
40.465878096
 20
91.251671791
 30
0.0
 10
40.6422848784
 20
91.2170462406
 30
0.0
 10
40.8186977675
 20
91.2516558146
 30
0.0
 10
40.9684764114
 20
91.3504859659
 30
0.0
 10
41.0687672994
 20
91.4984069207
 30
0.0
 10
41.0922992509
 20
91.6156872404
 30
0.0
 10
41.0922992509
 20
91.6735964883
 30
0.0
  0
SPLINE
  5
3F2
100
AcDbEntity
  8
0
100
AcDbSpline
 62
7
  6
CONTINUOUS
 70
0
 71
3
 72
11
 73
7
 74
0
 42
0.0000001
 43
0.0000001
 44
0.0000000001
 40
0.0
 40
0.0
 40
0.0
 40
0.0
 40
0.2487367796
 40
0.4981831298
 40
0.7486935442
 40
1.0
 40
1.0
 40
1.0
 40
1.0
 10
41.0922992509
 20
91.6735964883
 30
0.0
 10
41.0922992509
 20
91.731504128
 30
0.0
 10
41.0687800374
 20
91.8487720198
 30
0.0
 10
40.9684465306
 20
91.9966829826
 30
0.0
 10
40.8189001508
 20
92.0955284529
 30
0.0
 10
40.7008151856
 20
92.1186079017
 30
0.0
 10
40.6423093075
 20
92.1186079017
 30
0.0
  0
SPLINE
  5
3F3
100
AcDbEntity
  8
0
100
AcDbSpline
 62
7
  6
CONTINUOUS
 70
0
 71
3
 72
11
 73
7
 74
0
 42
0.0000001
 43
0.0000001
 44
0.0000000001
 40
0.0
 40
0.0
 40
0.0
 40
0.0
 40
0.2513064558
 40
0.5018168702
 40
0.7512632204
 40
1.0
 40
1.0
 40
1.0
 40
1.0
 10
40.6423093075
 20
92.1186079017
 30
0.0
 10
40.5838034294
 20
92.1186079017
 30
0.0
 10
40.4657184642
 20
92.0955284529
 30
0.0
 10
40.3161720845
 20
91.9966829826
 30
0.0
 10
40.2158385776
 20
91.8487720198
 30
0.0
 10
40.1923193642
 20
91.731504128
 30
0.0
 10
40.1923193642
 20
91.6735964883
 30
0.0
  0
SPLINE
  5
3F4
100
AcDbEntity
  8
0
100
AcDbSpline
 62
7
  6
CONTINUOUS
 70
0
 71
3
 72
15
 73
11
 74
0
 42
0.0000001
 43
0.0000001
 44
0.0000000001
 40
0.0
 40
0.0
 40
0.0
 40
0.0
 40
0.1243646944
 40
0.2490921759
 40
0.3743438294
 40
0.4999839329
 40
0.6256227603
 40
0.7508820508
 40
0.8756278508
 40
1.0
 40
1.0
 40
1.0
 40
1.0
 10
41.8923193642
 20
93.651469194
 30
0.0
 10
41.8923193642
 20
93.5935634171
 30
0.0
 10
41.9158457298
 20
93.4762948084
 30
0.0
 10
42.016120573
 20
93.3283840084
 30
0.0
 10
42.165878096
 20
93.2295444967
 30
0.0
 10
42.3422848784
 20
93.1949189463
 30
0.0
 10
42.5186977675
 20
93.2295285203
 30
0.0
 10
42.6684764114
 20
93.3283586716
 30
0.0
 10
42.7687672994
 20
93.4762796264
 30
0.0
 10
42.7922992509
 20
93.5935599461
 30
0.0
 10
42.7922992509
 20
93.651469194
 30
0.0
  0
SPLINE
  5
3F5
100
AcDbEntity
  8
0
100
AcDbSpline
 62
7
  6
CONTINUOUS
 70
0
 71
3
 72
11
 73
7
 74
0
 42
0.0000001
 43
0.0000001
 44
0.0000000001
 40
0.0
 40
0.0
 40
0.0
 40
0.0
 40
0.2487367796
 40
0.4981831298
 40
0.7486935442
 40
1.0
 40
1.0
 40
1.0
 40
1.0
 10
42.7922992509
 20
93.651469194
 30
0.0
 10
42.7922992509
 20
93.7093768337
 30
0.0
 10
42.7687800374
 20
93.8266447255
 30
0.0
 10
42.6684465306
 20
93.9745556883
 30
0.0
 10
42.5189001508
 20
94.0734011586
 30
0.0
 10
42.4008151856
 20
94.0964806074
 30
0.0
 10
42.3423093075
 20
94.0964806074
 30
0.0
  0
SPLINE
  5
3F6
100
AcDbEntity
  8
0
100
AcDbSpline
 62
7
  6
CONTINUOUS
 70
0
 71
3
 72
11
 73
7
 74
0
 42
0.0000001
 43
0.0000001
 44
0.0000000001
 40
0.0
 40
0.0
 40
0.0
 40
0.0
 40
0.2513064558
 40
0.5018168702
 40
0.7512632204
 40
1.0
 40
1.0
 40
1.0
 40
1.0
 10
42.3423093075
 20
94.0964806074
 30
0.0
 10
42.2838034294
 20
94.0964806074
 30
0.0
 10
42.1657184642
 20
94.0734011586
 30
0.0
 10
42.0161720845
 20
93.9745556883
 30
0.0
 10
41.9158385776
 20
93.8266447255
 30
0.0
 10
41.8923193642
 20
93.7093768337
 30
0.0
 10
41.8923193642
 20
93.651469194
 30
0.0
  0
SPLINE
  5
3F7
100
AcDbEntity
  8
0
100
AcDbSpline
 62
7
  6
CONTINUOUS
 70
0
 71
3
 72
15
 73
11
 74
0
 42
0.0000001
 43
0.0000001
 44
0.0000000001
 40
0.0
 40
0.0
 40
0.0
 40
0.0
 40
0.1243646944
 40
0.2490921759
 40
0.3743438294
 40
0.4999839329
 40
0.6256227603
 40
0.7508820508
 40
0.8756278508
 40
1.0
 40
1.0
 40
1.0
 40
1.0
 10
43.6923193642
 20
95.6293418998
 30
0.0
 10
43.6923193642
 20
95.5714361229
 30
0.0
 10
43.7158457298
 20
95.4541675141
 30
0.0
 10
43.816120573
 20
95.3062567142
 30
0.0
 10
43.965878096
 20
95.2074172025
 30
0.0
 10
44.1422848784
 20
95.1727916521
 30
0.0
 10
44.3186977675
 20
95.2074012261
 30
0.0
 10
44.4684764114
 20
95.3062313774
 30
0.0
 10
44.5687672994
 20
95.4541523322
 30
0.0
 10
44.5922992509
 20
95.5714326518
 30
0.0
 10
44.5922992509
 20
95.6293418998
 30
0.0
  0
SPLINE
  5
3F8
100
AcDbEntity
  8
0
100
AcDbSpline
 62
7
  6
CONTINUOUS
 70
0
 71
3
 72
11
 73
7
 74
0
 42
0.0000001
 43
0.0000001
 44
0.0000000001
 40
0.0
 40
0.0
 40
0.0
 40
0.0
 40
0.2487367796
 40
0.4981831298
 40
0.7486935442
 40
1.0
 40
1.0
 40
1.0
 40
1.0
 10
44.5922992509
 20
95.6293418998
 30
0.0
 10
44.5922992509
 20
95.6872495395
 30
0.0
 10
44.5687800374
 20
95.8045174312
 30
0.0
 10
44.4684465306
 20
95.9524283941
 30
0.0
 10
44.3189001508
 20
96.0512738644
 30
0.0
 10
44.2008151856
 20
96.0743533132
 30
0.0
 10
44.1423093075
 20
96.0743533132
 30
0.0
  0
SPLINE
  5
3F9
100
AcDbEntity
  8
0
100
AcDbSpline
 62
7
  6
CONTINUOUS
 70
0
 71
3
 72
11
 73
7
 74
0
 42
0.0000001
 43
0.0000001
 44
0.0000000001
 40
0.0
 40
0.0
 40
0.0
 40
0.0
 40
0.2513064558
 40
0.5018168702
 40
0.7512632204
 40
1.0
 40
1.0
 40
1.0
 40
1.0
 10
44.1423093075
 20
96.0743533132
 30
0.0
 10
44.0838034294
 20
96.0743533132
 30
0.0
 10
43.9657184642
 20
96.0512738644
 30
0.0
 10
43.8161720845
 20
95.9524283941
 30
0.0
 10
43.7158385776
 20
95.8045174312
 30
0.0
 10
43.6923193642
 20
95.6872495395
 30
0.0
 10
43.6923193642
 20
95.6293418998
 30
0.0
  0
SPLINE
  5
3FA
100
AcDbEntity
  8
0
100
AcDbSpline
 62
7
  6
CONTINUOUS
 70
0
 71
3
 72
15
 73
11
 74
0
 42
0.0000001
 43
0.0000001
 44
0.0000000001
 40
0.0
 40
0.0
 40
0.0
 40
0.0
 40
0.1243646944
 40
0.2490921759
 40
0.3743438294
 40
0.4999839329
 40
0.6256227603
 40
0.7508820508
 40
0.8756278508
 40
1.0
 40
1.0
 40
1.0
 40
1.0
 10
43.6923193642
 20
91.6735964883
 30
0.0
 10
43.6923193642
 20
91.6156907114
 30
0.0
 10
43.7158457298
 20
91.4984221027
 30
0.0
 10
43.816120573
 20
91.3505113027
 30
0.0
 10
43.965878096
 20
91.251671791
 30
0.0
 10
44.1422848784
 20
91.2170462406
 30
0.0
 10
44.3186977675
 20
91.2516558146
 30
0.0
 10
44.4684764114
 20
91.3504859659
 30
0.0
 10
44.5687672994
 20
91.4984069207
 30
0.0
 10
44.5922992509
 20
91.6156872404
 30
0.0
 10
44.5922992509
 20
91.6735964883
 30
0.0
  0
SPLINE
  5
3FB
100
AcDbEntity
  8
0
100
AcDbSpline
 62
7
  6
CONTINUOUS
 70
0
 71
3
 72
11
 73
7
 74
0
 42
0.0000001
 43
0.0000001
 44
0.0000000001
 40
0.0
 40
0.0
 40
0.0
 40
0.0
 40
0.2487367796
 40
0.4981831298
 40
0.7486935442
 40
1.0
 40
1.0
 40
1.0
 40
1.0
 10
44.5922992509
 20
91.6735964883
 30
0.0
 10
44.5922992509
 20
91.731504128
 30
0.0
 10
44.5687800374
 20
91.8487720198
 30
0.0
 10
44.4684465306
 20
91.9966829826
 30
0.0
 10
44.3189001508
 20
92.0955284529
 30
0.0
 10
44.2008151856
 20
92.1186079017
 30
0.0
 10
44.1423093075
 20
92.1186079017
 30
0.0
  0
SPLINE
  5
3FC
100
AcDbEntity
  8
0
100
AcDbSpline
 62
7
  6
CONTINUOUS
 70
0
 71
3
 72
11
 73
7
 74
0
 42
0.0000001
 43
0.0000001
 44
0.0000000001
 40
0.0
 40
0.0
 40
0.0
 40
0.0
 40
0.2513064558
 40
0.5018168702
 40
0.7512632204
 40
1.0
 40
1.0
 40
1.0
 40
1.0
 10
44.1423093075
 20
92.1186079017
 30
0.0
 10
44.0838034294
 20
92.1186079017
 30
0.0
 10
43.9657184642
 20
92.0955284529
 30
0.0
 10
43.8161720845
 20
91.9966829826
 30
0.0
 10
43.7158385776
 20
91.8487720198
 30
0.0
 10
43.6923193642
 20
91.731504128
 30
0.0
 10
43.6923193642
 20
91.6735964883
 30
0.0
  0
SPLINE
  5
3FD
100
AcDbEntity
  8
0
100
AcDbSpline
 62
7
  6
CONTINUOUS
 70
0
 71
3
 72
15
 73
11
 74
0
 42
0.0000001
 43
0.0000001
 44
0.0000000001
 40
0.0
 40
0.0
 40
0.0
 40
0.0
 40
0.1243646944
 40
0.2490921759
 40
0.3743438294
 40
0.4999839329
 40
0.6256227603
 40
0.7508820508
 40
0.8756278508
 40
1.0
 40
1.0
 40
1.0
 40
1.0
 10
45.3923193642
 20
93.651469194
 30
0.0
 10
45.3923193642
 20
93.5935634171
 30
0.0
 10
45.4158457298
 20
93.4762948084
 30
0.0
 10
45.516120573
 20
93.3283840084
 30
0.0
 10
45.665878096
 20
93.2295444967
 30
0.0
 10
45.8422848784
 20
93.1949189463
 30
0.0
 10
46.0186977675
 20
93.2295285203
 30
0.0
 10
46.1684764114
 20
93.3283586716
 30
0.0
 10
46.2687672994
 20
93.4762796264
 30
0.0
 10
46.2922992509
 20
93.5935599461
 30
0.0
 10
46.2922992509
 20
93.651469194
 30
0.0
  0
SPLINE
  5
3FE
100
AcDbEntity
  8
0
100
AcDbSpline
 62
7
  6
CONTINUOUS
 70
0
 71
3
 72
11
 73
7
 74
0
 42
0.0000001
 43
0.0000001
 44
0.0000000001
 40
0.0
 40
0.0
 40
0.0
 40
0.0
 40
0.2487367796
 40
0.4981831298
 40
0.7486935442
 40
1.0
 40
1.0
 40
1.0
 40
1.0
 10
46.2922992509
 20
93.651469194
 30
0.0
 10
46.2922992509
 20
93.7093768337
 30
0.0
 10
46.2687800374
 20
93.8266447255
 30
0.0
 10
46.1684465306
 20
93.9745556883
 30
0.0
 10
46.0189001508
 20
94.0734011586
 30
0.0
 10
45.9008151856
 20
94.0964806074
 30
0.0
 10
45.8423093075
 20
94.0964806074
 30
0.0
  0
SPLINE
  5
3FF
100
AcDbEntity
  8
0
100
AcDbSpline
 62
7
  6
CONTINUOUS
 70
0
 71
3
 72
11
 73
7
 74
0
 42
0.0000001
 43
0.0000001
 44
0.0000000001
 40
0.0
 40
0.0
 40
0.0
 40
0.0
 40
0.2513064558
 40
0.5018168702
 40
0.7512632204
 40
1.0
 40
1.0
 40
1.0
 40
1.0
 10
45.8423093075
 20
94.0964806074
 30
0.0
 10
45.7838034294
 20
94.0964806074
 30
0.0
 10
45.6657184642
 20
94.0734011586
 30
0.0
 10
45.5161720845
 20
93.9745556883
 30
0.0
 10
45.4158385776
 20
93.8266447255
 30
0.0
 10
45.3923193642
 20
93.7093768337
 30
0.0
 10
45.3923193642
 20
93.651469194
 30
0.0
  0
SPLINE
  5
400
100
AcDbEntity
  8
0
100
AcDbSpline
 62
7
  6
CONTINUOUS
 70
0
 71
3
 72
15
 73
11
 74
0
 42
0.0000001
 43
0.0000001
 44
0.0000000001
 40
0.0
 40
0.0
 40
0.0
 40
0.0
 40
0.1243646944
 40
0.2490921759
 40
0.3743438294
 40
0.4999839329
 40
0.6256227603
 40
0.7508820508
 40
0.8756278508
 40
1.0
 40
1.0
 40
1.0
 40
1.0
 10
47.1923193642
 20
91.6735964883
 30
0.0
 10
47.1923193642
 20
91.6156907114
 30
0.0
 10
47.2158457298
 20
91.4984221027
 30
0.0
 10
47.316120573
 20
91.3505113027
 30
0.0
 10
47.465878096
 20
91.251671791
 30
0.0
 10
47.6422848784
 20
91.2170462406
 30
0.0
 10
47.8186977675
 20
91.2516558146
 30
0.0
 10
47.9684764114
 20
91.3504859659
 30
0.0
 10
48.0687672994
 20
91.4984069207
 30
0.0
 10
48.0922992509
 20
91.6156872404
 30
0.0
 10
48.0922992509
 20
91.6735964883
 30
0.0
  0
SPLINE
  5
401
100
AcDbEntity
  8
0
100
AcDbSpline
 62
7
  6
CONTINUOUS
 70
0
 71
3
 72
11
 73
7
 74
0
 42
0.0000001
 43
0.0000001
 44
0.0000000001
 40
0.0
 40
0.0
 40
0.0
 40
0.0
 40
0.2487367796
 40
0.4981831298
 40
0.7486935442
 40
1.0
 40
1.0
 40
1.0
 40
1.0
 10
48.0922992509
 20
91.6735964883
 30
0.0
 10
48.0922992509
 20
91.731504128
 30
0.0
 10
48.0687800374
 20
91.8487720198
 30
0.0
 10
47.9684465306
 20
91.9966829826
 30
0.0
 10
47.8189001508
 20
92.0955284529
 30
0.0
 10
47.7008151856
 20
92.1186079017
 30
0.0
 10
47.6423093075
 20
92.1186079017
 30
0.0
  0
SPLINE
  5
402
100
AcDbEntity
  8
0
100
AcDbSpline
 62
7
  6
CONTINUOUS
 70
0
 71
3
 72
11
 73
7
 74
0
 42
0.0000001
 43
0.0000001
 44
0.0000000001
 40
0.0
 40
0.0
 40
0.0
 40
0.0
 40
0.2513064558
 40
0.5018168702
 40
0.7512632204
 40
1.0
 40
1.0
 40
1.0
 40
1.0
 10
47.6423093075
 20
92.1186079017
 30
0.0
 10
47.5838034294
 20
92.1186079017
 30
0.0
 10
47.4657184642
 20
92.0955284529
 30
0.0
 10
47.3161720845
 20
91.9966829826
 30
0.0
 10
47.2158385776
 20
91.8487720198
 30
0.0
 10
47.1923193642
 20
91.731504128
 30
0.0
 10
47.1923193642
 20
91.6735964883
 30
0.0
  0
SPLINE
  5
403
100
AcDbEntity
  8
0
100
AcDbSpline
 62
7
  6
CONTINUOUS
 70
0
 71
3
 72
15
 73
11
 74
0
 42
0.0000001
 43
0.0000001
 44
0.0000000001
 40
0.0
 40
0.0
 40
0.0
 40
0.0
 40
0.1243687299
 40
0.248858956
 40
0.3734290745
 40
0.4982767453
 40
0.623378239
 40
0.7486899266
 40
0.8743066553
 40
1.0
 40
1.0
 40
1.0
 40
1.0
 10
28.8324041576
 20
94.1846820308
 30
0.0
 10
28.8319114816
 20
94.3817849309
 30
0.0
 10
28.8692681639
 20
94.7773017188
 30
0.0
 10
29.0372563154
 20
95.3484253971
 30
0.0
 10
29.3125595249
 20
95.8774584801
 30
0.0
 10
29.6858645682
 20
96.3437843082
 30
0.0
 10
30.1438673558
 20
96.7291782871
 30
0.0
 10
30.670028114
 20
97.0174672791
 30
0.0
 10
31.2437099388
 20
97.1955449751
 30
0.0
 10
31.6431065019
 20
97.2361116614
 30
0.0
 10
31.8423093075
 20
97.2361389499
 30
0.0
  0
SPLINE
  5
404
100
AcDbEntity
  8
0
100
AcDbSpline
 62
7
  6
CONTINUOUS
 70
0
 71
3
 72
15
 73
11
 74
0
 42
0.0000001
 43
0.0000001
 44
0.0000000001
 40
0.0
 40
0.0
 40
0.0
 40
0.0
 40
0.1243773992
 40
0.2490905437
 40
0.3743482998
 40
0.4999868368
 40
0.6256247628
 40
0.7508891803
 40
0.8756162366
 40
1.0
 40
1.0
 40
1.0
 40
1.0
 10
48.3923093075
 20
91.6290943524
 30
0.0
 10
48.3923093075
 20
91.5325739016
 30
0.0
 10
48.3531193976
 20
91.3371149974
 30
0.0
 10
48.1859400108
 20
91.0906278175
 30
0.0
 10
47.9363636642
 20
90.9258800804
 30
0.0
 10
47.6423419328
 20
90.8681909598
 30
0.0
 10
47.3483098223
 20
90.9258553505
 30
0.0
 10
47.0987078966
 20
91.0905949171
 30
0.0
 10
46.9315055267
 20
91.337094183
 30
0.0
 10
46.8923093075
 20
91.5325689629
 30
0.0
 10
46.8923093075
 20
91.6290943524
 30
0.0
  0
SPLINE
  5
405
100
AcDbEntity
  8
0
100
AcDbSpline
 62
7
  6
CONTINUOUS
 70
0
 71
3
 72
15
 73
11
 74
0
 42
0.0000001
 43
0.0000001
 44
0.0000000001
 40
0.0
 40
0.0
 40
0.0
 40
0.0
 40
0.1243773992
 40
0.2490905437
 40
0.3743482998
 40
0.4999868368
 40
0.6256247628
 40
0.7508891803
 40
0.8756162366
 40
1.0
 40
1.0
 40
1.0
 40
1.0
 10
46.5923093075
 20
93.6069670581
 30
0.0
 10
46.5923093075
 20
93.5104466074
 30
0.0
 10
46.5531193976
 20
93.3149877031
 30
0.0
 10
46.3859400108
 20
93.0685005232
 30
0.0
 10
46.1363636642
 20
92.9037527861
 30
0.0
 10
45.8423419328
 20
92.8460636655
 30
0.0
 10
45.5483098223
 20
92.9037280562
 30
0.0
 10
45.2987078966
 20
93.0684676229
 30
0.0
 10
45.1315055267
 20
93.3149668887
 30
0.0
 10
45.0923093075
 20
93.5104416686
 30
0.0
 10
45.0923093075
 20
93.6069670581
 30
0.0
  0
SPLINE
  5
406
100
AcDbEntity
  8
0
100
AcDbSpline
 62
7
  6
CONTINUOUS
 70
0
 71
3
 72
15
 73
11
 74
0
 42
0.0000001
 43
0.0000001
 44
0.0000000001
 40
0.0
 40
0.0
 40
0.0
 40
0.0
 40
0.1243773992
 40
0.2490905437
 40
0.3743482998
 40
0.4999868368
 40
0.6256247628
 40
0.7508891803
 40
0.8756162366
 40
1.0
 40
1.0
 40
1.0
 40
1.0
 10
44.8923093075
 20
91.6290943524
 30
0.0
 10
44.8923093075
 20
91.5325739016
 30
0.0
 10
44.8531193976
 20
91.3371149974
 30
0.0
 10
44.6859400108
 20
91.0906278175
 30
0.0
 10
44.4363636642
 20
90.9258800804
 30
0.0
 10
44.1423419328
 20
90.8681909598
 30
0.0
 10
43.8483098223
 20
90.9258553505
 30
0.0
 10
43.5987078966
 20
91.0905949171
 30
0.0
 10
43.4315055267
 20
91.337094183
 30
0.0
 10
43.3923093075
 20
91.5325689629
 30
0.0
 10
43.3923093075
 20
91.6290943524
 30
0.0
  0
SPLINE
  5
407
100
AcDbEntity
  8
0
100
AcDbSpline
 62
7
  6
CONTINUOUS
 70
0
 71
3
 72
15
 73
11
 74
0
 42
0.0000001
 43
0.0000001
 44
0.0000000001
 40
0.0
 40
0.0
 40
0.0
 40
0.0
 40
0.1243773992
 40
0.2490905437
 40
0.3743482998
 40
0.4999868368
 40
0.6256247628
 40
0.7508891803
 40
0.8756162366
 40
1.0
 40
1.0
 40
1.0
 40
1.0
 10
44.8923093075
 20
95.5848397639
 30
0.0
 10
44.8923093075
 20
95.4883193131
 30
0.0
 10
44.8531193976
 20
95.2928604089
 30
0.0
 10
44.6859400108
 20
95.0463732289
 30
0.0
 10
44.4363636642
 20
94.8816254919
 30
0.0
 10
44.1423419328
 20
94.8239363712
 30
0.0
 10
43.8483098223
 20
94.8816007619
 30
0.0
 10
43.5987078966
 20
95.0463403286
 30
0.0
 10
43.4315055267
 20
95.2928395945
 30
0.0
 10
43.3923093075
 20
95.4883143743
 30
0.0
 10
43.3923093075
 20
95.5848397639
 30
0.0
  0
SPLINE
  5
408
100
AcDbEntity
  8
0
100
AcDbSpline
 62
7
  6
CONTINUOUS
 70
0
 71
3
 72
15
 73
11
 74
0
 42
0.0000001
 43
0.0000001
 44
0.0000000001
 40
0.0
 40
0.0
 40
0.0
 40
0.0
 40
0.1243773992
 40
0.2490905437
 40
0.3743482998
 40
0.4999868368
 40
0.6256247628
 40
0.7508891803
 40
0.8756162366
 40
1.0
 40
1.0
 40
1.0
 40
1.0
 10
43.0923093075
 20
93.6069670581
 30
0.0
 10
43.0923093075
 20
93.5104466074
 30
0.0
 10
43.0531193976
 20
93.3149877031
 30
0.0
 10
42.8859400108
 20
93.0685005232
 30
0.0
 10
42.6363636642
 20
92.9037527861
 30
0.0
 10
42.3423419328
 20
92.8460636655
 30
0.0
 10
42.0483098223
 20
92.9037280562
 30
0.0
 10
41.7987078966
 20
93.0684676229
 30
0.0
 10
41.6315055267
 20
93.3149668887
 30
0.0
 10
41.5923093075
 20
93.5104416686
 30
0.0
 10
41.5923093075
 20
93.6069670581
 30
0.0
  0
SPLINE
  5
409
100
AcDbEntity
  8
0
100
AcDbSpline
 62
7
  6
CONTINUOUS
 70
0
 71
3
 72
15
 73
11
 74
0
 42
0.0000001
 43
0.0000001
 44
0.0000000001
 40
0.0
 40
0.0
 40
0.0
 40
0.0
 40
0.1243773992
 40
0.2490905437
 40
0.3743482998
 40
0.4999868368
 40
0.6256247628
 40
0.7508891803
 40
0.8756162366
 40
1.0
 40
1.0
 40
1.0
 40
1.0
 10
41.3923093075
 20
91.6290943524
 30
0.0
 10
41.3923093075
 20
91.5325739016
 30
0.0
 10
41.3531193976
 20
91.3371149974
 30
0.0
 10
41.1859400108
 20
91.0906278175
 30
0.0
 10
40.9363636642
 20
90.9258800804
 30
0.0
 10
40.6423419328
 20
90.8681909598
 30
0.0
 10
40.3483098223
 20
90.9258553505
 30
0.0
 10
40.0987078966
 20
91.0905949171
 30
0.0
 10
39.9315055267
 20
91.337094183
 30
0.0
 10
39.8923093075
 20
91.5325689629
 30
0.0
 10
39.8923093075
 20
91.6290943524
 30
0.0
  0
SPLINE
  5
40A
100
AcDbEntity
  8
0
100
AcDbSpline
 62
7
  6
CONTINUOUS
 70
0
 71
3
 72
15
 73
11
 74
0
 42
0.0000001
 43
0.0000001
 44
0.0000000001
 40
0.0
 40
0.0
 40
0.0
 40
0.0
 40
0.1243773992
 40
0.2490905437
 40
0.3743482998
 40
0.4999868368
 40
0.6256247628
 40
0.7508891803
 40
0.8756162366
 40
1.0
 40
1.0
 40
1.0
 40
1.0
 10
39.5923093075
 20
93.6069670581
 30
0.0
 10
39.5923093075
 20
93.5104466074
 30
0.0
 10
39.5531193976
 20
93.3149877031
 30
0.0
 10
39.3859400108
 20
93.0685005232
 30
0.0
 10
39.1363636642
 20
92.9037527861
 30
0.0
 10
38.8423419328
 20
92.8460636655
 30
0.0
 10
38.5483098223
 20
92.9037280562
 30
0.0
 10
38.2987078966
 20
93.0684676229
 30
0.0
 10
38.1315055267
 20
93.3149668887
 30
0.0
 10
38.0923093075
 20
93.5104416686
 30
0.0
 10
38.0923093075
 20
93.6069670581
 30
0.0
  0
SPLINE
  5
40B
100
AcDbEntity
  8
0
100
AcDbSpline
 62
7
  6
CONTINUOUS
 70
0
 71
3
 72
15
 73
11
 74
0
 42
0.0000001
 43
0.0000001
 44
0.0000000001
 40
0.0
 40
0.0
 40
0.0
 40
0.0
 40
0.1243773992
 40
0.2490905437
 40
0.3743482998
 40
0.4999868368
 40
0.6256247628
 40
0.7508891803
 40
0.8756162366
 40
1.0
 40
1.0
 40
1.0
 40
1.0
 10
41.3923093075
 20
95.5848397639
 30
0.0
 10
41.3923093075
 20
95.4883193131
 30
0.0
 10
41.3531193976
 20
95.2928604089
 30
0.0
 10
41.1859400108
 20
95.0463732289
 30
0.0
 10
40.9363636642
 20
94.8816254919
 30
0.0
 10
40.6423419328
 20
94.8239363712
 30
0.0
 10
40.3483098223
 20
94.8816007619
 30
0.0
 10
40.0987078966
 20
95.0463403286
 30
0.0
 10
39.9315055267
 20
95.2928395945
 30
0.0
 10
39.8923093075
 20
95.4883143743
 30
0.0
 10
39.8923093075
 20
95.5848397639
 30
0.0
  0
SPLINE
  5
40C
100
AcDbEntity
  8
0
100
AcDbSpline
 62
7
  6
CONTINUOUS
 70
0
 71
3
 72
15
 73
11
 74
0
 42
0.0000001
 43
0.0000001
 44
0.0000000001
 40
0.0
 40
0.0
 40
0.0
 40
0.0
 40
0.1243773992
 40
0.2490905437
 40
0.3743482998
 40
0.4999868368
 40
0.6256247628
 40
0.7508891803
 40
0.8756162366
 40
1.0
 40
1.0
 40
1.0
 40
1.0
 10
37.8923093075
 20
95.5848397639
 30
0.0
 10
37.8923093075
 20
95.4883193131
 30
0.0
 10
37.8531193976
 20
95.2928604089
 30
0.0
 10
37.6859400108
 20
95.0463732289
 30
0.0
 10
37.4363636642
 20
94.8816254919
 30
0.0
 10
37.1423419328
 20
94.8239363712
 30
0.0
 10
36.8483098223
 20
94.8816007619
 30
0.0
 10
36.5987078966
 20
95.0463403286
 30
0.0
 10
36.4315055267
 20
95.2928395945
 30
0.0
 10
36.3923093075
 20
95.4883143743
 30
0.0
 10
36.3923093075
 20
95.5848397639
 30
0.0
  0
SPLINE
  5
40D
100
AcDbEntity
  8
0
100
AcDbSpline
 62
7
  6
CONTINUOUS
 70
0
 71
3
 72
15
 73
11
 74
0
 42
0.0000001
 43
0.0000001
 44
0.0000000001
 40
0.0
 40
0.0
 40
0.0
 40
0.0
 40
0.1243773992
 40
0.2490905437
 40
0.3743482998
 40
0.4999868368
 40
0.6256247628
 40
0.7508891803
 40
0.8756162366
 40
1.0
 40
1.0
 40
1.0
 40
1.0
 10
37.8923093075
 20
91.6290943524
 30
0.0
 10
37.8923093075
 20
91.5325739016
 30
0.0
 10
37.8531193976
 20
91.3371149974
 30
0.0
 10
37.6859400108
 20
91.0906278175
 30
0.0
 10
37.4363636642
 20
90.9258800804
 30
0.0
 10
37.1423419328
 20
90.8681909598
 30
0.0
 10
36.8483098223
 20
90.9258553505
 30
0.0
 10
36.5987078966
 20
91.0905949171
 30
0.0
 10
36.4315055267
 20
91.337094183
 30
0.0
 10
36.3923093075
 20
91.5325689629
 30
0.0
 10
36.3923093075
 20
91.6290943524
 30
0.0
  0
SPLINE
  5
40E
100
AcDbEntity
  8
0
100
AcDbSpline
 62
7
  6
CONTINUOUS
 70
0
 71
3
 72
15
 73
11
 74
0
 42
0.0000001
 43
0.0000001
 44
0.0000000001
 40
0.0
 40
0.0
 40
0.0
 40
0.0
 40
0.1243773992
 40
0.2490905437
 40
0.3743482998
 40
0.4999868368
 40
0.6256247628
 40
0.7508891803
 40
0.8756162366
 40
1.0
 40
1.0
 40
1.0
 40
1.0
 10
36.0923093075
 20
93.6069670581
 30
0.0
 10
36.0923093075
 20
93.5104466074
 30
0.0
 10
36.0531193976
 20
93.3149877031
 30
0.0
 10
35.8859400108
 20
93.0685005232
 30
0.0
 10
35.6363636642
 20
92.9037527861
 30
0.0
 10
35.3423419328
 20
92.8460636655
 30
0.0
 10
35.0483098223
 20
92.9037280562
 30
0.0
 10
34.7987078966
 20
93.0684676229
 30
0.0
 10
34.6315055267
 20
93.3149668887
 30
0.0
 10
34.5923093075
 20
93.5104416686
 30
0.0
 10
34.5923093075
 20
93.6069670581
 30
0.0
  0
SPLINE
  5
40F
100
AcDbEntity
  8
0
100
AcDbSpline
 62
7
  6
CONTINUOUS
 70
0
 71
3
 72
15
 73
11
 74
0
 42
0.0000001
 43
0.0000001
 44
0.0000000001
 40
0.0
 40
0.0
 40
0.0
 40
0.0
 40
0.1243773992
 40
0.2490905437
 40
0.3743482998
 40
0.4999868368
 40
0.6256247628
 40
0.7508891803
 40
0.8756162366
 40
1.0
 40
1.0
 40
1.0
 40
1.0
 10
34.3923093075
 20
95.5848397639
 30
0.0
 10
34.3923093075
 20
95.4883193131
 30
0.0
 10
34.3531193976
 20
95.2928604089
 30
0.0
 10
34.1859400108
 20
95.0463732289
 30
0.0
 10
33.9363636642
 20
94.8816254919
 30
0.0
 10
33.6423419328
 20
94.8239363712
 30
0.0
 10
33.3483098223
 20
94.8816007619
 30
0.0
 10
33.0987078966
 20
95.0463403286
 30
0.0
 10
32.9315055267
 20
95.2928395945
 30
0.0
 10
32.8923093075
 20
95.4883143743
 30
0.0
 10
32.8923093075
 20
95.5848397639
 30
0.0
  0
SPLINE
  5
410
100
AcDbEntity
  8
0
100
AcDbSpline
 62
7
  6
CONTINUOUS
 70
0
 71
3
 72
15
 73
11
 74
0
 42
0.0000001
 43
0.0000001
 44
0.0000000001
 40
0.0
 40
0.0
 40
0.0
 40
0.0
 40
0.1243773992
 40
0.2490905437
 40
0.3743482998
 40
0.4999868368
 40
0.6256247628
 40
0.7508891803
 40
0.8756162366
 40
1.0
 40
1.0
 40
1.0
 40
1.0
 10
32.5923093075
 20
93.6069670581
 30
0.0
 10
32.5923093075
 20
93.5104466074
 30
0.0
 10
32.5531193976
 20
93.3149877031
 30
0.0
 10
32.3859400108
 20
93.0685005232
 30
0.0
 10
32.1363636642
 20
92.9037527861
 30
0.0
 10
31.8423419328
 20
92.8460636655
 30
0.0
 10
31.5483098223
 20
92.9037280562
 30
0.0
 10
31.2987078966
 20
93.0684676229
 30
0.0
 10
31.1315055267
 20
93.3149668887
 30
0.0
 10
31.0923093075
 20
93.5104416686
 30
0.0
 10
31.0923093075
 20
93.6069670581
 30
0.0
  0
SPLINE
  5
411
100
AcDbEntity
  8
0
100
AcDbSpline
 62
7
  6
CONTINUOUS
 70
0
 71
3
 72
15
 73
11
 74
0
 42
0.0000001
 43
0.0000001
 44
0.0000000001
 40
0.0
 40
0.0
 40
0.0
 40
0.0
 40
0.1243773992
 40
0.2490905437
 40
0.3743482998
 40
0.4999868368
 40
0.6256247628
 40
0.7508891803
 40
0.8756162366
 40
1.0
 40
1.0
 40
1.0
 40
1.0
 10
34.3923093075
 20
91.6290943524
 30
0.0
 10
34.3923093075
 20
91.5325739016
 30
0.0
 10
34.3531193976
 20
91.3371149974
 30
0.0
 10
34.1859400108
 20
91.0906278175
 30
0.0
 10
33.9363636642
 20
90.9258800804
 30
0.0
 10
33.6423419328
 20
90.8681909598
 30
0.0
 10
33.3483098223
 20
90.9258553505
 30
0.0
 10
33.0987078966
 20
91.0905949171
 30
0.0
 10
32.9315055267
 20
91.337094183
 30
0.0
 10
32.8923093075
 20
91.5325689629
 30
0.0
 10
32.8923093075
 20
91.6290943524
 30
0.0
  0
SPLINE
  5
412
100
AcDbEntity
  8
0
100
AcDbSpline
 62
7
  6
CONTINUOUS
 70
0
 71
3
 72
15
 73
11
 74
0
 42
0.0000001
 43
0.0000001
 44
0.0000000001
 40
0.0
 40
0.0
 40
0.0
 40
0.0
 40
0.1243773992
 40
0.2490905437
 40
0.3743482998
 40
0.4999868368
 40
0.6256247628
 40
0.7508891803
 40
0.8756162366
 40
1.0
 40
1.0
 40
1.0
 40
1.0
 10
30.8923093075
 20
91.6290943524
 30
0.0
 10
30.8923093075
 20
91.5325739016
 30
0.0
 10
30.8531193976
 20
91.3371149974
 30
0.0
 10
30.6859400108
 20
91.0906278175
 30
0.0
 10
30.4363636642
 20
90.9258800804
 30
0.0
 10
30.1423419328
 20
90.8681909598
 30
0.0
 10
29.8483098223
 20
90.9258553505
 30
0.0
 10
29.5987078966
 20
91.0905949171
 30
0.0
 10
29.4315055267
 20
91.337094183
 30
0.0
 10
29.3923093075
 20
91.5325689629
 30
0.0
 10
29.3923093075
 20
91.6290943524
 30
0.0
  0
SPLINE
  5
413
100
AcDbEntity
  8
0
100
AcDbSpline
 62
7
  6
CONTINUOUS
 70
0
 71
3
 72
13
 73
9
 74
0
 42
0.0000001
 43
0.0000001
 44
0.0000000001
 40
0.0
 40
0.0
 40
0.0
 40
0.0
 40
0.1259848539
 40
0.2518584208
 40
0.5017345394
 40
0.7506268155
 40
0.8753593567
 40
1.0
 40
1.0
 40
1.0
 40
1.0
 10
45.8423093075
 20
97.2361389499
 30
0.0
 10
46.0414966724
 20
97.2361116635
 30
0.0
 10
46.4409032342
 20
97.1954038965
 30
0.0
 10
47.2027669701
 20
96.959657499
 30
0.0
 10
48.0413198875
 20
96.386486897
 30
0.0
 10
48.5925730295
 20
95.5368938461
 30
0.0
 10
48.8152031885
 20
94.7772233033
 30
0.0
 10
48.85270703
 20
94.3817435283
 30
0.0
 10
48.8522144575
 20
94.1846820308
 30
0.0
  0
ELLIPSE
  5
414
100
AcDbEntity
  8
0
100
AcDbEllipse
 62
7
  6
CONTINUOUS
 10
43.0503035933
 20
22.1913197529
 30
0.0
 11
-0.0
 21
1.0
 31
0.0
 40
0.0174550649
 41
1.5707963268
 42
2.3387411977
  0
ELLIPSE
  5
415
100
AcDbEntity
  8
0
100
AcDbEllipse
 62
7
  6
CONTINUOUS
 10
43.0503035933
 20
56.1451688334
 30
0.0
 11
0.0
 21
1.0
 31
0.0
 40
0.0174550649
 41
0.8028514559
 42
1.5707963268
  0
ELLIPSE
  5
416
100
AcDbEntity
  8
0
100
AcDbEllipse
 62
7
  6
CONTINUOUS
 10
43.0753945728
 20
57.6337035376
 30
0.0
 11
0.0
 21
1.0
 31
0.0
 40
0.0174550649
 41
0.034906585
 42
0.8028514559
  0
ELLIPSE
  5
417
100
AcDbEntity
  8
0
100
AcDbEllipse
 62
7
  6
CONTINUOUS
 10
43.0753945728
 20
20.7027850488
 30
0.0
 11
0.0
 21
1.0
 31
0.0
 40
0.0174550649
 41
-3.9444441095
 42
-3.1764992386
  0
ELLIPSE
  5
418
100
AcDbEntity
  8
0
100
AcDbEllipse
 62
7
  6
CONTINUOUS
 10
34.6343150217
 20
56.1451688334
 30
0.0
 11
-0.0
 21
1.0
 31
0.0
 40
0.0174550649
 41
-1.5707963268
 42
-0.8028514559
  0
ELLIPSE
  5
419
100
AcDbEntity
  8
0
100
AcDbEllipse
 62
7
  6
CONTINUOUS
 10
34.6092240422
 20
57.6337035376
 30
0.0
 11
0.0
 21
1.0
 31
0.0
 40
0.0174550649
 41
-0.8028514559
 42
-0.034906585
  0
ELLIPSE
  5
41A
100
AcDbEntity
  8
0
100
AcDbEllipse
 62
7
  6
CONTINUOUS
 10
34.6343150217
 20
22.1913197529
 30
0.0
 11
0.0
 21
1.0
 31
0.0
 40
0.0174550649
 41
-2.3387411977
 42
-1.5707963268
  0
ELLIPSE
  5
41B
100
AcDbEntity
  8
0
100
AcDbEllipse
 62
7
  6
CONTINUOUS
 10
34.6092240422
 20
20.7027850488
 30
0.0
 11
0.0
 21
1.0
 31
0.0
 40
0.0174550649
 41
-3.1066860686
 42
-2.3387411977
  0
ELLIPSE
  5
41C
100
AcDbEntity
  8
0
100
AcDbEllipse
 62
7
  6
CONTINUOUS
 10
11.3262784631
 20
63.9336655933
 30
0.0
 11
0.0
 21
1.0
 31
0.0
 40
0.0349207695
 41
4.9497116506
 42
6.2482787221
  0
ELLIPSE
  5
41D
100
AcDbEntity
  8
0
100
AcDbEllipse
 62
7
  6
CONTINUOUS
 10
11.3262784631
 20
54.4028229931
 30
0.0
 11
0.0
 21
1.0
 31
0.0
 40
0.0349207695
 41
-3.1066860685
 42
-1.8081189969
  0
ELLIPSE
  5
41E
100
AcDbEntity
  8
0
100
AcDbEllipse
 62
7
  6
CONTINUOUS
 10
66.3583401519
 20
54.4028229931
 30
0.0
 11
-0.0
 21
1.0
 31
0.0
 40
0.0349207695
 41
1.808118997
 42
3.1066860685
  0
ELLIPSE
  5
41F
100
AcDbEntity
  8
0
100
AcDbEllipse
 62
7
  6
CONTINUOUS
 10
66.3583401519
 20
63.9336655933
 30
0.0
 11
0.0
 21
1.0
 31
0.0
 40
0.0349207695
 41
0.034906585
 42
1.3333587751
  0
ELLIPSE
  5
420
100
AcDbEntity
  8
0
100
AcDbEllipse
 62
7
  6
CONTINUOUS
 10
43.6416997632
 20
20.3688538375
 30
0.0
 11
-0.7079685446
 21
0.7079685446
 31
0.0
 40
0.998782766
 41
2.3568034778
 42
3.9263818294
  0
ELLIPSE
  5
421
100
AcDbEntity
  8
0
100
AcDbEllipse
 62
7
  6
CONTINUOUS
 10
44.2586075241
 20
22.1913197529
 30
0.0
 11
-0.0
 21
1.0
 31
0.0
 40
0.7353474505
 41
-4.7123889804
 42
-3.9444441095
  0
ELLIPSE
  5
422
100
AcDbEntity
  8
0
100
AcDbEllipse
 62
7
  6
CONTINUOUS
 10
44.2586075241
 20
56.1451688334
 30
0.0
 11
0.0
 21
1.0
 31
0.0
 40
0.7353474505
 41
0.8028514559
 42
1.5707963268
  0
ELLIPSE
  5
423
100
AcDbEntity
  8
0
100
AcDbEllipse
 62
7
  6
CONTINUOUS
 10
43.6416997632
 20
57.9676347489
 30
0.0
 11
-0.7079685446
 21
-0.7079685446
 31
0.0
 40
0.998782766
 41
2.3568034778
 42
3.9263818294
  0
ELLIPSE
  5
424
100
AcDbEntity
  8
0
100
AcDbEllipse
 62
7
  6
CONTINUOUS
 10
33.4260110909
 20
56.1451688334
 30
0.0
 11
0.0
 21
1.0
 31
0.0
 40
0.7353474505
 41
-1.5707963268
 42
-0.8028514559
  0
ELLIPSE
  5
425
100
AcDbEntity
  8
0
100
AcDbEllipse
 62
7
  6
CONTINUOUS
 10
34.0429188518
 20
57.9676347489
 30
0.0
 11
0.7079685446
 21
-0.7079685446
 31
0.0
 40
0.998782766
 41
2.3568034778
 42
3.9263818294
  0
ELLIPSE
  5
426
100
AcDbEntity
  8
0
100
AcDbEllipse
 62
7
  6
CONTINUOUS
 10
33.4260110909
 20
22.1913197529
 30
0.0
 11
0.0
 21
1.0
 31
0.0
 40
0.7353474505
 41
-2.3387411977
 42
-1.5707963268
  0
ELLIPSE
  5
427
100
AcDbEntity
  8
0
100
AcDbEllipse
 62
7
  6
CONTINUOUS
 10
34.0429188518
 20
20.3688538375
 30
0.0
 11
0.7079685446
 21
0.7079685446
 31
0.0
 40
0.998782766
 41
2.3568034778
 42
3.9263818294
  0
ENDSEC
  0
SECTION
  2
OBJECTS
  0
DICTIONARY
  5
C
100
AcDbDictionary
280
0
281
1
  3
ACAD_GROUP
350
D
  3
ACAD_MLINESTYLE
350
17
  3
ACAD_LAYOUT
350
1A
  3
ACAD_PLOTSETTINGS
350
19
  3
ACAD_PLOTSTYLENAME
350
E
  0
DICTIONARY
  5
D
102
{ACAD_REACTORS
330
C
102
}
100
AcDbDictionary
280
0
281
1
  0
ACDBDICTIONARYWDFLT
  5
E
102
{ACAD_REACTORS
330
C
102
}
100
AcDbDictionary
281
1
  3
Normal
350
F
100
AcDbDictionaryWithDefault
340
F
  0
DICTIONARY
  5
17
102
{ACAD_REACTORS
330
C
102
}
100
AcDbDictionary
280
0
281
1
  3
Standard
350
18
  0
DICTIONARY
  5
19
102
{ACAD_REACTORS
330
C
102
}
100
AcDbDictionary
281
1
  0
DICTIONARY
  5
1A
102
{ACAD_REACTORS
330
C
102
}
100
AcDbDictionary
281
1
  3
Model
350
428
  3
Layout1
350
429
  0
ACDBPLACEHOLDER
  5
F
102
{ACAD_REACTORS
330
E
102
}
  0
MLINESTYLE
  5
18
102
{ACAD_REACTORS
330
17
102
}
100
AcDbMlineStyle
  2
STANDARD
 70
0
  3

 62
256
 51
90.0
 52
90.0
 71
2
 49
0.5
 62
256
  6
BYLAYER
 49
-0.5
 62
256
  6
BYLAYER
  0
LAYOUT
  5
428
102
{ACAD_REACTORS
330
1A
102
}
100
AcDbPlotSettings
  1

  2
none_device
  4

  6

 40
0.0
 41
0.0
 42
0.0
 43
0.0
 44
210.0
 45
297.0
 46
0.0
 47
0.0
 48
0.0
 49
0.0
140
0.0
141
0.0
142
1.0
143
1.0
 70
1024
 72
1
 73
0
 74
0
  7

 75
0
147
1.0
148
0.0
149
0.0
100
AcDbLayout
  1
Model
 70
0
 71
0
 10
0.0
 20
0.0
 11
210.0
 21
297.0
 12
0.0
 22
0.0
 32
0.0
 14
0.0
 24
0.0
 34
0.0
 15
0.0
 25
0.0
 35
0.0
146
0.0
 13
0.0
 23
0.0
 33
0.0
 16
1.0
 26
0.0
 36
0.0
 17
0.0
 27
1.0
 37
0.0
 76
0
330
210
345
0
346
0
  0
LAYOUT
  5
429
102
{ACAD_REACTORS
330
1A
102
}
100
AcDbPlotSettings
  1

  2
none_device
  4

  6

 40
0.0
 41
0.0
 42
0.0
 43
0.0
 44
210.0
 45
297.0
 46
0.0
 47
0.0
 48
0.0
 49
0.0
140
0.0
141
0.0
142
1.0
143
1.0
 70
0
 72
1
 73
0
 74
0
  7

 75
0
147
1.0
148
0.0
149
0.0
100
AcDbLayout
  1
Layout1
 70
0
 71
1
 10
0.0
 20
0.0
 11
210.0
 21
297.0
 12
0.0
 22
0.0
 32
0.0
 14
0.0
 24
0.0
 34
0.0
 15
0.0
 25
0.0
 35
0.0
146
0.0
 13
0.0
 23
0.0
 33
0.0
 16
1.0
 26
0.0
 36
0.0
 17
0.0
 27
1.0
 37
0.0
 76
0
330
211
345
0
346
0
  0
ENDSEC
  0
EOF
