999
DXF file: C:\Users\sesa63760\Dev\_Creo\CAD\MCADPD0004578_3D-CAD\drw0001_3.dxf
999
Pro/ENGINEER 2019471 by Parametric Technology Corporation
  0
SECTION
  2
HEADER
  9
$ACADVER
  1
AC1024
  9
$DWGCODEPAGE
  3
ANSI_1252
  9
$EXTMAX
 10
113.7656654068
 20
160.8971553611
 30
0.0
  9
$EXTMIN
 10
0.0
 20
0.0
 30
0.0
  9
$LIMMIN
 10
0.0
 20
0.0
  9
$LIMMAX
 10
113.7656654068
 20
160.8971553611
  9
$VIEWCTR
 10
56.8828327034
 20
80.4485776805
  9
$VIEWSIZE
 40
160.8971553611
  9
$CLAYER
  8
0
  9
$LTSCALE
 40
10.488110868
  9
$CELTYPE
  6
BYLAYER
  9
$DIMSCALE
 40
1.0
  9
$DIMASZ
 40
1.3543531596
  9
$DIMEXO
 40
1.0
  9
$DIMDLI
 40
7.2463311451
  9
$DIMEXE
 40
1.0
  9
$DIMCEN
 40
1.7162363239
  9
$DIMLFAC
 40
1.0
  9
$DIMBLK
  1
_FILLED
  9
$DIMALT
 70
0
  9
$DIMALTF
 40
0.0393700787
  9
$DIMTXT
 40
1.8960944234
  9
$DIMTOL
 70
1
  9
$DIMLIM
 70
0
  9
$DIMTFAC
 40
1.0
  9
$DIMTP
 40
0.01
  9
$DIMTM
 40
0.01
  9
$DIMGAP
 40
0.625
  9
$DIMDSEP
 70
46
  9
$AUNITS
 70
0
  9
$PDMODE
 70
3
  9
$PDSIZE
 40
0.3125
  9
$HANDSEED
  5
26D
  9
$TILEMODE
 70
1
  9
$MEASUREMENT
 70
1
  9
$INSUNITS
 70
4
  0
ENDSEC
  0
SECTION
  2
CLASSES
  0
CLASS
  1
ACDBDICTIONARYWDFLT
  2
AcDbDictionaryWithDefault
  3
AutoCAD 2000
 90
0
 91
1
280
0
281
0
  0
CLASS
  1
ACDBPLACEHOLDER
  2
AcDbPlaceHolder
  3
AutoCAD 2000
 90
0
 91
1
280
0
281
0
  0
CLASS
  1
LAYOUT
  2
AcDbLayout
  3
AutoCAD 2000
 90
0
 91
0
280
0
281
0
  0
ENDSEC
  0
SECTION
  2
TABLES
  0
TABLE
  2
VPORT
  5
8
100
AcDbSymbolTable
 70
2
  0
VPORT
  5
1F4
100
AcDbSymbolTableRecord
100
AcDbViewportTableRecord
  2
*ACTIVE
 70
0
 10
0.0
 20
0.0
 11
1.0
 21
1.0
 12
56.8828327034
 22
80.4485776805
 13
0.0
 23
0.0
 14
1.0
 24
1.0
 15
0.0
 25
0.0
 16
0.0
 26
0.0
 36
1.0
 17
0.0
 27
0.0
 37
0.0
 40
160.8971553611
 41
0.7070707071
 42
50.0
 43
0.0
 44
0.0
 50
0.0
 51
0.0
 71
0
 72
100
 73
1
 74
1
 75
0
 76
0
 77
0
 78
0
  0
ENDTAB
  0
TABLE
  2
LTYPE
  5
5
100
AcDbSymbolTable
 70
6
  0
LTYPE
  5
14
100
AcDbSymbolTableRecord
100
AcDbLinetypeTableRecord
  2
BYBLOCK
 70
0
  3

 72
65
 73
0
 40
0.0
  0
LTYPE
  5
15
100
AcDbSymbolTableRecord
100
AcDbLinetypeTableRecord
  2
BYLAYER
 70
0
  3

 72
65
 73
0
 40
0.0
  0
LTYPE
  5
16
100
AcDbSymbolTableRecord
100
AcDbLinetypeTableRecord
  2
CONTINUOUS
 70
64
  3
Solid line
 72
65
 73
0
 40
0.0
  0
LTYPE
  5
1F5
100
AcDbSymbolTableRecord
100
AcDbLinetypeTableRecord
  2
CENTER
 70
64
  3
____ _ ____ _ ____ _ ____ _ ____ _ ____ _ ____
 72
65
 73
4
 40
0.6
 49
0.375
 74
0
 49
-0.075
 74
0
 49
0.075
 74
0
 49
-0.075
 74
0
  0
LTYPE
  5
1F6
100
AcDbSymbolTableRecord
100
AcDbLinetypeTableRecord
  2
HIDDEN
 70
64
  3
- - - - - - - - - - - - - - - - - - - -
 72
65
 73
2
 40
0.2
 49
0.1
 74
0
 49
-0.1
 74
0
  0
LTYPE
  5
1F7
100
AcDbSymbolTableRecord
100
AcDbLinetypeTableRecord
  2
PHANTOM
 70
64
  3
_____ _ _ _____ _ _ _____ _ _ _____
 72
65
 73
6
 40
0.8
 49
0.45
 74
0
 49
-0.05
 74
0
 49
0.1
 74
0
 49
-0.05
 74
0
 49
0.1
 74
0
 49
-0.05
 74
0
  0
LTYPE
  5
1F8
100
AcDbSymbolTableRecord
100
AcDbLinetypeTableRecord
  2
DOT
 70
64
  3
. . . . . . . . . . . . . . . . . . . .
 72
65
 73
2
 40
0.2
 49
0.1
 74
0
 49
-0.1
 74
0
  0
LTYPE
  5
1F9
100
AcDbSymbolTableRecord
100
AcDbLinetypeTableRecord
  2
DASHED
 70
64
  3
- - - - - - - - - - - - - - - - - - - -
 72
65
 73
2
 40
0.2
 49
0.1
 74
0
 49
-0.1
 74
0
  0
ENDTAB
  0
TABLE
  2
LAYER
  5
2
100
AcDbSymbolTable
 70
36
  0
LAYER
  5
10
100
AcDbSymbolTableRecord
100
AcDbLayerTableRecord
  2
0
 70
0
 62
7
  6
CONTINUOUS
370
-3
390
F
  0
LAYER
  5
1FA
100
AcDbSymbolTableRecord
100
AcDbLayerTableRecord
  2
DEFAULT_1
 70
0
 62
7
  6
CENTER
370
-3
390
F
  0
LAYER
  5
1FB
100
AcDbSymbolTableRecord
100
AcDbLayerTableRecord
  2
DEFAULT_2
 70
0
 62
7
  6
HIDDEN
370
-3
390
F
  0
LAYER
  5
1FC
100
AcDbSymbolTableRecord
100
AcDbLayerTableRecord
  2
DEFAULT_3
 70
0
 62
7
  6
PHANTOM
370
-3
390
F
  0
LAYER
  5
1FD
100
AcDbSymbolTableRecord
100
AcDbLayerTableRecord
  2
00_COMPONENTS
 70
0
 62
7
  6
CONTINUOUS
370
-3
390
F
  0
LAYER
  5
1FE
100
AcDbSymbolTableRecord
100
AcDbLayerTableRecord
  2
01_1_DEFAULT_DATUMS
 70
0
 62
7
  6
CONTINUOUS
370
-3
390
F
  0
LAYER
  5
1FF
100
AcDbSymbolTableRecord
100
AcDbLayerTableRecord
  2
01_PLANES
 70
0
 62
7
  6
CONTINUOUS
370
-3
390
F
  0
LAYER
  5
200
100
AcDbSymbolTableRecord
100
AcDbLayerTableRecord
  2
02_COORD_SYS
 70
0
 62
7
  6
CONTINUOUS
370
-3
390
F
  0
LAYER
  5
201
100
AcDbSymbolTableRecord
100
AcDbLayerTableRecord
  2
03_AXES
 70
0
 62
7
  6
CONTINUOUS
370
-3
390
F
  0
LAYER
  5
202
100
AcDbSymbolTableRecord
100
AcDbLayerTableRecord
  2
04_POINTS
 70
0
 62
7
  6
CONTINUOUS
370
-3
390
F
  0
LAYER
  5
203
100
AcDbSymbolTableRecord
100
AcDbLayerTableRecord
  2
05_CURVES
 70
0
 62
7
  6
CONTINUOUS
370
-3
390
F
  0
LAYER
  5
204
100
AcDbSymbolTableRecord
100
AcDbLayerTableRecord
  2
06_SURFS
 70
0
 62
7
  6
CONTINUOUS
370
-3
390
F
  0
LAYER
  5
205
100
AcDbSymbolTableRecord
100
AcDbLayerTableRecord
  2
07_COSMETICS
 70
0
 62
7
  6
CONTINUOUS
370
-3
390
F
  0
LAYER
  5
206
100
AcDbSymbolTableRecord
100
AcDbLayerTableRecord
  2
10_NOTES
 70
0
 62
7
  6
CONTINUOUS
370
-3
390
F
  0
LAYER
  5
207
100
AcDbSymbolTableRecord
100
AcDbLayerTableRecord
  2
11_NOTES_PUB
 70
0
 62
7
  6
CONTINUOUS
370
-3
390
F
  0
LAYER
  5
208
100
AcDbSymbolTableRecord
100
AcDbLayerTableRecord
  2
13_REF_GTOL
 70
0
 62
7
  6
CONTINUOUS
370
-3
390
F
  0
LAYER
  5
209
100
AcDbSymbolTableRecord
100
AcDbLayerTableRecord
  2
16_MISC
 70
0
 62
7
  6
CONTINUOUS
370
-3
390
F
  0
LAYER
  5
20A
100
AcDbSymbolTableRecord
100
AcDbLayerTableRecord
  2
17_NO_PRINT
 70
0
 62
7
  6
CONTINUOUS
370
-3
390
F
  0
LAYER
  5
20B
100
AcDbSymbolTableRecord
100
AcDbLayerTableRecord
  2
18_DATUM_CAMS_JOINTS
 70
0
 62
7
  6
CONTINUOUS
370
-3
390
F
  0
LAYER
  5
20C
100
AcDbSymbolTableRecord
100
AcDbLayerTableRecord
  2
19_DATUM_FUNCTIONAL
 70
0
 62
7
  6
CONTINUOUS
370
-3
390
F
  0
LAYER
  5
20D
100
AcDbSymbolTableRecord
100
AcDbLayerTableRecord
  2
20_DATUM_KINEMATIC_SCHEME
 70
0
 62
7
  6
CONTINUOUS
370
-3
390
F
  0
ENDTAB
  0
TABLE
  2
STYLE
  5
3
100
AcDbSymbolTable
 70
1
  0
STYLE
  5
11
100
AcDbSymbolTableRecord
100
AcDbTextStyleTableRecord
  2
STANDARD
 70
0
 40
0.0
 41
1.0
 50
0.0
 71
0
 42
0.2
  3
ARIAL.TTF
  4

  0
STYLE
  5
20E
100
AcDbSymbolTableRecord
100
AcDbTextStyleTableRecord
  2
TEXTSTYLE_1
 70
0
 40
0.0
 41
0.8
 50
0.0
 71
0
 42
0.2
  3
gdt
  4

  0
ENDTAB
  0
TABLE
  2
VIEW
  5
6
100
AcDbSymbolTable
 70
0
  0
ENDTAB
  0
TABLE
  2
UCS
  5
7
100
AcDbSymbolTable
 70
0
  0
ENDTAB
  0
TABLE
  2
APPID
  5
9
100
AcDbSymbolTable
 70
1
  0
APPID
  5
20F
100
AcDbSymbolTableRecord
100
AcDbRegAppTableRecord
  2
ACAD
 70
0
  0
ENDTAB
  0
TABLE
  2
BLOCK_RECORD
  5
1
100
AcDbSymbolTable
 70
0
  0
BLOCK_RECORD
  5
210
100
AcDbSymbolTableRecord
100
AcDbBlockTableRecord
  2
*Model_Space
  0
BLOCK_RECORD
  5
211
100
AcDbSymbolTableRecord
100
AcDbBlockTableRecord
  2
*Paper_Space
  0
BLOCK_RECORD
  5
212
100
AcDbSymbolTableRecord
100
AcDbBlockTableRecord
  2
_FILLED
  0
ENDTAB
  0
TABLE
  2
DIMSTYLE
  5
A
100
AcDbSymbolTable
 70
1
100
AcDbDimStyleTable
 71
0
  0
DIMSTYLE
105
213
100
AcDbSymbolTableRecord
100
AcDbDimStyleTableRecord
  2
STANDARD
 70
0
  3

  4

 40
1.0
 41
1.3543531596
 42
1.0
 43
0.38
 44
1.0
 45
0.0
 46
0.0
 47
0.01
 48
0.01
140
1.8960944234
141
0.09
142
0.0
143
25.4
144
1.0
145
0.0
146
1.0
147
0.625
 71
1
 72
0
 73
0
 74
0
 75
0
 76
0
 77
1
 78
8
 79
2
170
0
171
1
172
0
173
0
174
0
175
0
176
0
177
0
178
0
270
2
179
2
271
2
272
2
273
2
274
2
275
0
280
0
281
0
282
0
283
1
284
8
285
0
286
0
287
3
288
0
340
11
278
46
341
212
342
212
343
212
344
212
  0
ENDTAB
  0
ENDSEC
  0
SECTION
  2
BLOCKS
  0
BLOCK
  5
20
100
AcDbEntity
  8
0
100
AcDbBlockBegin
  2
*Model_Space
 70
0
 10
0.0
 20
0.0
 30
0.0
  3
*Model_Space
  1

  0
ENDBLK
  5
21
100
AcDbEntity
  8
0
100
AcDbBlockEnd
  0
BLOCK
  5
1C
100
AcDbEntity
  8
0
100
AcDbBlockBegin
  2
*Paper_Space
 70
0
 10
0.0
 20
0.0
 30
0.0
  3
*Paper_Space
  1

  0
ENDBLK
  5
1D
100
AcDbEntity
  8
0
100
AcDbBlockEnd
  0
BLOCK
  5
214
100
AcDbEntity
  8
0
100
AcDbBlockBegin
  2
_FILLED
 70
64
 10
0.0
 20
0.0
  3
_FILLED
  1

  0
SOLID
  5
215
100
AcDbEntity
  8
0
  6
BYBLOCK
 62
0
100
AcDbTrace
 10
0.0
 20
0.0
 11
-1.0
 21
0.25
 12
-1.0
 22
-0.25
 13
-1.0
 23
-0.25
  0
ENDBLK
  5
216
100
AcDbEntity
  8
0
  6
BYBLOCK
 62
0
100
AcDbBlockEnd
  0
ENDSEC
  0
SECTION
  2
ENTITIES
  0
LINE
  5
217
100
AcDbEntity
  8
0
100
AcDbLine
 62
7
  6
BYLAYER
 10
13.4583250448
 20
52.4924507659
 11
13.4583250448
 21
78.2924507795
  0
LINE
  5
218
100
AcDbEntity
  8
0
100
AcDbLine
 62
7
  6
BYLAYER
 10
13.4583250448
 20
97.9924507795
 11
13.4583250448
 21
109.1924507659
  0
LINE
  5
219
100
AcDbEntity
  8
0
100
AcDbLine
 62
7
  6
BYLAYER
 10
13.5583250448
 20
78.2924507795
 11
13.5583250448
 21
109.0924507659
  0
LINE
  5
21A
100
AcDbEntity
  8
0
100
AcDbLine
 62
7
  6
BYLAYER
 10
14.793057118
 20
86.9433507659
 11
14.7934635322
 21
109.091773997
  0
LINE
  5
21B
100
AcDbEntity
  8
0
100
AcDbLine
 62
7
  6
BYLAYER
 10
22.724857118
 20
86.9433507659
 11
22.7251936242
 21
109.0917740004
  0
LINE
  5
21C
100
AcDbEntity
  8
0
100
AcDbLine
 62
7
  6
BYLAYER
 10
23.6839571178
 20
86.9433507659
 11
23.6843635268
 21
109.0917739994
  0
LINE
  5
21D
100
AcDbEntity
  8
0
100
AcDbLine
 62
7
  6
BYLAYER
 10
13.4583250448
 20
52.4924507659
 11
103.4583250448
 21
52.4924507659
  0
LINE
  5
21E
100
AcDbEntity
  8
0
100
AcDbLine
 62
7
  6
BYLAYER
 10
31.3748571178
 20
86.9433507659
 11
31.3751936196
 21
109.0917740027
  0
LINE
  5
21F
100
AcDbEntity
  8
0
100
AcDbLine
 62
7
  6
BYLAYER
 10
32.0929303126
 20
86.9433507659
 11
32.0929303126
 21
109.0917740029
  0
LINE
  5
220
100
AcDbEntity
  8
0
100
AcDbLine
 62
7
  6
BYLAYER
 10
13.4583250448
 20
59.4324507659
 11
103.4583250448
 21
59.4324507659
  0
LINE
  5
221
100
AcDbEntity
  8
0
100
AcDbLine
 62
7
  6
BYLAYER
 10
13.4583250448
 20
59.788823522
 11
103.4583250448
 21
59.788823522
  0
LINE
  5
222
100
AcDbEntity
  8
0
100
AcDbLine
 62
7
  6
BYLAYER
 10
40.0247303126
 20
86.9433507659
 11
40.0247303126
 21
109.091774005
  0
LINE
  5
223
100
AcDbEntity
  8
0
100
AcDbLine
 62
7
  6
BYLAYER
 10
40.7429303126
 20
86.9433507659
 11
40.7429303126
 21
109.0917740052
  0
LINE
  5
224
100
AcDbEntity
  8
0
100
AcDbLine
 62
7
  6
BYLAYER
 10
48.6747303126
 20
86.9433507659
 11
48.6747303126
 21
109.0917740072
  0
LINE
  5
225
100
AcDbEntity
  8
0
100
AcDbLine
 62
7
  6
BYLAYER
 10
49.4134303126
 20
86.9433507659
 11
49.4134303126
 21
109.0917740074
  0
LINE
  5
226
100
AcDbEntity
  8
0
100
AcDbLine
 62
7
  6
BYLAYER
 10
51.5117250448
 20
59.5883430045
 11
51.5117250448
 21
59.6529919284
  0
LINE
  5
227
100
AcDbEntity
  8
0
100
AcDbLine
 62
7
  6
BYLAYER
 10
55.6048779615
 20
59.6529919295
 11
55.6048779615
 21
59.5883430045
  0
LINE
  5
228
100
AcDbEntity
  8
0
100
AcDbLine
 62
7
  6
BYLAYER
 10
57.1043303126
 20
86.9433507659
 11
57.1043303126
 21
109.0917740095
  0
LINE
  5
229
100
AcDbEntity
  8
0
100
AcDbLine
 62
7
  6
BYLAYER
 10
103.4583250448
 20
78.2924507795
 11
103.3583250448
 21
78.2924507795
  0
LINE
  5
22A
100
AcDbEntity
  8
0
100
AcDbLine
 62
7
  6
BYLAYER
 10
13.4583250448
 20
78.2924507795
 11
13.5583250448
 21
78.2924507795
  0
LINE
  5
22B
100
AcDbEntity
  8
0
100
AcDbLine
 62
7
  6
BYLAYER
 10
59.8123197769
 20
86.9433507659
 11
59.8123197769
 21
109.0917740102
  0
LINE
  5
22C
100
AcDbEntity
  8
0
100
AcDbLine
 62
7
  6
BYLAYER
 10
13.5583250448
 20
86.0388236051
 11
103.3583250448
 21
86.0388236051
  0
LINE
  5
22D
100
AcDbEntity
  8
0
100
AcDbLine
 62
7
  6
BYLAYER
 10
13.5583250448
 20
86.0687048583
 11
103.3583250448
 21
86.0687048583
  0
LINE
  5
22E
100
AcDbEntity
  8
0
100
AcDbLine
 62
7
  6
BYLAYER
 10
13.5583250448
 20
86.9433507659
 11
103.3583250448
 21
86.9433507659
  0
LINE
  5
22F
100
AcDbEntity
  8
0
100
AcDbLine
 62
7
  6
BYLAYER
 10
67.5032197769
 20
86.9433507659
 11
67.5032197769
 21
109.0917740122
  0
LINE
  5
230
100
AcDbEntity
  8
0
100
AcDbLine
 62
7
  6
BYLAYER
 10
68.2419197769
 20
86.9433507659
 11
68.2419197769
 21
109.0917740124
  0
LINE
  5
231
100
AcDbEntity
  8
0
100
AcDbLine
 62
7
  6
BYLAYER
 10
76.1737197769
 20
86.9433507659
 11
76.1737197769
 21
109.0917740145
  0
LINE
  5
232
100
AcDbEntity
  8
0
100
AcDbLine
 62
7
  6
BYLAYER
 10
103.4583250448
 20
97.9924507795
 11
103.3583250448
 21
97.9924507795
  0
LINE
  5
233
100
AcDbEntity
  8
0
100
AcDbLine
 62
7
  6
BYLAYER
 10
13.5583250448
 20
97.9924507795
 11
13.4583250448
 21
97.9924507795
  0
LINE
  5
234
100
AcDbEntity
  8
0
100
AcDbLine
 62
7
  6
BYLAYER
 10
76.8919197769
 20
86.9433507659
 11
76.8919197769
 21
109.0917740147
  0
LINE
  5
235
100
AcDbEntity
  8
0
100
AcDbLine
 62
7
  6
BYLAYER
 10
14.7933426673
 20
101.1924507659
 11
22.7251426673
 21
101.1924507659
  0
LINE
  5
236
100
AcDbEntity
  8
0
100
AcDbLine
 62
7
  6
BYLAYER
 10
23.6842426634
 20
101.1924507659
 11
31.3751426634
 21
101.1924507659
  0
LINE
  5
237
100
AcDbEntity
  8
0
100
AcDbLine
 62
7
  6
BYLAYER
 10
32.0929303126
 20
101.1924507659
 11
40.0247303126
 21
101.1924507659
  0
LINE
  5
238
100
AcDbEntity
  8
0
100
AcDbLine
 62
7
  6
BYLAYER
 10
40.7429303126
 20
101.1924507659
 11
48.6747303126
 21
101.1924507659
  0
LINE
  5
239
100
AcDbEntity
  8
0
100
AcDbLine
 62
7
  6
BYLAYER
 10
49.4134303126
 20
101.1924507659
 11
57.1043303126
 21
101.1924507659
  0
LINE
  5
23A
100
AcDbEntity
  8
0
100
AcDbLine
 62
7
  6
BYLAYER
 10
59.8123197769
 20
101.1924507659
 11
67.5032197769
 21
101.1924507659
  0
LINE
  5
23B
100
AcDbEntity
  8
0
100
AcDbLine
 62
7
  6
BYLAYER
 10
68.2419197769
 20
101.1924507659
 11
76.1737197769
 21
101.1924507659
  0
LINE
  5
23C
100
AcDbEntity
  8
0
100
AcDbLine
 62
7
  6
BYLAYER
 10
76.8919197769
 20
101.1924507659
 11
84.8237197769
 21
101.1924507659
  0
LINE
  5
23D
100
AcDbEntity
  8
0
100
AcDbLine
 62
7
  6
BYLAYER
 10
85.5415074261
 20
101.1924507659
 11
93.2324074261
 21
101.1924507659
  0
LINE
  5
23E
100
AcDbEntity
  8
0
100
AcDbLine
 62
7
  6
BYLAYER
 10
94.1915074222
 20
101.1924507659
 11
102.1233074222
 21
101.1924507659
  0
LINE
  5
23F
100
AcDbEntity
  8
0
100
AcDbLine
 62
7
  6
BYLAYER
 10
84.8237197769
 20
86.9433507659
 11
84.8237197769
 21
109.0917740168
  0
LINE
  5
240
100
AcDbEntity
  8
0
100
AcDbLine
 62
7
  6
BYLAYER
 10
85.5417929717
 20
86.9433507659
 11
85.5413865628
 21
109.0917740157
  0
LINE
  5
241
100
AcDbEntity
  8
0
100
AcDbLine
 62
7
  6
BYLAYER
 10
103.4583250448
 20
108.1924507795
 11
103.3583250448
 21
108.1924507795
  0
LINE
  5
242
100
AcDbEntity
  8
0
100
AcDbLine
 62
7
  6
BYLAYER
 10
13.5583250448
 20
108.1924507795
 11
13.4583250448
 21
108.1924507795
  0
LINE
  5
243
100
AcDbEntity
  8
0
100
AcDbLine
 62
7
  6
BYLAYER
 10
94.1914564653
 20
109.0924507659
 11
93.2323564699
 21
109.0924507659
  0
LINE
  5
244
100
AcDbEntity
  8
0
100
AcDbLine
 62
7
  6
BYLAYER
 10
85.5414564699
 20
109.0924507659
 11
84.8237197769
 21
109.0924507659
  0
LINE
  5
245
100
AcDbEntity
  8
0
100
AcDbLine
 62
7
  6
BYLAYER
 10
76.8919197769
 20
109.0924507659
 11
76.1737197769
 21
109.0924507659
  0
LINE
  5
246
100
AcDbEntity
  8
0
100
AcDbLine
 62
7
  6
BYLAYER
 10
68.2419197769
 20
109.0924507659
 11
67.5032197769
 21
109.0924507659
  0
LINE
  5
247
100
AcDbEntity
  8
0
100
AcDbLine
 62
7
  6
BYLAYER
 10
59.8123197769
 20
109.0924507659
 11
57.1043303126
 21
109.0924507659
  0
LINE
  5
248
100
AcDbEntity
  8
0
100
AcDbLine
 62
7
  6
BYLAYER
 10
49.4134303126
 20
109.0924507659
 11
48.6747303126
 21
109.0924507659
  0
LINE
  5
249
100
AcDbEntity
  8
0
100
AcDbLine
 62
7
  6
BYLAYER
 10
40.7429303126
 20
109.0924507659
 11
40.0247303126
 21
109.0924507659
  0
LINE
  5
24A
100
AcDbEntity
  8
0
100
AcDbLine
 62
7
  6
BYLAYER
 10
32.0929303126
 20
109.0924507659
 11
31.3751936196
 21
109.0924507659
  0
LINE
  5
24B
100
AcDbEntity
  8
0
100
AcDbLine
 62
7
  6
BYLAYER
 10
23.6842936196
 20
109.0924507659
 11
22.7251936242
 21
109.0924507659
  0
LINE
  5
24C
100
AcDbEntity
  8
0
100
AcDbLine
 62
7
  6
BYLAYER
 10
13.4583250448
 20
109.0924507659
 11
14.7933936242
 21
109.0924507659
  0
LINE
  5
24D
100
AcDbEntity
  8
0
100
AcDbLine
 62
7
  6
BYLAYER
 10
102.1232564653
 20
109.0924507659
 11
103.4583250448
 21
109.0924507659
  0
LINE
  5
24E
100
AcDbEntity
  8
0
100
AcDbLine
 62
7
  6
BYLAYER
 10
13.4583250448
 20
109.1924507659
 11
103.4583250447
 21
109.1924507659
  0
LINE
  5
24F
100
AcDbEntity
  8
0
100
AcDbLine
 62
7
  6
BYLAYER
 10
93.2326929717
 20
86.9433507659
 11
93.2323564699
 21
109.091774019
  0
LINE
  5
250
100
AcDbEntity
  8
0
100
AcDbLine
 62
7
  6
BYLAYER
 10
94.1917929715
 20
86.9433507659
 11
94.1913865573
 21
109.0917740179
  0
LINE
  5
251
100
AcDbEntity
  8
0
100
AcDbLine
 62
7
  6
BYLAYER
 10
96.5082779675
 20
59.6007592206
 11
96.5082779675
 21
59.6654145645
  0
LINE
  5
252
100
AcDbEntity
  8
0
100
AcDbLine
 62
7
  6
BYLAYER
 10
100.6083099338
 20
59.6654071343
 11
100.6082779829
 21
59.6007577342
  0
LINE
  5
253
100
AcDbEntity
  8
0
100
AcDbLine
 62
7
  6
BYLAYER
 10
102.1235929715
 20
86.9433507659
 11
102.1232564653
 21
109.0917740213
  0
LINE
  5
254
100
AcDbEntity
  8
0
100
AcDbLine
 62
7
  6
BYLAYER
 10
103.3583250448
 20
78.2924507795
 11
103.3583250448
 21
109.0924507659
  0
LINE
  5
255
100
AcDbEntity
  8
0
100
AcDbLine
 62
7
  6
BYLAYER
 10
103.4583250448
 20
52.4924507659
 11
103.4583250448
 21
78.2924507795
  0
LINE
  5
256
100
AcDbEntity
  8
0
100
AcDbLine
 62
7
  6
BYLAYER
 10
103.4583250448
 20
97.9924507795
 11
103.4583250447
 21
109.1924507659
  0
SPLINE
  5
257
100
AcDbEntity
  8
0
100
AcDbSpline
 62
7
  6
BYLAYER
 70
0
 71
3
 72
31
 73
27
 74
0
 42
0.0000001
 43
0.0000001
 44
0.0000000001
 40
0.0
 40
0.0
 40
0.0
 40
0.0
 40
0.003488818
 40
0.0110620691
 40
0.0231496399
 40
0.0397518798
 40
0.0607249326
 40
0.0858920389
 40
0.1150359803
 40
0.1478647735
 40
0.2233299029
 40
0.309413736
 40
0.4028325114
 40
0.4999950098
 40
0.5971593347
 40
0.6905839895
 40
0.7766739239
 40
0.852143036
 40
0.8849719467
 40
0.9141155037
 40
0.9392819208
 40
0.9602534274
 40
0.976853964
 40
0.9889400247
 40
0.9965118842
 40
1.0
 40
1.0
 40
1.0
 40
1.0
 10
100.6082832909
 20
59.6007577405
 30
0.0
 10
100.6083200427
 20
59.5959663817
 30
0.0
 10
100.5923236282
 20
59.5858967665
 30
0.0
 10
100.5640028571
 20
59.5781781259
 30
0.0
 10
100.5139415391
 20
59.5677638148
 30
0.0
 10
100.4468796111
 20
59.5585919888
 30
0.0
 10
100.3610134209
 20
59.5491803217
 30
0.0
 10
100.2580598178
 20
59.5403660959
 30
0.0
 10
100.1386475153
 20
59.5320189617
 30
0.0
 10
99.9502061695
 20
59.5212313239
 30
0.0
 10
99.6834609772
 20
59.5101194015
 30
0.0
 10
99.3334167106
 20
59.5005263648
 30
0.0
 10
98.9534856148
 20
59.4946064651
 30
0.0
 10
98.5582977442
 20
59.4926048975
 30
0.0
 10
98.1631018014
 20
59.4946063376
 30
0.0
 10
97.7831517305
 20
59.500525807
 30
0.0
 10
97.4330855601
 20
59.510119891
 30
0.0
 10
97.1663263612
 20
59.5212322683
 30
0.0
 10
96.9778799536
 20
59.5320208525
 30
0.0
 10
96.858469002
 20
59.5403683777
 30
0.0
 10
96.7555189717
 20
59.5491823651
 30
0.0
 10
96.6696582858
 20
59.5585941213
 30
0.0
 10
96.6026027179
 20
59.5677654006
 30
0.0
 10
96.5525482936
 20
59.5781800544
 30
0.0
 10
96.5242314578
 20
59.5858971615
 30
0.0
 10
96.5082399612
 20
59.5959688362
 30
0.0
 10
96.5082779652
 20
59.6007592208
 30
0.0
  0
SPLINE
  5
258
100
AcDbEntity
  8
0
100
AcDbSpline
 62
7
  6
BYLAYER
 70
0
 71
3
 72
27
 73
23
 74
0
 42
0.0000001
 43
0.0000001
 44
0.0000000001
 40
0.0
 40
0.0
 40
0.0
 40
0.0
 40
0.0076503004
 40
0.019219383
 40
0.0346817672
 40
0.0539611351
 40
0.1033118464
 40
0.1657098731
 40
0.2391114981
 40
0.3211337569
 40
0.4090629816
 40
0.5000002455
 40
0.5909374874
 40
0.6788666754
 40
0.7608888562
 40
0.8342904006
 40
0.8966883424
 40
0.9460389623
 40
0.9653183009
 40
0.9807806572
 40
0.992349712
 40
1.0
 40
1.0
 40
1.0
 40
1.0
 10
55.6048779615
 20
59.5883624037
 30
0.0
 10
55.5953494214
 20
59.5840375108
 30
0.0
 10
55.5698605845
 20
59.5769041774
 30
0.0
 10
55.5233526944
 20
59.5678122564
 30
0.0
 10
55.4605894573
 20
59.5588922356
 30
0.0
 10
55.3462730677
 20
59.5462205647
 30
0.0
 10
55.1675336392
 20
59.5324296838
 30
0.0
 10
54.9146544231
 20
59.5186796489
 30
0.0
 10
54.6169153861
 20
59.5074140575
 30
0.0
 10
54.2841550496
 20
59.4990446601
 30
0.0
 10
53.927340755
 20
59.4938990381
 30
0.0
 10
53.5583005245
 20
59.4921569174
 30
0.0
 10
53.1892603444
 20
59.4938990609
 30
0.0
 10
52.8324462368
 20
59.4990446879
 30
0.0
 10
52.499686168
 20
59.5074141097
 30
0.0
 10
52.2019474644
 20
59.5186796977
 30
0.0
 10
51.9490685999
 20
59.5324297342
 30
0.0
 10
51.7703294543
 20
59.5462206203
 30
0.0
 10
51.6560132661
 20
59.5588922639
 30
0.0
 10
51.5932501445
 20
59.5678122679
 30
0.0
 10
51.5467423467
 20
59.5769041827
 30
0.0
 10
51.5212535694
 20
59.5840375197
 30
0.0
 10
51.5117250448
 20
59.5883624056
 30
0.0
  0
SPLINE
  5
259
100
AcDbEntity
  8
0
100
AcDbSpline
 62
7
  6
BYLAYER
 70
0
 71
3
 72
31
 73
27
 74
0
 42
0.0000001
 43
0.0000001
 44
0.0000000001
 40
0.0
 40
0.0
 40
0.0
 40
0.0
 40
0.0034959601
 40
0.0110693207
 40
0.023156692
 40
0.0397671259
 40
0.0607531519
 40
0.0859305468
 40
0.1150791719
 40
0.1479084834
 40
0.223367235
 40
0.3094412432
 40
0.4028465759
 40
0.4999865192
 40
0.597126234
 40
0.6905330012
 40
0.7766112105
 40
0.8520759228
 40
0.8849095056
 40
0.9140617906
 40
0.9392415306
 40
0.9602299928
 40
0.9768420653
 40
0.988930129
 40
0.9965039242
 40
1.0
 40
1.0
 40
1.0
 40
1.0
 10
20.6081597629
 20
59.6241859014
 30
0.0
 10
20.6081597629
 20
59.6193850322
 30
0.0
 10
20.5921786699
 20
59.6093548449
 30
0.0
 10
20.5638305436
 20
59.6015975064
 30
0.0
 10
20.5137737732
 20
59.591201721
 30
0.0
 10
20.4466835302
 20
59.5820279895
 30
0.0
 10
20.3607830141
 20
59.5726247399
 30
0.0
 10
20.2577993995
 20
59.5638138784
 30
0.0
 10
20.1383767181
 20
59.555470834
 30
0.0
 10
19.9499538765
 20
59.5446888176
 30
0.0
 10
19.6832545503
 20
59.5335821673
 30
0.0
 10
19.3332829036
 20
59.5239943928
 30
0.0
 10
18.9534494887
 20
59.5180775589
 30
0.0
 10
18.5583810158
 20
59.5160762025
 30
0.0
 10
18.1633105723
 20
59.518076764
 30
0.0
 10
17.7834697063
 20
59.5239918985
 30
0.0
 10
17.433482105
 20
59.533579016
 30
0.0
 10
17.1667629602
 20
59.5446860617
 30
0.0
 10
16.9783210057
 20
59.5554678929
 30
0.0
 10
16.8588841653
 20
59.5638109105
 30
0.0
 10
16.7558890142
 20
59.5726227163
 30
0.0
 10
16.6699796284
 20
59.5820264191
 30
0.0
 10
16.6028829701
 20
59.5912006353
 30
0.0
 10
16.5528222164
 20
59.6015972417
 30
0.0
 10
16.5244728563
 20
59.6093547586
 30
0.0
 10
16.5084903266
 20
59.6193848609
 30
0.0
 10
16.5084903266
 20
59.6241858889
 30
0.0
  0
SPLINE
  5
25A
100
AcDbEntity
  8
0
100
AcDbSpline
 62
7
  6
BYLAYER
 70
0
 71
3
 72
29
 73
25
 74
0
 42
0.0000001
 43
0.0000001
 44
0.0000000001
 40
0.0
 40
0.0
 40
0.0
 40
0.0
 40
0.0034959689
 40
0.0110693484
 40
0.0231567501
 40
0.0397672256
 40
0.0607533044
 40
0.0859307625
 40
0.1479075996
 40
0.2233665406
 40
0.3094407649
 40
0.4028463321
 40
0.4999865192
 40
0.5971264779
 40
0.6905334796
 40
0.7766119049
 40
0.8520768067
 40
0.9140615749
 40
0.9392413781
 40
0.960229893
 40
0.9768420072
 40
0.9889301012
 40
0.9965039155
 40
1.0
 40
1.0
 40
1.0
 40
1.0
 10
29.2081799192
 20
59.6241859004
 30
0.0
 10
29.2081799192
 20
59.619970503
 30
0.0
 10
29.1941477406
 20
59.6111635087
 30
0.0
 10
29.1692566971
 20
59.6043521936
 30
0.0
 10
29.1253044533
 20
59.5952241395
 30
0.0
 10
29.0663956948
 20
59.5871694379
 30
0.0
 10
28.9909721846
 20
59.5789114361
 30
0.0
 10
28.861122641
 20
59.5678133017
 30
0.0
 10
28.66533599
 20
59.555869399
 30
0.0
 10
28.3960763621
 20
59.5446235974
 30
0.0
 10
28.0887732827
 20
59.5362152918
 30
0.0
 10
27.7552642747
 20
59.5310168522
 30
0.0
 10
27.4083741902
 20
59.529260693
 30
0.0
 10
27.0614823745
 20
59.5310161505
 30
0.0
 10
26.7279668263
 20
59.5362131155
 30
0.0
 10
26.4206497307
 20
59.5446207853
 30
0.0
 10
26.151368314
 20
59.5558672424
 30
0.0
 10
25.9555619745
 20
59.5678103269
 30
0.0
 10
25.8256971673
 20
59.578909652
 30
0.0
 10
25.7502658702
 20
59.5871680605
 30
0.0
 10
25.6913514785
 20
59.5952231859
 30
0.0
 10
25.6473957373
 20
59.6043519612
 30
0.0
 10
25.6225036104
 20
59.6111634329
 30
0.0
 10
25.6084701703
 20
59.6199703526
 30
0.0
 10
25.6084701703
 20
59.6241858894
 30
0.0
  0
SPLINE
  5
25B
100
AcDbEntity
  8
0
100
AcDbSpline
 62
7
  6
BYLAYER
 70
0
 71
3
 72
29
 73
25
 74
0
 42
0.0000001
 43
0.0000001
 44
0.0000000001
 40
0.0
 40
0.0
 40
0.0
 40
0.0
 40
0.0034959689
 40
0.0110693484
 40
0.0231567501
 40
0.0397672257
 40
0.0607533044
 40
0.0859307625
 40
0.1479075996
 40
0.2233665406
 40
0.3094407649
 40
0.4028463321
 40
0.4999865192
 40
0.5971264779
 40
0.6905334796
 40
0.7766119049
 40
0.8520768067
 40
0.9140615749
 40
0.9392413781
 40
0.960229893
 40
0.9768420072
 40
0.9889301012
 40
0.9965039154
 40
1.0
 40
1.0
 40
1.0
 40
1.0
 10
37.8581799192
 20
59.6241859003
 30
0.0
 10
37.8581799192
 20
59.619970503
 30
0.0
 10
37.8441477406
 20
59.6111635087
 30
0.0
 10
37.8192566971
 20
59.6043521936
 30
0.0
 10
37.7753044532
 20
59.5952241395
 30
0.0
 10
37.7163956947
 20
59.5871694379
 30
0.0
 10
37.6409721845
 20
59.5789114361
 30
0.0
 10
37.5111226409
 20
59.5678133017
 30
0.0
 10
37.3153359899
 20
59.555869399
 30
0.0
 10
37.046076362
 20
59.5446235974
 30
0.0
 10
36.7387732827
 20
59.5362152918
 30
0.0
 10
36.4052642747
 20
59.5310168522
 30
0.0
 10
36.0583741902
 20
59.529260693
 30
0.0
 10
35.7114823746
 20
59.5310161505
 30
0.0
 10
35.3779668264
 20
59.5362131155
 30
0.0
 10
35.0706497308
 20
59.5446207853
 30
0.0
 10
34.8013683141
 20
59.5558672424
 30
0.0
 10
34.6055619746
 20
59.5678103269
 30
0.0
 10
34.4756971674
 20
59.578909652
 30
0.0
 10
34.4002658703
 20
59.5871680605
 30
0.0
 10
34.3413514786
 20
59.5952231859
 30
0.0
 10
34.2973957373
 20
59.6043519612
 30
0.0
 10
34.2725036104
 20
59.6111634329
 30
0.0
 10
34.2584701703
 20
59.6199703526
 30
0.0
 10
34.2584701703
 20
59.6241858894
 30
0.0
  0
SPLINE
  5
25C
100
AcDbEntity
  8
0
100
AcDbSpline
 62
7
  6
BYLAYER
 70
0
 71
3
 72
29
 73
25
 74
0
 42
0.0000001
 43
0.0000001
 44
0.0000000001
 40
0.0
 40
0.0
 40
0.0
 40
0.0
 40
0.0034959689
 40
0.0110693484
 40
0.0231567501
 40
0.0397672256
 40
0.0607533044
 40
0.0859307625
 40
0.1479075996
 40
0.2233665406
 40
0.3094407649
 40
0.4028463321
 40
0.4999865192
 40
0.5971264779
 40
0.6905334796
 40
0.7766119049
 40
0.8520768067
 40
0.9140615749
 40
0.9392413781
 40
0.960229893
 40
0.9768420072
 40
0.9889301012
 40
0.9965039155
 40
1.0
 40
1.0
 40
1.0
 40
1.0
 10
46.5096799192
 20
59.6241859004
 30
0.0
 10
46.5096799192
 20
59.619970503
 30
0.0
 10
46.4956477406
 20
59.6111635087
 30
0.0
 10
46.4707566971
 20
59.6043521936
 30
0.0
 10
46.4268044532
 20
59.5952241395
 30
0.0
 10
46.3678956948
 20
59.5871694379
 30
0.0
 10
46.2924721845
 20
59.5789114361
 30
0.0
 10
46.162622641
 20
59.5678133017
 30
0.0
 10
45.9668359899
 20
59.555869399
 30
0.0
 10
45.6975763621
 20
59.5446235974
 30
0.0
 10
45.3902732827
 20
59.5362152918
 30
0.0
 10
45.0567642747
 20
59.5310168522
 30
0.0
 10
44.7098741902
 20
59.529260693
 30
0.0
 10
44.3629823746
 20
59.5310161505
 30
0.0
 10
44.0294668263
 20
59.5362131155
 30
0.0
 10
43.7221497307
 20
59.5446207853
 30
0.0
 10
43.452868314
 20
59.5558672424
 30
0.0
 10
43.2570619745
 20
59.5678103269
 30
0.0
 10
43.1271971674
 20
59.578909652
 30
0.0
 10
43.0517658702
 20
59.5871680605
 30
0.0
 10
42.9928514785
 20
59.5952231859
 30
0.0
 10
42.9488957373
 20
59.6043519612
 30
0.0
 10
42.9240036104
 20
59.6111634329
 30
0.0
 10
42.9099701703
 20
59.6199703526
 30
0.0
 10
42.9099701703
 20
59.6241858894
 30
0.0
  0
SPLINE
  5
25D
100
AcDbEntity
  8
0
100
AcDbSpline
 62
7
  6
BYLAYER
 70
0
 71
3
 72
31
 73
27
 74
0
 42
0.0000001
 43
0.0000001
 44
0.0000000001
 40
0.0
 40
0.0
 40
0.0
 40
0.0
 40
0.0034959601
 40
0.0110693207
 40
0.023156692
 40
0.0397671258
 40
0.0607531519
 40
0.0859305468
 40
0.1150791719
 40
0.1479084834
 40
0.2233672349
 40
0.3094412432
 40
0.4028465759
 40
0.4999865192
 40
0.597126234
 40
0.6905330012
 40
0.7766112105
 40
0.8520759228
 40
0.8849095056
 40
0.9140617906
 40
0.9392415306
 40
0.9602299928
 40
0.9768420654
 40
0.988930129
 40
0.9965039242
 40
1.0
 40
1.0
 40
1.0
 40
1.0
 10
65.6047126797
 20
59.6241859014
 30
0.0
 10
65.6047126797
 20
59.6193850322
 30
0.0
 10
65.5887315867
 20
59.6093548449
 30
0.0
 10
65.5603834604
 20
59.6015975064
 30
0.0
 10
65.51032669
 20
59.591201721
 30
0.0
 10
65.4432364471
 20
59.5820279895
 30
0.0
 10
65.3573359309
 20
59.5726247399
 30
0.0
 10
65.2543523164
 20
59.5638138784
 30
0.0
 10
65.134929635
 20
59.555470834
 30
0.0
 10
64.9465067933
 20
59.5446888176
 30
0.0
 10
64.6798074671
 20
59.5335821673
 30
0.0
 10
64.3298358204
 20
59.5239943928
 30
0.0
 10
63.9500024054
 20
59.5180775589
 30
0.0
 10
63.5549339326
 20
59.5160762025
 30
0.0
 10
63.159863489
 20
59.518076764
 30
0.0
 10
62.780022623
 20
59.5239918985
 30
0.0
 10
62.4300350217
 20
59.533579016
 30
0.0
 10
62.1633158768
 20
59.5446860617
 30
0.0
 10
61.9748739223
 20
59.5554678929
 30
0.0
 10
61.8554370819
 20
59.5638109105
 30
0.0
 10
61.7524419309
 20
59.5726227163
 30
0.0
 10
61.666532545
 20
59.5820264191
 30
0.0
 10
61.5994358868
 20
59.5912006353
 30
0.0
 10
61.5493751331
 20
59.6015972417
 30
0.0
 10
61.521025773
 20
59.6093547586
 30
0.0
 10
61.5050432433
 20
59.6193848609
 30
0.0
 10
61.5050432433
 20
59.6241858889
 30
0.0
  0
SPLINE
  5
25E
100
AcDbEntity
  8
0
100
AcDbSpline
 62
7
  6
BYLAYER
 70
0
 71
3
 72
29
 73
25
 74
0
 42
0.0000001
 43
0.0000001
 44
0.0000000001
 40
0.0
 40
0.0
 40
0.0
 40
0.0
 40
0.0034959689
 40
0.0110693484
 40
0.0231567501
 40
0.0397672256
 40
0.0607533044
 40
0.0859307625
 40
0.1479075996
 40
0.2233665406
 40
0.3094407649
 40
0.4028463321
 40
0.4999865192
 40
0.5971264779
 40
0.6905334796
 40
0.7766119049
 40
0.8520768067
 40
0.9140615749
 40
0.9392413781
 40
0.960229893
 40
0.9768420072
 40
0.9889301012
 40
0.9965039154
 40
1.0
 40
1.0
 40
1.0
 40
1.0
 10
74.204732836
 20
59.6241859004
 30
0.0
 10
74.204732836
 20
59.619970503
 30
0.0
 10
74.1907006574
 20
59.6111635087
 30
0.0
 10
74.1658096139
 20
59.6043521936
 30
0.0
 10
74.12185737
 20
59.5952241395
 30
0.0
 10
74.0629486116
 20
59.5871694379
 30
0.0
 10
73.9875251013
 20
59.5789114361
 30
0.0
 10
73.8576755578
 20
59.5678133017
 30
0.0
 10
73.6618889067
 20
59.555869399
 30
0.0
 10
73.3926292789
 20
59.5446235974
 30
0.0
 10
73.0853261995
 20
59.5362152918
 30
0.0
 10
72.7518171915
 20
59.5310168522
 30
0.0
 10
72.404927107
 20
59.529260693
 30
0.0
 10
72.0580352913
 20
59.5310161505
 30
0.0
 10
71.7245197431
 20
59.5362131155
 30
0.0
 10
71.4172026475
 20
59.5446207853
 30
0.0
 10
71.1479212308
 20
59.5558672424
 30
0.0
 10
70.9521148913
 20
59.5678103269
 30
0.0
 10
70.8222500841
 20
59.578909652
 30
0.0
 10
70.746818787
 20
59.5871680605
 30
0.0
 10
70.6879043953
 20
59.5952231859
 30
0.0
 10
70.643948654
 20
59.6043519612
 30
0.0
 10
70.6190565272
 20
59.6111634329
 30
0.0
 10
70.605023087
 20
59.6199703526
 30
0.0
 10
70.605023087
 20
59.6241858894
 30
0.0
  0
SPLINE
  5
25F
100
AcDbEntity
  8
0
100
AcDbSpline
 62
7
  6
BYLAYER
 70
0
 71
3
 72
29
 73
25
 74
0
 42
0.0000001
 43
0.0000001
 44
0.0000000001
 40
0.0
 40
0.0
 40
0.0
 40
0.0
 40
0.0034959689
 40
0.0110693484
 40
0.0231567501
 40
0.0397672256
 40
0.0607533044
 40
0.0859307625
 40
0.1479075996
 40
0.2233665406
 40
0.3094407649
 40
0.4028463321
 40
0.4999865192
 40
0.5971264779
 40
0.6905334796
 40
0.7766119049
 40
0.8520768067
 40
0.9140615749
 40
0.9392413781
 40
0.960229893
 40
0.9768420072
 40
0.9889301012
 40
0.9965039155
 40
1.0
 40
1.0
 40
1.0
 40
1.0
 10
82.858132836
 20
59.6241859004
 30
0.0
 10
82.858132836
 20
59.619970503
 30
0.0
 10
82.8441006574
 20
59.6111635087
 30
0.0
 10
82.8192096139
 20
59.6043521936
 30
0.0
 10
82.77525737
 20
59.5952241395
 30
0.0
 10
82.7163486116
 20
59.5871694379
 30
0.0
 10
82.6409251014
 20
59.5789114361
 30
0.0
 10
82.5110755578
 20
59.5678133017
 30
0.0
 10
82.3152889067
 20
59.555869399
 30
0.0
 10
82.0460292789
 20
59.5446235974
 30
0.0
 10
81.7387261995
 20
59.5362152918
 30
0.0
 10
81.4052171915
 20
59.5310168522
 30
0.0
 10
81.058327107
 20
59.529260693
 30
0.0
 10
80.7114352913
 20
59.5310161505
 30
0.0
 10
80.377919743
 20
59.5362131155
 30
0.0
 10
80.0706026474
 20
59.5446207853
 30
0.0
 10
79.8013212307
 20
59.5558672424
 30
0.0
 10
79.6055148912
 20
59.5678103269
 30
0.0
 10
79.475650084
 20
59.578909652
 30
0.0
 10
79.4002187869
 20
59.5871680605
 30
0.0
 10
79.3413043953
 20
59.5952231859
 30
0.0
 10
79.297348654
 20
59.6043519612
 30
0.0
 10
79.2724565272
 20
59.6111634329
 30
0.0
 10
79.258423087
 20
59.6199703526
 30
0.0
 10
79.258423087
 20
59.6241858894
 30
0.0
  0
SPLINE
  5
260
100
AcDbEntity
  8
0
100
AcDbSpline
 62
7
  6
BYLAYER
 70
0
 71
3
 72
29
 73
25
 74
0
 42
0.0000001
 43
0.0000001
 44
0.0000000001
 40
0.0
 40
0.0
 40
0.0
 40
0.0
 40
0.0034959689
 40
0.0110693485
 40
0.0231567501
 40
0.0397672257
 40
0.0607533044
 40
0.0859307625
 40
0.1479075996
 40
0.2233665406
 40
0.3094407649
 40
0.4028463321
 40
0.4999865192
 40
0.5971264779
 40
0.6905334796
 40
0.7766119049
 40
0.8520768067
 40
0.9140615748
 40
0.939241378
 40
0.960229893
 40
0.9768420072
 40
0.9889301012
 40
0.9965039154
 40
1.0
 40
1.0
 40
1.0
 40
1.0
 10
91.5081328359
 20
59.6241859003
 30
0.0
 10
91.5081328359
 20
59.6199705029
 30
0.0
 10
91.4941006573
 20
59.6111635087
 30
0.0
 10
91.4692096138
 20
59.6043521935
 30
0.0
 10
91.4252573699
 20
59.5952241394
 30
0.0
 10
91.3663486114
 20
59.5871694379
 30
0.0
 10
91.2909251012
 20
59.5789114361
 30
0.0
 10
91.1610755576
 20
59.5678133017
 30
0.0
 10
90.9652889065
 20
59.555869399
 30
0.0
 10
90.6960292787
 20
59.5446235974
 30
0.0
 10
90.3887261994
 20
59.5362152918
 30
0.0
 10
90.0552171914
 20
59.5310168522
 30
0.0
 10
89.708327107
 20
59.529260693
 30
0.0
 10
89.3614352914
 20
59.5310161505
 30
0.0
 10
89.0279197432
 20
59.5362131155
 30
0.0
 10
88.7206026476
 20
59.5446207853
 30
0.0
 10
88.4513212309
 20
59.5558672424
 30
0.0
 10
88.2555148915
 20
59.5678103269
 30
0.0
 10
88.1256500842
 20
59.578909652
 30
0.0
 10
88.0502187871
 20
59.5871680604
 30
0.0
 10
87.9913043954
 20
59.5952231859
 30
0.0
 10
87.9473486541
 20
59.6043519611
 30
0.0
 10
87.9224565273
 20
59.6111634329
 30
0.0
 10
87.9084230871
 20
59.6199703526
 30
0.0
 10
87.9084230871
 20
59.6241858894
 30
0.0
  0
SPLINE
  5
261
100
AcDbEntity
  8
0
100
AcDbSpline
 62
7
  6
BYLAYER
 70
0
 71
3
 72
29
 73
25
 74
0
 42
0.0000001
 43
0.0000001
 44
0.0000000001
 40
0.0
 40
0.0
 40
0.0
 40
0.0
 40
0.0066537914
 40
0.0173428921
 40
0.0320781906
 40
0.0507831146
 40
0.0732994081
 40
0.0994497311
 40
0.1617702997
 40
0.2356436241
 40
0.3185606962
 40
0.4077004052
 40
0.5000031397
 40
0.592305747
 40
0.681444791
 40
0.7643609678
 40
0.8382332957
 40
0.9005525385
 40
0.926702449
 40
0.9492181277
 40
0.9679225652
 40
0.982657563
 40
0.9933463497
 40
1.0
 40
1.0
 40
1.0
 40
1.0
 10
51.5117250448
 20
59.6529925871
 30
0.0
 10
51.5195544628
 20
59.6576382986
 30
0.0
 10
51.5425116498
 20
59.6648641236
 30
0.0
 10
51.5852752059
 20
59.674115385
 30
0.0
 10
51.6450745085
 20
59.6831567175
 30
0.0
 10
51.7210940884
 20
59.6920645689
 30
0.0
 10
51.8128947855
 20
59.7006117109
 30
0.0
 10
51.9643160984
 20
59.7121119908
 30
0.0
 10
52.1861221568
 20
59.7244434496
 30
0.0
 10
52.4857002375
 20
59.7360622923
 30
0.0
 10
52.8220898366
 20
59.7446904698
 30
0.0
 10
53.1837638931
 20
59.750006897
 30
0.0
 10
53.5583142335
 20
59.7517991994
 30
0.0
 10
53.9328636638
 20
59.7500067345
 30
0.0
 10
54.2945354066
 20
59.744689958
 30
0.0
 10
54.6309215008
 20
59.7360616517
 30
0.0
 10
54.9304951827
 20
59.7244429153
 30
0.0
 10
55.1522974769
 20
59.7121111956
 30
0.0
 10
55.3037155764
 20
59.7006111137
 30
0.0
 10
55.3955141935
 20
59.6920639806
 30
0.0
 10
55.4715318586
 20
59.6831562556
 30
0.0
 10
55.5313296734
 20
59.6741152364
 30
0.0
 10
55.5740922287
 20
59.6648640909
 30
0.0
 10
55.5970487093
 20
59.6576382008
 30
0.0
 10
55.6048779615
 20
59.6529925882
 30
0.0
  0
SPLINE
  5
262
100
AcDbEntity
  8
0
100
AcDbSpline
 62
7
  6
BYLAYER
 70
0
 71
3
 72
31
 73
27
 74
0
 42
0.0000001
 43
0.0000001
 44
0.0000000001
 40
0.0
 40
0.0
 40
0.0
 40
0.0
 40
0.0034959608
 40
0.0110693234
 40
0.023156697
 40
0.0397671323
 40
0.0607531592
 40
0.0859305544
 40
0.1150791797
 40
0.1479084912
 40
0.2233672419
 40
0.3094412484
 40
0.4028465786
 40
0.4999865192
 40
0.5971262313
 40
0.690532996
 40
0.7766112035
 40
0.852075915
 40
0.8849094978
 40
0.914061783
 40
0.9392415233
 40
0.9602299863
 40
0.9768420603
 40
0.9889301263
 40
0.9965039236
 40
1.0
 40
1.0
 40
1.0
 40
1.0
 10
16.5084903266
 20
59.6241858889
 30
0.0
 10
16.5084903266
 20
59.6289867591
 30
0.0
 10
16.5244714282
 20
59.6390169447
 30
0.0
 10
16.5528195587
 20
59.6467742828
 30
0.0
 10
16.6028763388
 20
59.6571700675
 30
0.0
 10
16.6699665873
 20
59.6663437991
 30
0.0
 10
16.7558671071
 20
59.6757470483
 30
0.0
 10
16.8588507233
 20
59.6845579094
 30
0.0
 10
16.9782734054
 20
59.6929009533
 30
0.0
 10
17.166696246
 20
59.7036829692
 30
0.0
 10
17.4333955682
 20
59.7147896188
 30
0.0
 10
17.7833672075
 20
59.7243773929
 30
0.0
 10
18.1632006123
 20
59.7302942264
 30
0.0
 10
18.5582690737
 20
59.7322955826
 30
0.0
 10
18.9533395058
 20
59.7302950213
 30
0.0
 10
19.3331803617
 20
59.7243798871
 30
0.0
 10
19.6831679555
 20
59.7147927701
 30
0.0
 10
19.9498870964
 20
59.7036857251
 30
0.0
 10
20.1383290498
 20
59.6929038944
 30
0.0
 10
20.2577658909
 20
59.6845608773
 30
0.0
 10
20.3607610436
 20
59.6757490719
 30
0.0
 10
20.4466704332
 20
59.6663453694
 30
0.0
 10
20.513767097
 20
59.6571711532
 30
0.0
 10
20.5638278603
 20
59.6467745475
 30
0.0
 10
20.5921772246
 20
59.639017031
 30
0.0
 10
20.6081597629
 20
59.6289869303
 30
0.0
 10
20.6081597629
 20
59.6241859014
 30
0.0
  0
SPLINE
  5
263
100
AcDbEntity
  8
0
100
AcDbSpline
 62
7
  6
BYLAYER
 70
0
 71
3
 72
29
 73
25
 74
0
 42
0.0000001
 43
0.0000001
 44
0.0000000001
 40
0.0
 40
0.0
 40
0.0
 40
0.0
 40
0.0034959696
 40
0.0110693512
 40
0.0231567552
 40
0.0397672322
 40
0.0607533117
 40
0.0859307701
 40
0.1479076075
 40
0.2233665476
 40
0.3094407701
 40
0.4028463349
 40
0.4999865193
 40
0.5971264751
 40
0.6905334744
 40
0.7766118979
 40
0.8520767988
 40
0.9140615672
 40
0.9392413708
 40
0.9602298865
 40
0.9768420022
 40
0.9889300985
 40
0.9965039148
 40
1.0
 40
1.0
 40
1.0
 40
1.0
 10
42.9099701703
 20
59.6241858894
 30
0.0
 10
42.9099701703
 20
59.6284012876
 30
0.0
 10
42.9240023566
 20
59.6372082804
 30
0.0
 10
42.9488934038
 20
59.6440195952
 30
0.0
 10
42.9928456562
 20
59.6531476487
 30
0.0
 10
43.0517544195
 20
59.6612023502
 30
0.0
 10
43.127177933
 20
59.6694603517
 30
0.0
 10
43.257027478
 20
59.6805584856
 30
0.0
 10
43.4528141286
 20
59.6925023876
 30
0.0
 10
43.7220737531
 20
59.7037481887
 30
0.0
 10
44.0293768259
 20
59.7121564938
 30
0.0
 10
44.3628858249
 20
59.7173549331
 30
0.0
 10
44.7097758993
 20
59.7191110921
 30
0.0
 10
45.0566677048
 20
59.7173556347
 30
0.0
 10
45.3901832441
 20
59.7121586701
 30
0.0
 10
45.6975003331
 20
59.7037510008
 30
0.0
 10
45.9667817465
 20
59.6925045442
 30
0.0
 10
46.1625880855
 20
59.6805614604
 30
0.0
 10
46.2924528941
 20
59.6694621358
 30
0.0
 10
46.3678841945
 20
59.6612037277
 30
0.0
 10
46.4267985911
 20
59.6531486022
 30
0.0
 10
46.4707543409
 20
59.6440198276
 30
0.0
 10
46.4956464714
 20
59.6372083561
 30
0.0
 10
46.5096799192
 20
59.6284014379
 30
0.0
 10
46.5096799192
 20
59.6241859004
 30
0.0
  0
SPLINE
  5
264
100
AcDbEntity
  8
0
100
AcDbSpline
 62
7
  6
BYLAYER
 70
0
 71
3
 72
29
 73
25
 74
0
 42
0.0000001
 43
0.0000001
 44
0.0000000001
 40
0.0
 40
0.0
 40
0.0
 40
0.0
 40
0.0034959696
 40
0.0110693512
 40
0.0231567552
 40
0.0397672322
 40
0.0607533117
 40
0.0859307702
 40
0.1479076075
 40
0.2233665477
 40
0.3094407701
 40
0.4028463349
 40
0.4999865193
 40
0.5971264751
 40
0.6905334744
 40
0.7766118979
 40
0.8520767988
 40
0.9140615672
 40
0.9392413708
 40
0.9602298865
 40
0.9768420022
 40
0.9889300985
 40
0.9965039148
 40
1.0
 40
1.0
 40
1.0
 40
1.0
 10
70.605023087
 20
59.6241858894
 30
0.0
 10
70.605023087
 20
59.6284012876
 30
0.0
 10
70.6190552733
 20
59.6372082804
 30
0.0
 10
70.6439463205
 20
59.6440195952
 30
0.0
 10
70.687898573
 20
59.6531476487
 30
0.0
 10
70.7468073363
 20
59.6612023502
 30
0.0
 10
70.8222308498
 20
59.6694603517
 30
0.0
 10
70.9520803948
 20
59.6805584856
 30
0.0
 10
71.1478670454
 20
59.6925023876
 30
0.0
 10
71.4171266699
 20
59.7037481887
 30
0.0
 10
71.7244297427
 20
59.7121564938
 30
0.0
 10
72.0579387417
 20
59.7173549331
 30
0.0
 10
72.4048288161
 20
59.7191110921
 30
0.0
 10
72.7517206216
 20
59.7173556347
 30
0.0
 10
73.0852361608
 20
59.7121586701
 30
0.0
 10
73.3925532499
 20
59.7037510008
 30
0.0
 10
73.6618346632
 20
59.6925045442
 30
0.0
 10
73.8576410022
 20
59.6805614604
 30
0.0
 10
73.9875058108
 20
59.6694621358
 30
0.0
 10
74.0629371112
 20
59.6612037277
 30
0.0
 10
74.1218515078
 20
59.6531486022
 30
0.0
 10
74.1658072577
 20
59.6440198276
 30
0.0
 10
74.1906993882
 20
59.6372083561
 30
0.0
 10
74.204732836
 20
59.6284014379
 30
0.0
 10
74.204732836
 20
59.6241859004
 30
0.0
  0
SPLINE
  5
265
100
AcDbEntity
  8
0
100
AcDbSpline
 62
7
  6
BYLAYER
 70
0
 71
3
 72
29
 73
25
 74
0
 42
0.0000001
 43
0.0000001
 44
0.0000000001
 40
0.0
 40
0.0
 40
0.0
 40
0.0
 40
0.0034959696
 40
0.0110693512
 40
0.0231567552
 40
0.0397672322
 40
0.0607533117
 40
0.0859307701
 40
0.1479076075
 40
0.2233665476
 40
0.3094407701
 40
0.4028463349
 40
0.4999865193
 40
0.5971264751
 40
0.6905334744
 40
0.7766118979
 40
0.8520767988
 40
0.9140615672
 40
0.9392413708
 40
0.9602298865
 40
0.9768420022
 40
0.9889300985
 40
0.9965039148
 40
1.0
 40
1.0
 40
1.0
 40
1.0
 10
25.6084701703
 20
59.6241858894
 30
0.0
 10
25.6084701703
 20
59.6284012876
 30
0.0
 10
25.6225023566
 20
59.6372082804
 30
0.0
 10
25.6473934038
 20
59.6440195952
 30
0.0
 10
25.6913456562
 20
59.6531476487
 30
0.0
 10
25.7502544196
 20
59.6612023503
 30
0.0
 10
25.8256779331
 20
59.6694603517
 30
0.0
 10
25.955527478
 20
59.6805584856
 30
0.0
 10
26.1513141286
 20
59.6925023876
 30
0.0
 10
26.4205737531
 20
59.7037481887
 30
0.0
 10
26.7278768259
 20
59.7121564938
 30
0.0
 10
27.0613858249
 20
59.7173549331
 30
0.0
 10
27.4082758993
 20
59.7191110921
 30
0.0
 10
27.7551677048
 20
59.7173556347
 30
0.0
 10
28.0886832441
 20
59.7121586701
 30
0.0
 10
28.3960003331
 20
59.7037510008
 30
0.0
 10
28.6652817465
 20
59.6925045442
 30
0.0
 10
28.8610880855
 20
59.6805614604
 30
0.0
 10
28.990952894
 20
59.6694621358
 30
0.0
 10
29.0663841945
 20
59.6612037277
 30
0.0
 10
29.125298591
 20
59.6531486022
 30
0.0
 10
29.1692543409
 20
59.6440198276
 30
0.0
 10
29.1941464714
 20
59.6372083561
 30
0.0
 10
29.2081799192
 20
59.6284014379
 30
0.0
 10
29.2081799192
 20
59.6241859004
 30
0.0
  0
SPLINE
  5
266
100
AcDbEntity
  8
0
100
AcDbSpline
 62
7
  6
BYLAYER
 70
0
 71
3
 72
29
 73
25
 74
0
 42
0.0000001
 43
0.0000001
 44
0.0000000001
 40
0.0
 40
0.0
 40
0.0
 40
0.0
 40
0.0034959696
 40
0.0110693512
 40
0.0231567551
 40
0.0397672321
 40
0.0607533117
 40
0.0859307701
 40
0.1479076074
 40
0.2233665476
 40
0.3094407701
 40
0.4028463348
 40
0.4999865193
 40
0.5971264752
 40
0.6905334744
 40
0.7766118979
 40
0.8520767989
 40
0.9140615673
 40
0.9392413708
 40
0.9602298865
 40
0.9768420022
 40
0.9889300985
 40
0.9965039148
 40
1.0
 40
1.0
 40
1.0
 40
1.0
 10
87.9084230871
 20
59.6241858894
 30
0.0
 10
87.9084230871
 20
59.6284012875
 30
0.0
 10
87.9224552733
 20
59.6372082803
 30
0.0
 10
87.9473463205
 20
59.6440195952
 30
0.0
 10
87.9912985729
 20
59.6531476487
 30
0.0
 10
88.0502073362
 20
59.6612023502
 30
0.0
 10
88.1256308497
 20
59.6694603517
 30
0.0
 10
88.2554803946
 20
59.6805584856
 30
0.0
 10
88.4512670452
 20
59.6925023876
 30
0.0
 10
88.7205266697
 20
59.7037481887
 30
0.0
 10
89.0278297426
 20
59.7121564938
 30
0.0
 10
89.3613387416
 20
59.7173549331
 30
0.0
 10
89.7082288161
 20
59.7191110921
 30
0.0
 10
90.0551206216
 20
59.7173556347
 30
0.0
 10
90.3886361609
 20
59.7121586701
 30
0.0
 10
90.69595325
 20
59.7037510008
 30
0.0
 10
90.9652346634
 20
59.6925045442
 30
0.0
 10
91.1610410024
 20
59.6805614604
 30
0.0
 10
91.290905811
 20
59.6694621358
 30
0.0
 10
91.3663371114
 20
59.6612037277
 30
0.0
 10
91.4252515079
 20
59.6531486022
 30
0.0
 10
91.4692072577
 20
59.6440198276
 30
0.0
 10
91.4940993882
 20
59.6372083561
 30
0.0
 10
91.508132836
 20
59.6284014379
 30
0.0
 10
91.5081328359
 20
59.6241859003
 30
0.0
  0
SPLINE
  5
267
100
AcDbEntity
  8
0
100
AcDbSpline
 62
7
  6
BYLAYER
 70
0
 71
3
 72
21
 73
17
 74
0
 42
0.0000001
 43
0.0000001
 44
0.0000000001
 40
0.0
 40
0.0
 40
0.0
 40
0.0
 40
0.0249743605
 40
0.0636579194
 40
0.1150134422
 40
0.17758707
 40
0.2495619647
 40
0.3288629574
 40
0.500013691
 40
0.671162423
 40
0.7504609659
 40
0.8224325486
 40
0.8850021182
 40
0.9363529434
 40
0.9750312641
 40
1.0
 40
1.0
 40
1.0
 40
1.0
 10
96.5082779672
 20
59.6654038096
 30
0.0
 10
96.541394275
 20
59.6739165471
 30
0.0
 10
96.627865079
 20
59.6867469439
 30
0.0
 10
96.7844293981
 20
59.7027067762
 30
0.0
 10
96.9929617379
 20
59.717003695
 30
0.0
 10
97.2471627209
 20
59.7296391309
 30
0.0
 10
97.5397843682
 20
59.739896151
 30
0.0
 10
97.9811086391
 20
59.7502622887
 30
0.0
 10
98.5583452179
 20
59.7551524823
 30
0.0
 10
99.1355784314
 20
59.7502603693
 30
0.0
 10
99.57689203
 20
59.7398926442
 30
0.0
 10
99.8695002008
 20
59.7296346663
 30
0.0
 10
100.1236845734
 20
59.716998363
 30
0.0
 10
100.3321977498
 20
59.7027009864
 30
0.0
 10
100.4887404669
 20
59.6867406317
 30
0.0
 10
100.5751964807
 20
59.6739103274
 30
0.0
 10
100.608304607
 20
59.6653966944
 30
0.0
  0
SPLINE
  5
268
100
AcDbEntity
  8
0
100
AcDbSpline
 62
7
  6
BYLAYER
 70
0
 71
3
 72
31
 73
27
 74
0
 42
0.0000001
 43
0.0000001
 44
0.0000000001
 40
0.0
 40
0.0
 40
0.0
 40
0.0
 40
0.0034959608
 40
0.0110693234
 40
0.023156697
 40
0.0397671324
 40
0.0607531592
 40
0.0859305544
 40
0.1150791798
 40
0.1479084912
 40
0.223367242
 40
0.3094412484
 40
0.4028465787
 40
0.4999865192
 40
0.5971262313
 40
0.690532996
 40
0.7766112035
 40
0.852075915
 40
0.8849094978
 40
0.9140617829
 40
0.9392415233
 40
0.9602299863
 40
0.9768420603
 40
0.9889301263
 40
0.9965039236
 40
1.0
 40
1.0
 40
1.0
 40
1.0
 10
61.5050432433
 20
59.6241858889
 30
0.0
 10
61.5050432433
 20
59.6289867591
 30
0.0
 10
61.521024345
 20
59.6390169447
 30
0.0
 10
61.5493724755
 20
59.6467742828
 30
0.0
 10
61.5994292557
 20
59.6571700676
 30
0.0
 10
61.6665195041
 20
59.6663437991
 30
0.0
 10
61.7524200239
 20
59.6757470483
 30
0.0
 10
61.8554036402
 20
59.6845579094
 30
0.0
 10
61.9748263222
 20
59.6929009533
 30
0.0
 10
62.1632491628
 20
59.7036829692
 30
0.0
 10
62.429948485
 20
59.7147896188
 30
0.0
 10
62.7799201243
 20
59.7243773929
 30
0.0
 10
63.1597535291
 20
59.7302942264
 30
0.0
 10
63.5548219905
 20
59.7322955826
 30
0.0
 10
63.9498924226
 20
59.7302950213
 30
0.0
 10
64.3297332784
 20
59.7243798871
 30
0.0
 10
64.6797208722
 20
59.7147927701
 30
0.0
 10
64.9464400131
 20
59.7036857251
 30
0.0
 10
65.1348819665
 20
59.6929038944
 30
0.0
 10
65.2543188076
 20
59.6845608773
 30
0.0
 10
65.3573139602
 20
59.6757490719
 30
0.0
 10
65.4432233498
 20
59.6663453694
 30
0.0
 10
65.5103200137
 20
59.6571711533
 30
0.0
 10
65.560380777
 20
59.6467745476
 30
0.0
 10
65.5887301413
 20
59.639017031
 30
0.0
 10
65.6047126797
 20
59.6289869303
 30
0.0
 10
65.6047126797
 20
59.6241859014
 30
0.0
  0
SPLINE
  5
269
100
AcDbEntity
  8
0
100
AcDbSpline
 62
7
  6
BYLAYER
 70
0
 71
3
 72
29
 73
25
 74
0
 42
0.0000001
 43
0.0000001
 44
0.0000000001
 40
0.0
 40
0.0
 40
0.0
 40
0.0
 40
0.0034959696
 40
0.0110693512
 40
0.0231567552
 40
0.0397672322
 40
0.0607533117
 40
0.0859307702
 40
0.1479076075
 40
0.2233665477
 40
0.3094407701
 40
0.4028463349
 40
0.4999865193
 40
0.5971264751
 40
0.6905334743
 40
0.7766118979
 40
0.8520767988
 40
0.9140615672
 40
0.9392413708
 40
0.9602298865
 40
0.9768420022
 40
0.9889300985
 40
0.9965039148
 40
1.0
 40
1.0
 40
1.0
 40
1.0
 10
79.258423087
 20
59.6241858894
 30
0.0
 10
79.258423087
 20
59.6284012876
 30
0.0
 10
79.2724552733
 20
59.6372082804
 30
0.0
 10
79.2973463206
 20
59.6440195952
 30
0.0
 10
79.341298573
 20
59.6531476487
 30
0.0
 10
79.4002073363
 20
59.6612023503
 30
0.0
 10
79.4756308499
 20
59.6694603517
 30
0.0
 10
79.6054803948
 20
59.6805584856
 30
0.0
 10
79.8012670454
 20
59.6925023876
 30
0.0
 10
80.0705266699
 20
59.7037481887
 30
0.0
 10
80.3778297427
 20
59.7121564938
 30
0.0
 10
80.7113387417
 20
59.7173549331
 30
0.0
 10
81.0582288161
 20
59.7191110921
 30
0.0
 10
81.4051206216
 20
59.7173556347
 30
0.0
 10
81.7386361608
 20
59.7121586701
 30
0.0
 10
82.0459532498
 20
59.7037510008
 30
0.0
 10
82.3152346632
 20
59.6925045442
 30
0.0
 10
82.5110410022
 20
59.6805614604
 30
0.0
 10
82.6409058108
 20
59.6694621358
 30
0.0
 10
82.7163371112
 20
59.6612037277
 30
0.0
 10
82.7752515078
 20
59.6531486022
 30
0.0
 10
82.8192072576
 20
59.6440198276
 30
0.0
 10
82.8440993882
 20
59.6372083561
 30
0.0
 10
82.858132836
 20
59.628401438
 30
0.0
 10
82.858132836
 20
59.6241859004
 30
0.0
  0
SPLINE
  5
26A
100
AcDbEntity
  8
0
100
AcDbSpline
 62
7
  6
BYLAYER
 70
0
 71
3
 72
29
 73
25
 74
0
 42
0.0000001
 43
0.0000001
 44
0.0000000001
 40
0.0
 40
0.0
 40
0.0
 40
0.0
 40
0.0034959696
 40
0.0110693512
 40
0.0231567552
 40
0.0397672322
 40
0.0607533117
 40
0.0859307701
 40
0.1479076075
 40
0.2233665476
 40
0.3094407701
 40
0.4028463348
 40
0.4999865193
 40
0.5971264751
 40
0.6905334744
 40
0.7766118979
 40
0.8520767988
 40
0.9140615672
 40
0.9392413708
 40
0.9602298865
 40
0.9768420022
 40
0.9889300985
 40
0.9965039148
 40
1.0
 40
1.0
 40
1.0
 40
1.0
 10
34.2584701703
 20
59.6241858894
 30
0.0
 10
34.2584701703
 20
59.6284012875
 30
0.0
 10
34.2725023566
 20
59.6372082804
 30
0.0
 10
34.2973934037
 20
59.6440195952
 30
0.0
 10
34.3413456562
 20
59.6531476487
 30
0.0
 10
34.4002544195
 20
59.6612023502
 30
0.0
 10
34.475677933
 20
59.6694603517
 30
0.0
 10
34.6055274779
 20
59.6805584856
 30
0.0
 10
34.8013141285
 20
59.6925023876
 30
0.0
 10
35.070573753
 20
59.7037481887
 30
0.0
 10
35.3778768259
 20
59.7121564938
 30
0.0
 10
35.7113858249
 20
59.7173549331
 30
0.0
 10
36.0582758993
 20
59.7191110921
 30
0.0
 10
36.4051677048
 20
59.7173556347
 30
0.0
 10
36.7386832441
 20
59.7121586701
 30
0.0
 10
37.0460003332
 20
59.7037510008
 30
0.0
 10
37.3152817465
 20
59.6925045442
 30
0.0
 10
37.5110880856
 20
59.6805614604
 30
0.0
 10
37.6409528941
 20
59.6694621358
 30
0.0
 10
37.7163841945
 20
59.6612037277
 30
0.0
 10
37.7752985911
 20
59.6531486022
 30
0.0
 10
37.8192543409
 20
59.6440198276
 30
0.0
 10
37.8441464715
 20
59.6372083561
 30
0.0
 10
37.8581799192
 20
59.6284014379
 30
0.0
 10
37.8581799192
 20
59.6241859003
 30
0.0
  0
ENDSEC
  0
SECTION
  2
OBJECTS
  0
DICTIONARY
  5
C
100
AcDbDictionary
280
0
281
1
  3
ACAD_GROUP
350
D
  3
ACAD_MLINESTYLE
350
17
  3
ACAD_LAYOUT
350
1A
  3
ACAD_PLOTSETTINGS
350
19
  3
ACAD_PLOTSTYLENAME
350
E
  0
DICTIONARY
  5
D
102
{ACAD_REACTORS
330
C
102
}
100
AcDbDictionary
280
0
281
1
  0
ACDBDICTIONARYWDFLT
  5
E
102
{ACAD_REACTORS
330
C
102
}
100
AcDbDictionary
281
1
  3
Normal
350
F
100
AcDbDictionaryWithDefault
340
F
  0
DICTIONARY
  5
17
102
{ACAD_REACTORS
330
C
102
}
100
AcDbDictionary
280
0
281
1
  3
Standard
350
18
  0
DICTIONARY
  5
19
102
{ACAD_REACTORS
330
C
102
}
100
AcDbDictionary
281
1
  0
DICTIONARY
  5
1A
102
{ACAD_REACTORS
330
C
102
}
100
AcDbDictionary
281
1
  3
Model
350
26B
  3
Layout1
350
26C
  0
ACDBPLACEHOLDER
  5
F
102
{ACAD_REACTORS
330
E
102
}
  0
MLINESTYLE
  5
18
102
{ACAD_REACTORS
330
17
102
}
100
AcDbMlineStyle
  2
STANDARD
 70
0
  3

 62
256
 51
90.0
 52
90.0
 71
2
 49
0.5
 62
256
  6
BYLAYER
 49
-0.5
 62
256
  6
BYLAYER
  0
LAYOUT
  5
26B
102
{ACAD_REACTORS
330
1A
102
}
100
AcDbPlotSettings
  1

  2
none_device
  4

  6

 40
0.0
 41
0.0
 42
0.0
 43
0.0
 44
210.0
 45
297.0
 46
0.0
 47
0.0
 48
0.0
 49
0.0
140
0.0
141
0.0
142
1.0
143
1.0
 70
1024
 72
1
 73
0
 74
0
  7

 75
0
147
1.0
148
0.0
149
0.0
100
AcDbLayout
  1
Model
 70
0
 71
0
 10
0.0
 20
0.0
 11
210.0
 21
297.0
 12
0.0
 22
0.0
 32
0.0
 14
0.0
 24
0.0
 34
0.0
 15
0.0
 25
0.0
 35
0.0
146
0.0
 13
0.0
 23
0.0
 33
0.0
 16
1.0
 26
0.0
 36
0.0
 17
0.0
 27
1.0
 37
0.0
 76
0
330
210
345
0
346
0
  0
LAYOUT
  5
26C
102
{ACAD_REACTORS
330
1A
102
}
100
AcDbPlotSettings
  1

  2
none_device
  4

  6

 40
0.0
 41
0.0
 42
0.0
 43
0.0
 44
210.0
 45
297.0
 46
0.0
 47
0.0
 48
0.0
 49
0.0
140
0.0
141
0.0
142
1.0
143
1.0
 70
0
 72
1
 73
0
 74
0
  7

 75
0
147
1.0
148
0.0
149
0.0
100
AcDbLayout
  1
Layout1
 70
0
 71
1
 10
0.0
 20
0.0
 11
210.0
 21
297.0
 12
0.0
 22
0.0
 32
0.0
 14
0.0
 24
0.0
 34
0.0
 15
0.0
 25
0.0
 35
0.0
146
0.0
 13
0.0
 23
0.0
 33
0.0
 16
1.0
 26
0.0
 36
0.0
 17
0.0
 27
1.0
 37
0.0
 76
0
330
211
345
0
346
0
  0
ENDSEC
  0
EOF
