999
DXF file: C:\Users\sesa63760\Dev\_Creo\CAD\MCADID0004817_3D-CAD\drw0001_5.dxf
999
Pro/ENGINEER 2019471 by Parametric Technology Corporation
  0
SECTION
  2
HEADER
  9
$ACADVER
  1
AC1024
  9
$DWGCODEPAGE
  3
ANSI_1252
  9
$EXTMAX
 10
42.1047206761
 20
59.5481049563
 30
0.0
  9
$EXTMIN
 10
0.0
 20
0.0
 30
0.0
  9
$LIMMIN
 10
0.0
 20
0.0
  9
$LIMMAX
 10
42.1047206761
 20
59.5481049563
  9
$VIEWCTR
 10
21.0523603381
 20
29.7740524781
  9
$VIEWSIZE
 40
59.5481049563
  9
$CLAYER
  8
0
  9
$LTSCALE
 40
3.881654249
  9
$CELTYPE
  6
BYLAYER
  9
$DIMSCALE
 40
1.0
  9
$DIMASZ
 40
0.5012466747
  9
$DIMEXO
 40
1.0
  9
$DIMDLI
 40
2.6818702084
  9
$DIMEXE
 40
1.0
  9
$DIMCEN
 40
0.6351797862
  9
$DIMLFAC
 40
1.0
  9
$DIMBLK
  1
_FILLED
  9
$DIMALT
 70
0
  9
$DIMALTF
 40
0.0393700787
  9
$DIMTXT
 40
0.7017453446
  9
$DIMTOL
 70
1
  9
$DIMLIM
 70
0
  9
$DIMTFAC
 40
1.0
  9
$DIMTP
 40
0.01
  9
$DIMTM
 40
0.01
  9
$DIMGAP
 40
0.625
  9
$DIMDSEP
 70
46
  9
$AUNITS
 70
0
  9
$PDMODE
 70
3
  9
$PDSIZE
 40
0.3125
  9
$HANDSEED
  5
247
  9
$TILEMODE
 70
1
  9
$MEASUREMENT
 70
1
  9
$INSUNITS
 70
4
  0
ENDSEC
  0
SECTION
  2
CLASSES
  0
CLASS
  1
ACDBDICTIONARYWDFLT
  2
AcDbDictionaryWithDefault
  3
AutoCAD 2000
 90
0
 91
1
280
0
281
0
  0
CLASS
  1
ACDBPLACEHOLDER
  2
AcDbPlaceHolder
  3
AutoCAD 2000
 90
0
 91
1
280
0
281
0
  0
CLASS
  1
LAYOUT
  2
AcDbLayout
  3
AutoCAD 2000
 90
0
 91
0
280
0
281
0
  0
ENDSEC
  0
SECTION
  2
TABLES
  0
TABLE
  2
VPORT
  5
8
100
AcDbSymbolTable
 70
2
  0
VPORT
  5
1F4
100
AcDbSymbolTableRecord
100
AcDbViewportTableRecord
  2
*ACTIVE
 70
0
 10
0.0
 20
0.0
 11
1.0
 21
1.0
 12
21.0523603381
 22
29.7740524781
 13
0.0
 23
0.0
 14
1.0
 24
1.0
 15
0.0
 25
0.0
 16
0.0
 26
0.0
 36
1.0
 17
0.0
 27
0.0
 37
0.0
 40
59.5481049563
 41
0.7070707071
 42
50.0
 43
0.0
 44
0.0
 50
0.0
 51
0.0
 71
0
 72
100
 73
1
 74
1
 75
0
 76
0
 77
0
 78
0
  0
ENDTAB
  0
TABLE
  2
LTYPE
  5
5
100
AcDbSymbolTable
 70
6
  0
LTYPE
  5
14
100
AcDbSymbolTableRecord
100
AcDbLinetypeTableRecord
  2
BYBLOCK
 70
0
  3

 72
65
 73
0
 40
0.0
  0
LTYPE
  5
15
100
AcDbSymbolTableRecord
100
AcDbLinetypeTableRecord
  2
BYLAYER
 70
0
  3

 72
65
 73
0
 40
0.0
  0
LTYPE
  5
16
100
AcDbSymbolTableRecord
100
AcDbLinetypeTableRecord
  2
CONTINUOUS
 70
64
  3
Solid line
 72
65
 73
0
 40
0.0
  0
LTYPE
  5
1F5
100
AcDbSymbolTableRecord
100
AcDbLinetypeTableRecord
  2
CENTER
 70
64
  3
____ _ ____ _ ____ _ ____ _ ____ _ ____ _ ____
 72
65
 73
4
 40
0.6
 49
0.375
 74
0
 49
-0.075
 74
0
 49
0.075
 74
0
 49
-0.075
 74
0
  0
LTYPE
  5
1F6
100
AcDbSymbolTableRecord
100
AcDbLinetypeTableRecord
  2
HIDDEN
 70
64
  3
- - - - - - - - - - - - - - - - - - - -
 72
65
 73
2
 40
0.2
 49
0.1
 74
0
 49
-0.1
 74
0
  0
LTYPE
  5
1F7
100
AcDbSymbolTableRecord
100
AcDbLinetypeTableRecord
  2
PHANTOM
 70
64
  3
_____ _ _ _____ _ _ _____ _ _ _____
 72
65
 73
6
 40
0.8
 49
0.45
 74
0
 49
-0.05
 74
0
 49
0.1
 74
0
 49
-0.05
 74
0
 49
0.1
 74
0
 49
-0.05
 74
0
  0
LTYPE
  5
1F8
100
AcDbSymbolTableRecord
100
AcDbLinetypeTableRecord
  2
DOT
 70
64
  3
. . . . . . . . . . . . . . . . . . . .
 72
65
 73
2
 40
0.2
 49
0.1
 74
0
 49
-0.1
 74
0
  0
LTYPE
  5
1F9
100
AcDbSymbolTableRecord
100
AcDbLinetypeTableRecord
  2
DASHED
 70
64
  3
- - - - - - - - - - - - - - - - - - - -
 72
65
 73
2
 40
0.2
 49
0.1
 74
0
 49
-0.1
 74
0
  0
ENDTAB
  0
TABLE
  2
LAYER
  5
2
100
AcDbSymbolTable
 70
36
  0
LAYER
  5
10
100
AcDbSymbolTableRecord
100
AcDbLayerTableRecord
  2
0
 70
0
 62
7
  6
CONTINUOUS
370
-3
390
F
  0
LAYER
  5
1FA
100
AcDbSymbolTableRecord
100
AcDbLayerTableRecord
  2
DEFAULT_1
 70
0
 62
7
  6
CENTER
370
-3
390
F
  0
LAYER
  5
1FB
100
AcDbSymbolTableRecord
100
AcDbLayerTableRecord
  2
DEFAULT_2
 70
0
 62
7
  6
HIDDEN
370
-3
390
F
  0
LAYER
  5
1FC
100
AcDbSymbolTableRecord
100
AcDbLayerTableRecord
  2
DEFAULT_3
 70
0
 62
7
  6
PHANTOM
370
-3
390
F
  0
LAYER
  5
1FD
100
AcDbSymbolTableRecord
100
AcDbLayerTableRecord
  2
00_COMPONENTS
 70
0
 62
7
  6
CONTINUOUS
370
-3
390
F
  0
LAYER
  5
1FE
100
AcDbSymbolTableRecord
100
AcDbLayerTableRecord
  2
01_1_DEFAULT_DATUMS
 70
0
 62
7
  6
CONTINUOUS
370
-3
390
F
  0
LAYER
  5
1FF
100
AcDbSymbolTableRecord
100
AcDbLayerTableRecord
  2
01_PLANES
 70
0
 62
7
  6
CONTINUOUS
370
-3
390
F
  0
LAYER
  5
200
100
AcDbSymbolTableRecord
100
AcDbLayerTableRecord
  2
02_COORD_SYS
 70
0
 62
7
  6
CONTINUOUS
370
-3
390
F
  0
LAYER
  5
201
100
AcDbSymbolTableRecord
100
AcDbLayerTableRecord
  2
03_AXES
 70
0
 62
7
  6
CONTINUOUS
370
-3
390
F
  0
LAYER
  5
202
100
AcDbSymbolTableRecord
100
AcDbLayerTableRecord
  2
04_POINTS
 70
0
 62
7
  6
CONTINUOUS
370
-3
390
F
  0
LAYER
  5
203
100
AcDbSymbolTableRecord
100
AcDbLayerTableRecord
  2
05_CURVES
 70
0
 62
7
  6
CONTINUOUS
370
-3
390
F
  0
LAYER
  5
204
100
AcDbSymbolTableRecord
100
AcDbLayerTableRecord
  2
06_SURFS
 70
0
 62
7
  6
CONTINUOUS
370
-3
390
F
  0
LAYER
  5
205
100
AcDbSymbolTableRecord
100
AcDbLayerTableRecord
  2
07_COSMETICS
 70
0
 62
7
  6
CONTINUOUS
370
-3
390
F
  0
LAYER
  5
206
100
AcDbSymbolTableRecord
100
AcDbLayerTableRecord
  2
10_NOTES
 70
0
 62
7
  6
CONTINUOUS
370
-3
390
F
  0
LAYER
  5
207
100
AcDbSymbolTableRecord
100
AcDbLayerTableRecord
  2
11_NOTES_PUB
 70
0
 62
7
  6
CONTINUOUS
370
-3
390
F
  0
LAYER
  5
208
100
AcDbSymbolTableRecord
100
AcDbLayerTableRecord
  2
13_REF_GTOL
 70
0
 62
7
  6
CONTINUOUS
370
-3
390
F
  0
LAYER
  5
209
100
AcDbSymbolTableRecord
100
AcDbLayerTableRecord
  2
16_MISC
 70
0
 62
7
  6
CONTINUOUS
370
-3
390
F
  0
LAYER
  5
20A
100
AcDbSymbolTableRecord
100
AcDbLayerTableRecord
  2
17_NO_PRINT
 70
0
 62
7
  6
CONTINUOUS
370
-3
390
F
  0
LAYER
  5
20B
100
AcDbSymbolTableRecord
100
AcDbLayerTableRecord
  2
18_DATUM_CAMS_JOINTS
 70
0
 62
7
  6
CONTINUOUS
370
-3
390
F
  0
LAYER
  5
20C
100
AcDbSymbolTableRecord
100
AcDbLayerTableRecord
  2
19_DATUM_FUNCTIONAL
 70
0
 62
7
  6
CONTINUOUS
370
-3
390
F
  0
LAYER
  5
20D
100
AcDbSymbolTableRecord
100
AcDbLayerTableRecord
  2
20_DATUM_KINEMATIC_SCHEME
 70
0
 62
7
  6
CONTINUOUS
370
-3
390
F
  0
ENDTAB
  0
TABLE
  2
STYLE
  5
3
100
AcDbSymbolTable
 70
1
  0
STYLE
  5
11
100
AcDbSymbolTableRecord
100
AcDbTextStyleTableRecord
  2
STANDARD
 70
0
 40
0.0
 41
1.0
 50
0.0
 71
0
 42
0.2
  3
ARIAL.TTF
  4

  0
STYLE
  5
20E
100
AcDbSymbolTableRecord
100
AcDbTextStyleTableRecord
  2
TEXTSTYLE_1
 70
0
 40
0.0
 41
0.8
 50
0.0
 71
0
 42
0.2
  3
gdt
  4

  0
ENDTAB
  0
TABLE
  2
VIEW
  5
6
100
AcDbSymbolTable
 70
0
  0
ENDTAB
  0
TABLE
  2
UCS
  5
7
100
AcDbSymbolTable
 70
0
  0
ENDTAB
  0
TABLE
  2
APPID
  5
9
100
AcDbSymbolTable
 70
1
  0
APPID
  5
20F
100
AcDbSymbolTableRecord
100
AcDbRegAppTableRecord
  2
ACAD
 70
0
  0
ENDTAB
  0
TABLE
  2
BLOCK_RECORD
  5
1
100
AcDbSymbolTable
 70
0
  0
BLOCK_RECORD
  5
210
100
AcDbSymbolTableRecord
100
AcDbBlockTableRecord
  2
*Model_Space
  0
BLOCK_RECORD
  5
211
100
AcDbSymbolTableRecord
100
AcDbBlockTableRecord
  2
*Paper_Space
  0
BLOCK_RECORD
  5
212
100
AcDbSymbolTableRecord
100
AcDbBlockTableRecord
  2
_FILLED
  0
ENDTAB
  0
TABLE
  2
DIMSTYLE
  5
A
100
AcDbSymbolTable
 70
1
100
AcDbDimStyleTable
 71
0
  0
DIMSTYLE
105
213
100
AcDbSymbolTableRecord
100
AcDbDimStyleTableRecord
  2
STANDARD
 70
0
  3

  4

 40
1.0
 41
0.5012466747
 42
1.0
 43
0.38
 44
1.0
 45
0.0
 46
0.0
 47
0.01
 48
0.01
140
0.7017453446
141
0.09
142
0.0
143
25.4
144
1.0
145
0.0
146
1.0
147
0.625
 71
1
 72
0
 73
0
 74
0
 75
0
 76
0
 77
1
 78
8
 79
2
170
0
171
1
172
0
173
0
174
0
175
0
176
0
177
0
178
0
270
2
179
2
271
2
272
2
273
2
274
2
275
0
280
0
281
0
282
0
283
1
284
8
285
0
286
0
287
3
288
0
340
11
278
46
341
212
342
212
343
212
344
212
  0
ENDTAB
  0
ENDSEC
  0
SECTION
  2
BLOCKS
  0
BLOCK
  5
20
100
AcDbEntity
  8
0
100
AcDbBlockBegin
  2
*Model_Space
 70
0
 10
0.0
 20
0.0
 30
0.0
  3
*Model_Space
  1

  0
ENDBLK
  5
21
100
AcDbEntity
  8
0
100
AcDbBlockEnd
  0
BLOCK
  5
1C
100
AcDbEntity
  8
0
100
AcDbBlockBegin
  2
*Paper_Space
 70
0
 10
0.0
 20
0.0
 30
0.0
  3
*Paper_Space
  1

  0
ENDBLK
  5
1D
100
AcDbEntity
  8
0
100
AcDbBlockEnd
  0
BLOCK
  5
214
100
AcDbEntity
  8
0
100
AcDbBlockBegin
  2
_FILLED
 70
64
 10
0.0
 20
0.0
  3
_FILLED
  1

  0
SOLID
  5
215
100
AcDbEntity
  8
0
  6
BYBLOCK
 62
0
100
AcDbTrace
 10
0.0
 20
0.0
 11
-1.0
 21
0.25
 12
-1.0
 22
-0.25
 13
-1.0
 23
-0.25
  0
ENDBLK
  5
216
100
AcDbEntity
  8
0
  6
BYBLOCK
 62
0
100
AcDbBlockEnd
  0
ENDSEC
  0
SECTION
  2
ENTITIES
  0
LINE
  5
217
100
AcDbEntity
  8
0
100
AcDbLine
 62
7
  6
BYLAYER
 10
29.6354412231
 20
4.8469387755
 11
13.6354635875
 21
4.8469387755
  0
LINE
  5
218
100
AcDbEntity
  8
0
100
AcDbLine
 62
7
  6
BYLAYER
 10
14.0201234275
 20
6.5645234614
 11
29.250781383
 21
6.5645234614
  0
LINE
  5
219
100
AcDbEntity
  8
0
100
AcDbLine
 62
7
  6
BYLAYER
 10
28.9354524053
 20
7.0510567052
 11
14.3354524053
 21
7.0510567052
  0
LINE
  5
21A
100
AcDbEntity
  8
0
100
AcDbLine
 62
7
  6
BYLAYER
 10
29.6283716161
 20
14.8469390252
 11
29.6230501831
 21
14.8469389955
  0
LINE
  5
21B
100
AcDbEntity
  8
0
100
AcDbLine
 62
7
  6
BYLAYER
 10
13.6425231505
 20
14.8469383679
 11
13.6478453241
 21
14.8469384147
  0
LWPOLYLINE
  5
21C
100
AcDbEntity
  8
0
100
AcDbPolyline
 62
7
  6
BYLAYER
 90
4
 70
0
 10
13.6354240771
 20
15.6535733844
 10
13.637153941
 20
15.4206320789
 10
13.6413551083
 20
15.0843698077
 10
13.6425231508
 20
14.8469383679
  0
LINE
  5
21D
100
AcDbEntity
  8
0
100
AcDbLine
 62
7
  6
BYLAYER
 10
13.6354524053
 20
4.8469387755
 11
13.6354524053
 21
14.0403254872
  0
LINE
  5
21E
100
AcDbEntity
  8
0
100
AcDbLine
 62
7
  6
BYLAYER
 10
13.6354524053
 20
14.045551117
 11
13.6354524053
 21
53.3469387755
  0
LINE
  5
21F
100
AcDbEntity
  8
0
100
AcDbLine
 62
7
  6
BYLAYER
 10
13.7354524053
 20
54.1469387755
 11
13.7354524053
 21
53.3469387755
  0
LINE
  5
220
100
AcDbEntity
  8
0
100
AcDbLine
 62
7
  6
BYLAYER
 10
13.9354524053
 20
4.8940947737
 11
13.9354524053
 21
6.5064655763
  0
LINE
  5
221
100
AcDbEntity
  8
0
100
AcDbLine
 62
7
  6
BYLAYER
 10
14.3354524053
 20
7.0510567052
 11
14.3354524053
 21
53.3469387755
  0
LINE
  5
222
100
AcDbEntity
  8
0
100
AcDbLine
 62
7
  6
BYLAYER
 10
14.4354524053
 20
53.3469387755
 11
14.4354524053
 21
54.8469387755
  0
LWPOLYLINE
  5
223
100
AcDbEntity
  8
0
100
AcDbPolyline
 62
7
  6
BYLAYER
 90
4
 70
0
 10
13.6425362372
 20
14.8469382956
 10
13.6414433072
 20
14.618783048
 10
13.6372747977
 20
14.282549706
 10
13.6354120138
 20
14.0402982888
  0
LINE
  5
224
100
AcDbEntity
  8
0
100
AcDbLine
 62
7
  6
BYLAYER
 10
28.8354524053
 20
54.8469387755
 11
28.8354524053
 21
53.3469387755
  0
LWPOLYLINE
  5
225
100
AcDbEntity
  8
0
100
AcDbPolyline
 62
7
  6
BYLAYER
 90
4
 70
0
 10
29.6354761029
 20
14.0403024623
 10
29.6337452303
 20
14.2736174059
 10
29.6295487597
 20
14.6098782703
 10
29.6283716161
 20
14.8469390252
  0
LINE
  5
226
100
AcDbEntity
  8
0
100
AcDbLine
 62
7
  6
BYLAYER
 10
28.9354524053
 20
53.3469387755
 11
28.9354524053
 21
7.0510567052
  0
LINE
  5
227
100
AcDbEntity
  8
0
100
AcDbLine
 62
7
  6
BYLAYER
 10
29.3354524053
 20
6.5064655763
 11
29.3354524053
 21
4.8940947737
  0
LINE
  5
228
100
AcDbEntity
  8
0
100
AcDbLine
 62
7
  6
BYLAYER
 10
29.5354524053
 20
53.3469387755
 11
29.5354524053
 21
54.1469387755
  0
LINE
  5
229
100
AcDbEntity
  8
0
100
AcDbLine
 62
7
  6
BYLAYER
 10
29.6354524053
 20
4.8469387755
 11
29.6354524053
 21
53.3469387755
  0
LWPOLYLINE
  5
22A
100
AcDbEntity
  8
0
100
AcDbPolyline
 62
7
  6
BYLAYER
 90
4
 70
0
 10
29.6283803307
 20
14.8469390699
 10
29.6294651573
 20
15.0753699552
 10
29.6336380241
 20
15.4116014213
 10
29.635480815
 20
15.6535794949
  0
LINE
  5
22B
100
AcDbEntity
  8
0
100
AcDbLine
 62
7
  6
BYLAYER
 10
13.6354524053
 20
53.3469387755
 11
29.6354524053
 21
53.3469387755
  0
LINE
  5
22C
100
AcDbEntity
  8
0
100
AcDbLine
 62
7
  6
BYLAYER
 10
13.7354524053
 20
54.1469387755
 11
29.5354524053
 21
54.1469387755
  0
LINE
  5
22D
100
AcDbEntity
  8
0
100
AcDbLine
 62
7
  6
BYLAYER
 10
28.8354524053
 20
54.8469387755
 11
14.4354524053
 21
54.8469387755
  0
ARC
  5
22E
100
AcDbEntity
  8
0
100
AcDbCircle
 62
7
  6
BYLAYER
 10
28.8354524053
 20
54.1469387755
 40
0.7
100
AcDbArc
 50
0.0
 51
90.0
  0
ARC
  5
22F
100
AcDbEntity
  8
0
100
AcDbCircle
 62
7
  6
BYLAYER
 10
14.4354524053
 20
54.1469387755
 40
0.7
100
AcDbArc
 50
90.0
 51
180.0
  0
SPLINE
  5
230
100
AcDbEntity
  8
0
100
AcDbSpline
 62
7
  6
BYLAYER
 70
0
 71
3
 72
10
 73
6
 74
0
 42
0.0000001
 43
0.0000001
 44
0.0000000001
 40
0.0
 40
0.0
 40
0.0
 40
0.0
 40
0.3735898514
 40
0.669645879
 40
1.0
 40
1.0
 40
1.0
 40
1.0
 10
29.3354524053
 20
4.8940947737
 30
0.0
 10
28.3812891076
 20
5.0100469142
 30
0.0
 10
26.6661239851
 20
5.1803605269
 30
0.0
 10
24.097259308
 20
5.3309900607
 30
0.0
 10
22.4853971212
 20
5.3636958952
 30
0.0
 10
21.6354524053
 20
5.3636958952
 30
0.0
  0
SPLINE
  5
231
100
AcDbEntity
  8
0
100
AcDbSpline
 62
7
  6
BYLAYER
 70
0
 71
3
 72
13
 73
9
 74
0
 42
0.0000001
 43
0.0000001
 44
0.0000000001
 40
0.0
 40
0.0
 40
0.0
 40
0.0
 40
0.1559949847
 40
0.2951595843
 40
0.4228788152
 40
0.5430468482
 40
0.7717770618
 40
1.0
 40
1.0
 40
1.0
 40
1.0
 10
13.9354524053
 20
4.8940947737
 30
0.0
 10
13.9121139175
 20
4.8912586264
 30
0.0
 10
13.8671166217
 20
4.890724155
 30
0.0
 10
13.8045561395
 20
4.9055840551
 30
0.0
 10
13.7518669603
 20
4.9317586819
 30
0.0
 10
13.6957143729
 20
4.9773684927
 30
0.0
 10
13.6475109424
 20
5.0529045107
 30
0.0
 10
13.6354524053
 20
5.1225430336
 30
0.0
 10
13.6354524053
 20
5.1569387755
 30
0.0
  0
SPLINE
  5
232
100
AcDbEntity
  8
0
100
AcDbSpline
 62
7
  6
BYLAYER
 70
0
 71
3
 72
10
 73
6
 74
0
 42
0.0000001
 43
0.0000001
 44
0.0000000001
 40
0.0
 40
0.0
 40
0.0
 40
0.0
 40
0.3303550703
 40
0.626411273
 40
1.0
 40
1.0
 40
1.0
 40
1.0
 10
21.6354524053
 20
5.3636958952
 30
0.0
 10
20.7855052509
 20
5.3636958952
 30
0.0
 10
19.1736401661
 20
5.3309898248
 30
0.0
 10
16.6047755913
 20
5.180359016
 30
0.0
 10
14.8896128269
 20
5.0100465647
 30
0.0
 10
13.9354524053
 20
4.8940947737
 30
0.0
  0
SPLINE
  5
233
100
AcDbEntity
  8
0
100
AcDbSpline
 62
7
  6
BYLAYER
 70
0
 71
3
 72
15
 73
11
 74
0
 42
0.0000001
 43
0.0000001
 44
0.0000000001
 40
0.0
 40
0.0
 40
0.0
 40
0.0
 40
0.0490894398
 40
0.1133961502
 40
0.1997156579
 40
0.3103160409
 40
0.4458109648
 40
0.6061652829
 40
0.7910525609
 40
1.0
 40
1.0
 40
1.0
 40
1.0
 10
13.6354524053
 20
6.798660562
 30
0.0
 10
13.6354528701
 20
6.8013504433
 30
0.0
 10
13.6378007422
 20
6.8075280157
 30
0.0
 10
13.645911096
 20
6.8151027275
 30
0.0
 10
13.6582098275
 20
6.8225223969
 30
0.0
 10
13.6749528115
 20
6.8297901745
 30
0.0
 10
13.6960664759
 20
6.8369252691
 30
0.0
 10
13.7214955777
 20
6.8438484577
 30
0.0
 10
13.7511313115
 20
6.850505988
 30
0.0
 10
13.7723457727
 20
6.8544869362
 30
0.0
 10
13.7836267005
 20
6.8564437306
 30
0.0
  0
SPLINE
  5
234
100
AcDbEntity
  8
0
100
AcDbSpline
 62
7
  6
BYLAYER
 70
0
 71
3
 72
13
 73
9
 74
0
 42
0.0000001
 43
0.0000001
 44
0.0000000001
 40
0.0
 40
0.0
 40
0.0
 40
0.0
 40
0.2424018287
 40
0.3723543655
 40
0.5042698867
 40
0.635465768
 40
0.7634662318
 40
1.0
 40
1.0
 40
1.0
 40
1.0
 10
13.9354524053
 20
6.5064654345
 30
0.0
 10
13.8980131823
 20
6.5064654216
 30
0.0
 10
13.8397490951
 20
6.5171761914
 30
0.0
 10
13.7700168393
 20
6.5526763445
 30
0.0
 10
13.7218706004
 20
6.5903950856
 30
0.0
 10
13.6830596066
 20
6.6372864841
 30
0.0
 10
13.6466044449
 20
6.7050443301
 30
0.0
 10
13.6354524057
 20
6.7621271079
 30
0.0
 10
13.6354524052
 20
6.7986600026
 30
0.0
  0
SPLINE
  5
235
100
AcDbEntity
  8
0
100
AcDbSpline
 62
7
  6
BYLAYER
 70
0
 71
3
 72
13
 73
9
 74
0
 42
0.0000001
 43
0.0000001
 44
0.0000000001
 40
0.0
 40
0.0
 40
0.0
 40
0.0
 40
0.2217136768
 40
0.3466971289
 40
0.4782108231
 40
0.6131052983
 40
0.7475972136
 40
1.0
 40
1.0
 40
1.0
 40
1.0
 10
14.0201234276
 20
6.5645234614
 30
0.0
 10
13.9910193313
 20
6.5696187692
 30
0.0
 10
13.9468976567
 20
6.5877293655
 30
0.0
 10
13.8962612467
 20
6.6266891776
 30
0.0
 10
13.8604312726
 20
6.6649515817
 30
0.0
 10
13.830545145
 20
6.7094934913
 30
0.0
 10
13.8002577491
 20
6.7722634574
 30
0.0
 10
13.7874664369
 20
6.823026743
 30
0.0
 10
13.7836266939
 20
6.8564434111
 30
0.0
  0
SPLINE
  5
236
100
AcDbEntity
  8
0
100
AcDbSpline
 62
7
  6
BYLAYER
 70
0
 71
3
 72
15
 73
11
 74
0
 42
0.0000001
 43
0.0000001
 44
0.0000000001
 40
0.0
 40
0.0
 40
0.0
 40
0.0
 40
0.0318126245
 40
0.0692183523
 40
0.1600743691
 40
0.2703230474
 40
0.3968569926
 40
0.5363802638
 40
0.6856961531
 40
1.0
 40
1.0
 40
1.0
 40
1.0
 10
29.250781383
 20
6.5645234614
 30
0.0
 10
29.2458569311
 20
6.5682385876
 30
0.0
 10
29.2357342318
 20
6.5771049041
 30
0.0
 10
29.2142734335
 20
6.5995586773
 30
0.0
 10
29.1855783567
 20
6.6359338664
 30
0.0
 10
29.1494228632
 20
6.6881853157
 30
0.0
 10
29.1102327756
 20
6.749753743
 30
0.0
 10
29.0685883417
 20
6.8186992069
 30
0.0
 10
29.0097021861
 20
6.9197502762
 30
0.0
 10
28.9655497704
 20
6.9980614761
 30
0.0
 10
28.9354524053
 20
7.0510567052
 30
0.0
  0
SPLINE
  5
237
100
AcDbEntity
  8
0
100
AcDbSpline
 62
7
  6
BYLAYER
 70
0
 71
3
 72
15
 73
11
 74
0
 42
0.0000001
 43
0.0000001
 44
0.0000000001
 40
0.0
 40
0.0
 40
0.0
 40
0.0
 40
0.314254785
 40
0.4635678985
 40
0.6031189192
 40
0.729683759
 40
0.8399479618
 40
0.9307951269
 40
0.9681925721
 40
1.0
 40
1.0
 40
1.0
 40
1.0
 10
14.3354524053
 20
7.0510567052
 30
0.0
 10
14.3053466573
 20
6.9980771773
 30
0.0
 10
14.2612131343
 20
6.9197668268
 30
0.0
 10
14.2023300219
 20
6.8187193337
 30
0.0
 10
14.160679912
 20
6.7497646439
 30
0.0
 10
14.1214816996
 20
6.6881843231
 30
0.0
 10
14.0853216332
 20
6.6359271889
 30
0.0
 10
14.0566263684
 20
6.5995525069
 30
0.0
 10
14.0351676585
 20
6.5771026976
 30
0.0
 10
14.0250468409
 20
6.5682382914
 30
0.0
 10
14.0201234275
 20
6.5645234614
 30
0.0
  0
SPLINE
  5
238
100
AcDbEntity
  8
0
100
AcDbSpline
 62
7
  6
BYLAYER
 70
0
 71
3
 72
13
 73
9
 74
0
 42
0.0000001
 43
0.0000001
 44
0.0000000001
 40
0.0
 40
0.0
 40
0.0
 40
0.0
 40
0.2170065456
 40
0.3403987269
 40
0.4711676754
 40
0.6064186997
 40
0.7423149481
 40
1.0
 40
1.0
 40
1.0
 40
1.0
 10
29.250781383
 20
6.5645234614
 30
0.0
 10
29.2792684667
 20
6.5695107477
 30
0.0
 10
29.3226183299
 20
6.5870754974
 30
0.0
 10
29.3728200147
 20
6.6250604115
 30
0.0
 10
29.408782945
 20
6.6628343996
 30
0.0
 10
29.4390880032
 20
6.7072628467
 30
0.0
 10
29.4701980338
 20
6.7706845857
 30
0.0
 10
29.483357893
 20
6.8223263358
 30
0.0
 10
29.4872781163
 20
6.8564434077
 30
0.0
  0
SPLINE
  5
239
100
AcDbEntity
  8
0
100
AcDbSpline
 62
7
  6
BYLAYER
 70
0
 71
3
 72
13
 73
9
 74
0
 42
0.0000001
 43
0.0000001
 44
0.0000000001
 40
0.0
 40
0.0
 40
0.0
 40
0.0
 40
0.2424023859
 40
0.3723550875
 40
0.5042706712
 40
0.6354664967
 40
0.7634667998
 40
1.0
 40
1.0
 40
1.0
 40
1.0
 10
29.3354524053
 20
6.5064655763
 30
0.0
 10
29.3728917183
 20
6.5064655763
 30
0.0
 10
29.4311559244
 20
6.5171764142
 30
0.0
 10
29.5008882505
 20
6.5526767173
 30
0.0
 10
29.5490344636
 20
6.5903955455
 30
0.0
 10
29.5878453839
 20
6.6372869814
 30
0.0
 10
29.6243004142
 20
6.705044768
 30
0.0
 10
29.6354524051
 20
6.7621274335
 30
0.0
 10
29.6354524053
 20
6.7986602445
 30
0.0
  0
SPLINE
  5
23A
100
AcDbEntity
  8
0
100
AcDbSpline
 62
7
  6
BYLAYER
 70
0
 71
3
 72
10
 73
6
 74
0
 42
0.0000001
 43
0.0000001
 44
0.0000000001
 40
0.0
 40
0.0
 40
0.0
 40
0.0
 40
0.2857250698
 40
0.5427824818
 40
1.0
 40
1.0
 40
1.0
 40
1.0
 10
29.3354524053
 20
4.8940947737
 30
0.0
 10
29.3566280547
 20
4.8915214596
 30
0.0
 10
29.3975516382
 20
4.8906490955
 30
0.0
 10
29.4711214247
 20
4.9054009445
 30
0.0
 10
29.5195594745
 20
4.9318334573
 30
0.0
 10
29.5455031895
 20
4.9540166313
 30
0.0
  0
SPLINE
  5
23B
100
AcDbEntity
  8
0
100
AcDbSpline
 62
7
  6
BYLAYER
 70
0
 71
3
 72
11
 73
7
 74
0
 42
0.0000001
 43
0.0000001
 44
0.0000000001
 40
0.0
 40
0.0
 40
0.0
 40
0.0
 40
0.2542634759
 40
0.5024492177
 40
0.7497182956
 40
1.0
 40
1.0
 40
1.0
 40
1.0
 10
29.5455031895
 20
4.9540166313
 30
0.0
 10
29.5602310105
 20
4.9666096549
 30
0.0
 10
29.5864802529
 20
4.9950599346
 30
0.0
 10
29.6149084122
 20
5.0451405227
 30
0.0
 10
29.631818387
 20
5.0998284809
 30
0.0
 10
29.6354524053
 20
5.1378645892
 30
0.0
 10
29.6354524053
 20
5.1569387755
 30
0.0
  0
SPLINE
  5
23C
100
AcDbEntity
  8
0
100
AcDbSpline
 62
7
  6
BYLAYER
 70
0
 71
3
 72
13
 73
9
 74
0
 42
0.0000001
 43
0.0000001
 44
0.0000000001
 40
0.0
 40
0.0
 40
0.0
 40
0.0
 40
0.3595895908
 40
0.6403113001
 40
0.7519745202
 40
0.8465081249
 40
0.9273092478
 40
1.0
 40
1.0
 40
1.0
 40
1.0
 10
14.0201234275
 20
6.5645234614
 30
0.0
 10
14.0077727153
 20
6.5607542998
 30
0.0
 10
13.9860488366
 20
6.5531367396
 30
0.0
 10
13.9617915863
 20
6.5408547974
 30
0.0
 10
13.9479066986
 20
6.5301322218
 30
0.0
 10
13.9408858093
 20
6.5224948939
 30
0.0
 10
13.9364984326
 20
6.5146201341
 30
0.0
 10
13.9354531504
 20
6.5090759376
 30
0.0
 10
13.9354524053
 20
6.5064655763
 30
0.0
  0
SPLINE
  5
23D
100
AcDbEntity
  8
0
100
AcDbSpline
 62
7
  6
BYLAYER
 70
0
 71
3
 72
11
 73
7
 74
0
 42
0.0000001
 43
0.0000001
 44
0.0000000001
 40
0.0
 40
0.0
 40
0.0
 40
0.0
 40
0.3532735533
 40
0.4856222945
 40
0.6374514868
 40
1.0
 40
1.0
 40
1.0
 40
1.0
 10
29.3354538581
 20
6.5064655763
 30
0.0
 10
29.3354526249
 20
6.5189858631
 30
0.0
 10
29.3200555291
 20
6.5335479734
 30
0.0
 10
29.3010918793
 20
6.5447466558
 30
0.0
 10
29.2802781433
 20
6.5547738391
 30
0.0
 10
29.263072612
 20
6.5607752048
 30
0.0
 10
29.250782542
 20
6.5645236634
 30
0.0
  0
SPLINE
  5
23E
100
AcDbEntity
  8
0
100
AcDbSpline
 62
7
  6
BYLAYER
 70
0
 71
3
 72
11
 73
7
 74
0
 42
0.0000001
 43
0.0000001
 44
0.0000000001
 40
0.0
 40
0.0
 40
0.0
 40
0.0
 40
0.2540668463
 40
0.5064666543
 40
0.7555938117
 40
1.0
 40
1.0
 40
1.0
 40
1.0
 10
29.6230376272
 20
14.8469387732
 30
0.0
 10
29.6230445713
 20
14.7786181958
 30
0.0
 10
29.6241483717
 20
14.6424236659
 30
0.0
 10
29.6284429356
 20
14.4392811446
 30
0.0
 10
29.633476417
 20
14.2387597392
 30
0.0
 10
29.6354475226
 20
14.1060482365
 30
0.0
 10
29.6354524053
 20
14.0403254861
 30
0.0
  0
SPLINE
  5
23F
100
AcDbEntity
  8
0
100
AcDbSpline
 62
7
  6
BYLAYER
 70
0
 71
3
 72
11
 73
7
 74
0
 42
0.0000001
 43
0.0000001
 44
0.0000000001
 40
0.0
 40
0.0
 40
0.0
 40
0.0
 40
0.2444068465
 40
0.4935339821
 40
0.7459329465
 40
1.0
 40
1.0
 40
1.0
 40
1.0
 10
29.6354524053
 20
15.6535630498
 30
0.0
 10
29.6354478053
 20
15.587839226
 30
0.0
 10
29.6334768123
 20
15.4551257356
 30
0.0
 10
29.6284431321
 20
15.2546016546
 30
0.0
 10
29.6241472418
 20
15.0514565711
 30
0.0
 10
29.6230433436
 20
14.9152603382
 30
0.0
 10
29.6230376272
 20
14.8469387732
 30
0.0
  0
SPLINE
  5
240
100
AcDbEntity
  8
0
100
AcDbSpline
 62
7
  6
BYLAYER
 70
0
 71
3
 72
13
 73
9
 74
0
 42
0.0000001
 43
0.0000001
 44
0.0000000001
 40
0.0
 40
0.0
 40
0.0
 40
0.0
 40
0.3944679641
 40
0.6909846086
 40
0.8013239297
 40
0.8871258954
 40
0.951009236
 40
1.0
 40
1.0
 40
1.0
 40
1.0
 10
29.4872771524
 20
6.8564437118
 30
0.0
 10
29.5085841996
 20
6.8527562099
 30
0.0
 10
29.5457404956
 20
6.8453460049
 30
0.0
 10
29.5881265302
 20
6.8333289134
 30
0.0
 10
29.6129617553
 20
6.8225766532
 30
0.0
 10
29.6251840692
 20
6.8151385028
 30
0.0
 10
29.6331802619
 20
6.8075086341
 30
0.0
 10
29.6354524299
 20
6.8013458487
 30
0.0
 10
29.6354524053
 20
6.7986602933
 30
0.0
  0
SPLINE
  5
241
100
AcDbEntity
  8
0
100
AcDbSpline
 62
7
  6
BYLAYER
 70
0
 71
3
 72
12
 73
8
 74
0
 42
0.0000001
 43
0.0000001
 44
0.0000000001
 40
0.0
 40
0.0
 40
0.0
 40
0.0
 40
0.2850376144
 40
0.5565069491
 40
0.8006349658
 40
0.9069948109
 40
1.0
 40
1.0
 40
1.0
 40
1.0
 10
28.9354505
 20
7.0510519905
 30
0.0
 10
28.9870631543
 20
7.0301952049
 30
0.0
 10
29.0878204023
 20
6.9894353556
 30
0.0
 10
29.2335742011
 20
6.9328353187
 30
0.0
 10
29.348145034
 20
6.8922656232
 30
0.0
 10
29.4313605802
 20
6.8681605655
 30
0.0
 10
29.4693804126
 20
6.8595437091
 30
0.0
 10
29.4872768032
 20
6.8564383975
 30
0.0
  0
SPLINE
  5
242
100
AcDbEntity
  8
0
100
AcDbSpline
 62
7
  6
BYLAYER
 70
0
 71
3
 72
11
 73
7
 74
0
 42
0.0000001
 43
0.0000001
 44
0.0000000001
 40
0.0
 40
0.0
 40
0.0
 40
0.0
 40
0.2540683926
 40
0.5064716191
 40
0.7555976001
 40
1.0
 40
1.0
 40
1.0
 40
1.0
 10
13.6478671833
 20
14.8469387757
 30
0.0
 10
13.6478608967
 20
14.9152597665
 30
0.0
 10
13.6467537148
 20
15.0514555976
 30
0.0
 10
13.6424642579
 20
15.2545992135
 30
0.0
 10
13.6374306329
 20
15.4551202071
 30
0.0
 10
13.6354587557
 20
15.5878303353
 30
0.0
 10
13.6354524053
 20
15.6535520645
 30
0.0
  0
SPLINE
  5
243
100
AcDbEntity
  8
0
100
AcDbSpline
 62
7
  6
BYLAYER
 70
0
 71
3
 72
11
 73
7
 74
0
 42
0.0000001
 43
0.0000001
 44
0.0000000001
 40
0.0
 40
0.0
 40
0.0
 40
0.0
 40
0.2444028726
 40
0.4935308468
 40
0.7459330166
 40
1.0
 40
1.0
 40
1.0
 40
1.0
 10
13.6354524053
 20
14.0403254868
 30
0.0
 10
13.6354581238
 20
14.1060473435
 30
0.0
 10
13.6374305324
 20
14.2387581326
 30
0.0
 10
13.6424614169
 20
14.4392795659
 30
0.0
 10
13.6467540561
 20
14.6424229773
 30
0.0
 10
13.6478622238
 20
14.7786181635
 30
0.0
 10
13.6478671833
 20
14.8469387757
 30
0.0
  0
SPLINE
  5
244
100
AcDbEntity
  8
0
100
AcDbSpline
 62
7
  6
BYLAYER
 70
0
 71
3
 72
12
 73
8
 74
0
 42
0.0000001
 43
0.0000001
 44
0.0000000001
 40
0.0
 40
0.0
 40
0.0
 40
0.0
 40
0.0930019439
 40
0.1993626553
 40
0.4434914415
 40
0.7149502307
 40
1.0
 40
1.0
 40
1.0
 40
1.0
 10
13.7836268326
 20
6.8564417193
 30
0.0
 10
13.8015226157
 20
6.8595467972
 30
0.0
 10
13.8395419743
 20
6.8681636345
 30
0.0
 10
13.9227571713
 20
6.8922686495
 30
0.0
 10
14.0373264864
 20
6.9328373192
 30
0.0
 10
14.1830806572
 20
6.9894375835
 30
0.0
 10
14.2838381273
 20
7.030197641
 30
0.0
 10
14.3354530281
 20
7.051055164
 30
0.0
  0
ENDSEC
  0
SECTION
  2
OBJECTS
  0
DICTIONARY
  5
C
100
AcDbDictionary
280
0
281
1
  3
ACAD_GROUP
350
D
  3
ACAD_MLINESTYLE
350
17
  3
ACAD_LAYOUT
350
1A
  3
ACAD_PLOTSETTINGS
350
19
  3
ACAD_PLOTSTYLENAME
350
E
  0
DICTIONARY
  5
D
102
{ACAD_REACTORS
330
C
102
}
100
AcDbDictionary
280
0
281
1
  0
ACDBDICTIONARYWDFLT
  5
E
102
{ACAD_REACTORS
330
C
102
}
100
AcDbDictionary
281
1
  3
Normal
350
F
100
AcDbDictionaryWithDefault
340
F
  0
DICTIONARY
  5
17
102
{ACAD_REACTORS
330
C
102
}
100
AcDbDictionary
280
0
281
1
  3
Standard
350
18
  0
DICTIONARY
  5
19
102
{ACAD_REACTORS
330
C
102
}
100
AcDbDictionary
281
1
  0
DICTIONARY
  5
1A
102
{ACAD_REACTORS
330
C
102
}
100
AcDbDictionary
281
1
  3
Model
350
245
  3
Layout1
350
246
  0
ACDBPLACEHOLDER
  5
F
102
{ACAD_REACTORS
330
E
102
}
  0
MLINESTYLE
  5
18
102
{ACAD_REACTORS
330
17
102
}
100
AcDbMlineStyle
  2
STANDARD
 70
0
  3

 62
256
 51
90.0
 52
90.0
 71
2
 49
0.5
 62
256
  6
BYLAYER
 49
-0.5
 62
256
  6
BYLAYER
  0
LAYOUT
  5
245
102
{ACAD_REACTORS
330
1A
102
}
100
AcDbPlotSettings
  1

  2
none_device
  4

  6

 40
0.0
 41
0.0
 42
0.0
 43
0.0
 44
210.0
 45
297.0
 46
0.0
 47
0.0
 48
0.0
 49
0.0
140
0.0
141
0.0
142
1.0
143
1.0
 70
1024
 72
1
 73
0
 74
0
  7

 75
0
147
1.0
148
0.0
149
0.0
100
AcDbLayout
  1
Model
 70
0
 71
0
 10
0.0
 20
0.0
 11
210.0
 21
297.0
 12
0.0
 22
0.0
 32
0.0
 14
0.0
 24
0.0
 34
0.0
 15
0.0
 25
0.0
 35
0.0
146
0.0
 13
0.0
 23
0.0
 33
0.0
 16
1.0
 26
0.0
 36
0.0
 17
0.0
 27
1.0
 37
0.0
 76
0
330
210
345
0
346
0
  0
LAYOUT
  5
246
102
{ACAD_REACTORS
330
1A
102
}
100
AcDbPlotSettings
  1

  2
none_device
  4

  6

 40
0.0
 41
0.0
 42
0.0
 43
0.0
 44
210.0
 45
297.0
 46
0.0
 47
0.0
 48
0.0
 49
0.0
140
0.0
141
0.0
142
1.0
143
1.0
 70
0
 72
1
 73
0
 74
0
  7

 75
0
147
1.0
148
0.0
149
0.0
100
AcDbLayout
  1
Layout1
 70
0
 71
1
 10
0.0
 20
0.0
 11
210.0
 21
297.0
 12
0.0
 22
0.0
 32
0.0
 14
0.0
 24
0.0
 34
0.0
 15
0.0
 25
0.0
 35
0.0
146
0.0
 13
0.0
 23
0.0
 33
0.0
 16
1.0
 26
0.0
 36
0.0
 17
0.0
 27
1.0
 37
0.0
 76
0
330
211
345
0
346
0
  0
ENDSEC
  0
EOF
