999
DXF file: C:\Users\sesa63760\Dev\_Creo\CAD\MCADID0002245_3D-CAD\drw0001_6.dxf
999
Pro/ENGINEER 2019471 by Parametric Technology Corporation
  0
SECTION
  2
HEADER
  9
$ACADVER
  1
AC1024
  9
$DWGCODEPAGE
  3
ANSI_1252
  9
$EXTMAX
 10
96.5382045681
 20
136.5326036035
 30
0.0
  9
$EXTMIN
 10
0.0
 20
0.0
 30
0.0
  9
$LIMMIN
 10
0.0
 20
0.0
  9
$LIMMAX
 10
96.5382045681
 20
136.5326036035
  9
$VIEWCTR
 10
48.269102284
 20
68.2663018017
  9
$VIEWSIZE
 40
136.5326036035
  9
$CLAYER
  8
0
  9
$LTSCALE
 40
8.8999030497
  9
$CELTYPE
  6
BYLAYER
  9
$DIMSCALE
 40
1.0
  9
$DIMASZ
 40
1.1492643401
  9
$DIMEXO
 40
1.0
  9
$DIMDLI
 40
6.1490239253
  9
$DIMEXE
 40
1.0
  9
$DIMCEN
 40
1.4563477718
  9
$DIMLFAC
 40
1.0
  9
$DIMBLK
  1
_FILLED
  9
$DIMALT
 70
0
  9
$DIMALTF
 40
0.0393700787
  9
$DIMTXT
 40
1.6089700761
  9
$DIMTOL
 70
1
  9
$DIMLIM
 70
0
  9
$DIMTFAC
 40
1.0
  9
$DIMTP
 40
0.01
  9
$DIMTM
 40
0.01
  9
$DIMGAP
 40
0.625
  9
$DIMDSEP
 70
46
  9
$AUNITS
 70
0
  9
$PDMODE
 70
3
  9
$PDSIZE
 40
0.3125
  9
$HANDSEED
  5
2D3
  9
$TILEMODE
 70
1
  9
$MEASUREMENT
 70
1
  9
$INSUNITS
 70
4
  0
ENDSEC
  0
SECTION
  2
CLASSES
  0
CLASS
  1
ACDBDICTIONARYWDFLT
  2
AcDbDictionaryWithDefault
  3
AutoCAD 2000
 90
0
 91
1
280
0
281
0
  0
CLASS
  1
ACDBPLACEHOLDER
  2
AcDbPlaceHolder
  3
AutoCAD 2000
 90
0
 91
1
280
0
281
0
  0
CLASS
  1
LAYOUT
  2
AcDbLayout
  3
AutoCAD 2000
 90
0
 91
0
280
0
281
0
  0
ENDSEC
  0
SECTION
  2
TABLES
  0
TABLE
  2
VPORT
  5
8
100
AcDbSymbolTable
 70
2
  0
VPORT
  5
1F4
100
AcDbSymbolTableRecord
100
AcDbViewportTableRecord
  2
*ACTIVE
 70
0
 10
0.0
 20
0.0
 11
1.0
 21
1.0
 12
48.269102284
 22
68.2663018017
 13
0.0
 23
0.0
 14
1.0
 24
1.0
 15
0.0
 25
0.0
 16
0.0
 26
0.0
 36
1.0
 17
0.0
 27
0.0
 37
0.0
 40
136.5326036035
 41
0.7070707071
 42
50.0
 43
0.0
 44
0.0
 50
0.0
 51
0.0
 71
0
 72
100
 73
1
 74
1
 75
0
 76
0
 77
0
 78
0
  0
ENDTAB
  0
TABLE
  2
LTYPE
  5
5
100
AcDbSymbolTable
 70
6
  0
LTYPE
  5
14
100
AcDbSymbolTableRecord
100
AcDbLinetypeTableRecord
  2
BYBLOCK
 70
0
  3

 72
65
 73
0
 40
0.0
  0
LTYPE
  5
15
100
AcDbSymbolTableRecord
100
AcDbLinetypeTableRecord
  2
BYLAYER
 70
0
  3

 72
65
 73
0
 40
0.0
  0
LTYPE
  5
16
100
AcDbSymbolTableRecord
100
AcDbLinetypeTableRecord
  2
CONTINUOUS
 70
64
  3
Solid line
 72
65
 73
0
 40
0.0
  0
LTYPE
  5
1F5
100
AcDbSymbolTableRecord
100
AcDbLinetypeTableRecord
  2
CENTER
 70
64
  3
____ _ ____ _ ____ _ ____ _ ____ _ ____ _ ____
 72
65
 73
4
 40
0.6
 49
0.375
 74
0
 49
-0.075
 74
0
 49
0.075
 74
0
 49
-0.075
 74
0
  0
LTYPE
  5
1F6
100
AcDbSymbolTableRecord
100
AcDbLinetypeTableRecord
  2
HIDDEN
 70
64
  3
- - - - - - - - - - - - - - - - - - - -
 72
65
 73
2
 40
0.2
 49
0.1
 74
0
 49
-0.1
 74
0
  0
LTYPE
  5
1F7
100
AcDbSymbolTableRecord
100
AcDbLinetypeTableRecord
  2
PHANTOM
 70
64
  3
_____ _ _ _____ _ _ _____ _ _ _____
 72
65
 73
6
 40
0.8
 49
0.45
 74
0
 49
-0.05
 74
0
 49
0.1
 74
0
 49
-0.05
 74
0
 49
0.1
 74
0
 49
-0.05
 74
0
  0
LTYPE
  5
1F8
100
AcDbSymbolTableRecord
100
AcDbLinetypeTableRecord
  2
DOT
 70
64
  3
. . . . . . . . . . . . . . . . . . . .
 72
65
 73
2
 40
0.2
 49
0.1
 74
0
 49
-0.1
 74
0
  0
LTYPE
  5
1F9
100
AcDbSymbolTableRecord
100
AcDbLinetypeTableRecord
  2
DASHED
 70
64
  3
- - - - - - - - - - - - - - - - - - - -
 72
65
 73
2
 40
0.2
 49
0.1
 74
0
 49
-0.1
 74
0
  0
ENDTAB
  0
TABLE
  2
LAYER
  5
2
100
AcDbSymbolTable
 70
36
  0
LAYER
  5
10
100
AcDbSymbolTableRecord
100
AcDbLayerTableRecord
  2
0
 70
0
 62
7
  6
CONTINUOUS
370
-3
390
F
  0
LAYER
  5
1FA
100
AcDbSymbolTableRecord
100
AcDbLayerTableRecord
  2
DEFAULT_1
 70
0
 62
7
  6
CENTER
370
-3
390
F
  0
LAYER
  5
1FB
100
AcDbSymbolTableRecord
100
AcDbLayerTableRecord
  2
DEFAULT_2
 70
0
 62
8
  6
HIDDEN
370
-3
390
F
  0
LAYER
  5
1FC
100
AcDbSymbolTableRecord
100
AcDbLayerTableRecord
  2
DEFAULT_3
 70
0
 62
7
  6
PHANTOM
370
-3
390
F
  0
LAYER
  5
1FD
100
AcDbSymbolTableRecord
100
AcDbLayerTableRecord
  2
00_COMPONENTS
 70
0
 62
7
  6
CONTINUOUS
370
-3
390
F
  0
LAYER
  5
1FE
100
AcDbSymbolTableRecord
100
AcDbLayerTableRecord
  2
01_1_DEFAULT_DATUMS
 70
0
 62
7
  6
CONTINUOUS
370
-3
390
F
  0
LAYER
  5
1FF
100
AcDbSymbolTableRecord
100
AcDbLayerTableRecord
  2
01_PLANES
 70
0
 62
7
  6
CONTINUOUS
370
-3
390
F
  0
LAYER
  5
200
100
AcDbSymbolTableRecord
100
AcDbLayerTableRecord
  2
02_COORD_SYS
 70
0
 62
7
  6
CONTINUOUS
370
-3
390
F
  0
LAYER
  5
201
100
AcDbSymbolTableRecord
100
AcDbLayerTableRecord
  2
03_AXES
 70
0
 62
7
  6
CONTINUOUS
370
-3
390
F
  0
LAYER
  5
202
100
AcDbSymbolTableRecord
100
AcDbLayerTableRecord
  2
04_POINTS
 70
0
 62
7
  6
CONTINUOUS
370
-3
390
F
  0
LAYER
  5
203
100
AcDbSymbolTableRecord
100
AcDbLayerTableRecord
  2
05_CURVES
 70
0
 62
7
  6
CONTINUOUS
370
-3
390
F
  0
LAYER
  5
204
100
AcDbSymbolTableRecord
100
AcDbLayerTableRecord
  2
06_SURFS
 70
0
 62
7
  6
CONTINUOUS
370
-3
390
F
  0
LAYER
  5
205
100
AcDbSymbolTableRecord
100
AcDbLayerTableRecord
  2
07_COSMETICS
 70
0
 62
7
  6
CONTINUOUS
370
-3
390
F
  0
LAYER
  5
206
100
AcDbSymbolTableRecord
100
AcDbLayerTableRecord
  2
10_NOTES
 70
0
 62
7
  6
CONTINUOUS
370
-3
390
F
  0
LAYER
  5
207
100
AcDbSymbolTableRecord
100
AcDbLayerTableRecord
  2
11_NOTES_PUB
 70
0
 62
7
  6
CONTINUOUS
370
-3
390
F
  0
LAYER
  5
208
100
AcDbSymbolTableRecord
100
AcDbLayerTableRecord
  2
13_REF_GTOL
 70
0
 62
7
  6
CONTINUOUS
370
-3
390
F
  0
LAYER
  5
209
100
AcDbSymbolTableRecord
100
AcDbLayerTableRecord
  2
16_MISC
 70
0
 62
7
  6
CONTINUOUS
370
-3
390
F
  0
LAYER
  5
20A
100
AcDbSymbolTableRecord
100
AcDbLayerTableRecord
  2
17_NO_PRINT
 70
0
 62
7
  6
CONTINUOUS
370
-3
390
F
  0
LAYER
  5
20B
100
AcDbSymbolTableRecord
100
AcDbLayerTableRecord
  2
18_DATUM_CAMS_JOINTS
 70
0
 62
7
  6
CONTINUOUS
370
-3
390
F
  0
LAYER
  5
20C
100
AcDbSymbolTableRecord
100
AcDbLayerTableRecord
  2
19_DATUM_FUNCTIONAL
 70
0
 62
7
  6
CONTINUOUS
370
-3
390
F
  0
LAYER
  5
20D
100
AcDbSymbolTableRecord
100
AcDbLayerTableRecord
  2
20_DATUM_KINEMATIC_SCHEME
 70
0
 62
7
  6
CONTINUOUS
370
-3
390
F
  0
ENDTAB
  0
TABLE
  2
STYLE
  5
3
100
AcDbSymbolTable
 70
1
  0
STYLE
  5
11
100
AcDbSymbolTableRecord
100
AcDbTextStyleTableRecord
  2
STANDARD
 70
0
 40
0.0
 41
0.8
 50
0.0
 71
0
 42
0.2
  3
txt
  4

  0
STYLE
  5
20E
100
AcDbSymbolTableRecord
100
AcDbTextStyleTableRecord
  2
TEXTSTYLE_1
 70
0
 40
0.0
 41
0.8
 50
0.0
 71
0
 42
0.2
  3
gdt
  4

  0
ENDTAB
  0
TABLE
  2
VIEW
  5
6
100
AcDbSymbolTable
 70
0
  0
ENDTAB
  0
TABLE
  2
UCS
  5
7
100
AcDbSymbolTable
 70
0
  0
ENDTAB
  0
TABLE
  2
APPID
  5
9
100
AcDbSymbolTable
 70
1
  0
APPID
  5
20F
100
AcDbSymbolTableRecord
100
AcDbRegAppTableRecord
  2
ACAD
 70
0
  0
ENDTAB
  0
TABLE
  2
BLOCK_RECORD
  5
1
100
AcDbSymbolTable
 70
0
  0
BLOCK_RECORD
  5
210
100
AcDbSymbolTableRecord
100
AcDbBlockTableRecord
  2
*Model_Space
  0
BLOCK_RECORD
  5
211
100
AcDbSymbolTableRecord
100
AcDbBlockTableRecord
  2
*Paper_Space
  0
BLOCK_RECORD
  5
212
100
AcDbSymbolTableRecord
100
AcDbBlockTableRecord
  2
_FILLED
  0
ENDTAB
  0
TABLE
  2
DIMSTYLE
  5
A
100
AcDbSymbolTable
 70
1
100
AcDbDimStyleTable
 71
0
  0
DIMSTYLE
105
213
100
AcDbSymbolTableRecord
100
AcDbDimStyleTableRecord
  2
STANDARD
 70
0
  3

  4

 40
1.0
 41
1.1492643401
 42
1.0
 43
0.38
 44
1.0
 45
0.0
 46
0.0
 47
0.01
 48
0.01
140
1.6089700761
141
0.09
142
0.0
143
25.4
144
1.0
145
0.0
146
1.0
147
0.625
 71
1
 72
0
 73
0
 74
0
 75
0
 76
0
 77
1
 78
8
 79
2
170
0
171
1
172
0
173
0
174
0
175
0
176
0
177
0
178
0
270
2
179
2
271
2
272
2
273
2
274
2
275
0
280
0
281
0
282
0
283
1
284
8
285
0
286
0
287
3
288
0
340
11
278
46
341
212
342
212
343
212
344
212
  0
ENDTAB
  0
ENDSEC
  0
SECTION
  2
BLOCKS
  0
BLOCK
  5
20
100
AcDbEntity
  8
0
100
AcDbBlockBegin
  2
*Model_Space
 70
0
 10
0.0
 20
0.0
 30
0.0
  3
*Model_Space
  1

  0
ENDBLK
  5
21
100
AcDbEntity
  8
0
100
AcDbBlockEnd
  0
BLOCK
  5
1C
100
AcDbEntity
  8
0
100
AcDbBlockBegin
  2
*Paper_Space
 70
0
 10
0.0
 20
0.0
 30
0.0
  3
*Paper_Space
  1

  0
ENDBLK
  5
1D
100
AcDbEntity
  8
0
100
AcDbBlockEnd
  0
BLOCK
  5
214
100
AcDbEntity
  8
0
100
AcDbBlockBegin
  2
_FILLED
 70
64
 10
0.0
 20
0.0
  3
_FILLED
  1

  0
SOLID
  5
215
100
AcDbEntity
  8
0
  6
BYBLOCK
 62
0
100
AcDbTrace
 10
0.0
 20
0.0
 11
-1.0
 21
0.25
 12
-1.0
 22
-0.25
 13
-1.0
 23
-0.25
  0
ENDBLK
  5
216
100
AcDbEntity
  8
0
  6
BYBLOCK
 62
0
100
AcDbBlockEnd
  0
ENDSEC
  0
SECTION
  2
ENTITIES
  0
LINE
  5
217
100
AcDbEntity
  8
0
100
AcDbLine
 62
7
  6
CONTINUOUS
 10
11.0425880525
 20
28.486299081
 11
11.2425880525
 21
28.286299081
  0
LINE
  5
218
100
AcDbEntity
  8
0
100
AcDbLine
 62
7
  6
CONTINUOUS
 10
11.0825880525
 20
40.686299081
 11
10.8825880525
 21
40.886299081
  0
LINE
  5
219
100
AcDbEntity
  8
0
100
AcDbLine
 62
7
  6
CONTINUOUS
 10
85.7791828523
 20
26.586299081
 11
40.2478474444
 21
26.586299081
  0
LINE
  5
21A
100
AcDbEntity
  8
0
100
AcDbLine
 62
7
  6
CONTINUOUS
 10
40.2227412681
 20
26.586299081
 11
12.667764014
 21
26.586299081
  0
LINE
  5
21B
100
AcDbEntity
  8
0
100
AcDbLine
 62
7
  6
CONTINUOUS
 10
32.1919166442
 20
26.5987014307
 11
40.2227412672
 21
26.5987014307
  0
LINE
  5
21C
100
AcDbEntity
  8
0
100
AcDbLine
 62
7
  6
CONTINUOUS
 10
85.9700094269
 20
26.5987014307
 11
86.0051857028
 21
26.5987014307
  0
LINE
  5
21D
100
AcDbEntity
  8
0
100
AcDbLine
 62
7
  6
CONTINUOUS
 10
11.2575507227
 20
45.886299081
 11
11.2456991939
 21
46.0671870526
  0
LINE
  5
21E
100
AcDbEntity
  8
0
100
AcDbLine
 62
7
  6
CONTINUOUS
 10
11.2425880525
 20
46.161299081
 11
11.2456991939
 21
46.0671870526
  0
LINE
  5
21F
100
AcDbEntity
  8
0
100
AcDbLine
 62
7
  6
CONTINUOUS
 10
10.8825880525
 20
40.886299081
 11
10.8825880525
 21
45.686299081
  0
LINE
  5
220
100
AcDbEntity
  8
0
100
AcDbLine
 62
7
  6
CONTINUOUS
 10
11.0425880525
 20
28.486299081
 11
11.0425880525
 21
33.286299081
  0
LINE
  5
221
100
AcDbEntity
  8
0
100
AcDbLine
 62
7
  6
CONTINUOUS
 10
11.2098442651
 20
40.886299081
 11
11.2098442651
 21
45.686299081
  0
LINE
  5
222
100
AcDbEntity
  8
0
100
AcDbLine
 62
7
  6
CONTINUOUS
 10
11.4425880525
 20
40.686299081
 11
11.4425880525
 21
33.486299081
  0
LINE
  5
223
100
AcDbEntity
  8
0
100
AcDbLine
 62
7
  6
CONTINUOUS
 10
11.2456991939
 20
28.1054111094
 11
87.2394769111
 21
28.1054111094
  0
LINE
  5
224
100
AcDbEntity
  8
0
100
AcDbLine
 62
7
  6
CONTINUOUS
 10
11.2425880525
 20
28.286299081
 11
11.2608541407
 21
28.2862990397
  0
LINE
  5
225
100
AcDbEntity
  8
0
100
AcDbLine
 62
7
  6
CONTINUOUS
 10
13.9675880525
 20
49.286299081
 11
13.9675880525
 21
52.286299081
  0
LINE
  5
226
100
AcDbEntity
  8
0
100
AcDbLine
 62
7
  6
CONTINUOUS
 10
13.9863386065
 20
52.286299081
 11
13.9863386065
 21
53.436299081
  0
LINE
  5
227
100
AcDbEntity
  8
0
100
AcDbLine
 62
7
  6
CONTINUOUS
 10
13.9994947575
 20
49.286299081
 11
13.9994947575
 21
52.286299081
  0
LINE
  5
228
100
AcDbEntity
  8
0
100
AcDbLine
 62
7
  6
CONTINUOUS
 10
14.2675880525
 20
47.586299081
 11
14.2675880525
 21
49.286299081
  0
LINE
  5
229
100
AcDbEntity
  8
0
100
AcDbLine
 62
7
  6
CONTINUOUS
 10
14.2675880525
 20
54.586299081
 11
14.2675880525
 21
100.686299081
  0
LINE
  5
22A
100
AcDbEntity
  8
0
100
AcDbLine
 62
7
  6
CONTINUOUS
 10
14.286499527
 20
53.436299081
 11
14.286499527
 21
52.286299081
  0
LINE
  5
22B
100
AcDbEntity
  8
0
100
AcDbLine
 62
7
  6
CONTINUOUS
 10
14.29976869
 20
52.286299081
 11
14.29976869
 21
49.286299081
  0
LINE
  5
22C
100
AcDbEntity
  8
0
100
AcDbLine
 62
7
  6
CONTINUOUS
 10
11.2456991939
 20
28.1054111094
 11
11.2425880525
 21
28.011299081
  0
LINE
  5
22D
100
AcDbEntity
  8
0
100
AcDbLine
 62
7
  6
CONTINUOUS
 10
11.2456991939
 20
28.1054111094
 11
11.2575507227
 21
28.286299081
  0
LINE
  5
22E
100
AcDbEntity
  8
0
100
AcDbLine
 62
7
  6
CONTINUOUS
 10
14.8537054309
 20
32.986299081
 11
11.2874837321
 21
32.986299081
  0
LINE
  5
22F
100
AcDbEntity
  8
0
100
AcDbLine
 62
7
  6
CONTINUOUS
 10
83.6314704665
 20
32.986299081
 11
87.3043492117
 21
32.986299081
  0
LINE
  5
230
100
AcDbEntity
  8
0
100
AcDbLine
 62
7
  6
CONTINUOUS
 10
11.2425599747
 20
33.486299081
 11
14.3194936799
 21
33.486299081
  0
LINE
  5
231
100
AcDbEntity
  8
0
100
AcDbLine
 62
7
  6
CONTINUOUS
 10
84.1656824251
 20
33.486299081
 11
87.2903405019
 21
33.486299081
  0
LINE
  5
232
100
AcDbEntity
  8
0
100
AcDbLine
 62
7
  6
CONTINUOUS
 10
16.2925880525
 20
102.3585422674
 11
16.2925880525
 21
109.686299081
  0
LINE
  5
233
100
AcDbEntity
  8
0
100
AcDbLine
 62
7
  6
CONTINUOUS
 10
16.3597748077
 20
109.186299081
 11
16.3597748077
 21
102.3585431129
  0
LINE
  5
234
100
AcDbEntity
  8
0
100
AcDbLine
 62
7
  6
CONTINUOUS
 10
16.5479175024
 20
109.186300111
 11
16.5479175024
 21
102.3585422674
  0
LINE
  5
235
100
AcDbEntity
  8
0
100
AcDbLine
 62
7
  6
CONTINUOUS
 10
16.8431571161
 20
52.286299081
 11
16.8431571161
 21
49.286299081
  0
LINE
  5
236
100
AcDbEntity
  8
0
100
AcDbLine
 62
7
  6
CONTINUOUS
 10
17.1425880525
 20
100.686299081
 11
17.1425880525
 21
100.886299081
  0
LINE
  5
237
100
AcDbEntity
  8
0
100
AcDbLine
 62
7
  6
CONTINUOUS
 10
17.3946284161
 20
102.3585422674
 11
17.3946284161
 21
108.686299081
  0
LINE
  5
238
100
AcDbEntity
  8
0
100
AcDbLine
 62
7
  6
CONTINUOUS
 10
17.6568135328
 20
108.586299081
 11
17.6568135328
 21
101.586299081
  0
LINE
  5
239
100
AcDbEntity
  8
0
100
AcDbLine
 62
7
  6
CONTINUOUS
 10
17.7051098241
 20
108.686299081
 11
17.7051098241
 21
108.586299081
  0
LINE
  5
23A
100
AcDbEntity
  8
0
100
AcDbLine
 62
7
  6
CONTINUOUS
 10
17.779544255
 20
53.536299081
 11
17.779544255
 21
52.286299081
  0
LINE
  5
23B
100
AcDbEntity
  8
0
100
AcDbLine
 62
7
  6
CONTINUOUS
 10
17.9855388475
 20
52.286299081
 11
17.9855388475
 21
53.536299081
  0
LINE
  5
23C
100
AcDbEntity
  8
0
100
AcDbLine
 62
7
  6
CONTINUOUS
 10
18.1443063475
 20
49.286299081
 11
18.1443063475
 21
52.286299081
  0
LINE
  5
23D
100
AcDbEntity
  8
0
100
AcDbLine
 62
7
  6
CONTINUOUS
 10
18.3245007087
 20
53.536299081
 11
18.3245007087
 21
52.286299081
  0
LINE
  5
23E
100
AcDbEntity
  8
0
100
AcDbLine
 62
7
  6
CONTINUOUS
 10
18.4850178461
 20
52.286299081
 11
18.4850178461
 21
49.286299081
  0
LINE
  5
23F
100
AcDbEntity
  8
0
100
AcDbLine
 62
7
  6
CONTINUOUS
 10
18.700762223
 20
53.536299081
 11
18.700762223
 21
52.286299081
  0
LINE
  5
240
100
AcDbEntity
  8
0
100
AcDbLine
 62
7
  6
CONTINUOUS
 10
18.935441618
 20
52.286299081
 11
18.935441618
 21
53.536299081
  0
LINE
  5
241
100
AcDbEntity
  8
0
100
AcDbLine
 62
7
  6
CONTINUOUS
 10
19.2851494938
 20
53.536299081
 11
19.2851494938
 21
52.286299081
  0
LINE
  5
242
100
AcDbEntity
  8
0
100
AcDbLine
 62
7
  6
CONTINUOUS
 10
79.1159624609
 20
37.5854393389
 11
79.4925883773
 21
37.5862886591
  0
LINE
  5
243
100
AcDbEntity
  8
0
100
AcDbLine
 62
7
  6
CONTINUOUS
 10
19.3691268648
 20
37.5854701638
 11
18.9924333267
 21
37.5863078956
  0
LINE
  5
244
100
AcDbEntity
  8
0
100
AcDbLine
 62
7
  6
CONTINUOUS
 10
83.2487383508
 20
39.336299081
 11
79.5149889983
 21
39.336299081
  0
LINE
  5
245
100
AcDbEntity
  8
0
100
AcDbLine
 62
7
  6
CONTINUOUS
 10
18.9701871277
 20
39.336299081
 11
15.2364377608
 21
39.336299081
  0
LINE
  5
246
100
AcDbEntity
  8
0
100
AcDbLine
 62
7
  6
CONTINUOUS
 10
22.8837490285
 20
40.0862950921
 11
22.4558731268
 21
40.0862952603
  0
LINE
  5
247
100
AcDbEntity
  8
0
100
AcDbLine
 62
7
  6
CONTINUOUS
 10
75.6014251866
 20
40.0863023954
 11
76.0293081577
 21
40.0863022553
  0
LINE
  5
248
100
AcDbEntity
  8
0
100
AcDbLine
 62
7
  6
CONTINUOUS
 10
87.2903405019
 20
40.686299081
 11
84.1656824251
 21
40.686299081
  0
LINE
  5
249
100
AcDbEntity
  8
0
100
AcDbLine
 62
7
  6
CONTINUOUS
 10
11.0826434999
 20
40.686299081
 11
14.3194936799
 21
40.686299081
  0
LINE
  5
24A
100
AcDbEntity
  8
0
100
AcDbLine
 62
7
  6
CONTINUOUS
 10
15.199353678
 20
40.836299081
 11
18.9285351489
 21
40.836299081
  0
LINE
  5
24B
100
AcDbEntity
  8
0
100
AcDbLine
 62
7
  6
CONTINUOUS
 10
79.5566410264
 20
40.836299081
 11
83.2858224337
 21
40.836299081
  0
LINE
  5
24C
100
AcDbEntity
  8
0
100
AcDbLine
 62
7
  6
CONTINUOUS
 10
11.2098442651
 20
40.886299081
 11
10.8825880525
 21
40.886299081
  0
LINE
  5
24D
100
AcDbEntity
  8
0
100
AcDbLine
 62
7
  6
CONTINUOUS
 10
11.5105119563
 20
41.186299081
 11
14.8537056399
 21
41.186299081
  0
LINE
  5
24E
100
AcDbEntity
  8
0
100
AcDbLine
 62
7
  6
CONTINUOUS
 10
83.6314706741
 20
41.186299081
 11
87.3043492117
 21
41.186299081
  0
LINE
  5
24F
100
AcDbEntity
  8
0
100
AcDbLine
 62
7
  6
CONTINUOUS
 10
79.2541565476
 20
42.5862905947
 11
79.6315617287
 21
42.5862909738
  0
LINE
  5
250
100
AcDbEntity
  8
0
100
AcDbLine
 62
7
  6
CONTINUOUS
 10
19.2311070151
 20
42.5863092509
 11
18.8537740931
 21
42.5863087894
  0
LINE
  5
251
100
AcDbEntity
  8
0
100
AcDbLine
 62
7
  6
CONTINUOUS
 10
10.8825880525
 20
45.686299081
 11
11.2098442651
 21
45.686299081
  0
LINE
  5
252
100
AcDbEntity
  8
0
100
AcDbLine
 62
7
  6
CONTINUOUS
 10
11.0826434999
 20
45.886299081
 11
11.5880656031
 21
45.886299081
  0
LINE
  5
253
100
AcDbEntity
  8
0
100
AcDbLine
 62
7
  6
CONTINUOUS
 10
11.2456991939
 20
46.0671870526
 11
87.2394769111
 21
46.0671870526
  0
LINE
  5
254
100
AcDbEntity
  8
0
100
AcDbLine
 62
7
  6
CONTINUOUS
 10
12.6677268577
 20
47.586299081
 11
85.8174492473
 21
47.586299081
  0
LINE
  5
255
100
AcDbEntity
  8
0
100
AcDbLine
 62
7
  6
CONTINUOUS
 10
18.4850178461
 20
49.286299081
 11
16.8431571161
 21
49.286299081
  0
LINE
  5
256
100
AcDbEntity
  8
0
100
AcDbLine
 62
7
  6
CONTINUOUS
 10
14.29976869
 20
49.286299081
 11
13.9675886156
 21
49.286299081
  0
LINE
  5
257
100
AcDbEntity
  8
0
100
AcDbLine
 62
7
  6
CONTINUOUS
 10
19.2851494938
 20
52.286299081
 11
18.700762223
 21
52.286299081
  0
LINE
  5
258
100
AcDbEntity
  8
0
100
AcDbLine
 62
7
  6
CONTINUOUS
 10
14.29976869
 20
52.286299081
 11
13.9994947575
 21
52.286299081
  0
LINE
  5
259
100
AcDbEntity
  8
0
100
AcDbLine
 62
7
  6
CONTINUOUS
 10
13.9675880876
 20
52.286299081
 11
13.9755620225
 21
52.286299081
  0
LINE
  5
25A
100
AcDbEntity
  8
0
100
AcDbLine
 62
7
  6
CONTINUOUS
 10
16.8431571161
 20
52.286299081
 11
17.779544255
 21
52.286299081
  0
LINE
  5
25B
100
AcDbEntity
  8
0
100
AcDbLine
 62
7
  6
CONTINUOUS
 10
17.9855388475
 20
52.286299081
 11
18.4850178461
 21
52.286299081
  0
LINE
  5
25C
100
AcDbEntity
  8
0
100
AcDbLine
 62
7
  6
CONTINUOUS
 10
13.9863386065
 20
53.436299081
 11
14.286499527
 21
53.436299081
  0
LINE
  5
25D
100
AcDbEntity
  8
0
100
AcDbLine
 62
7
  6
CONTINUOUS
 10
17.9855388475
 20
53.536299081
 11
18.3245007087
 21
53.536299081
  0
LINE
  5
25E
100
AcDbEntity
  8
0
100
AcDbLine
 62
7
  6
CONTINUOUS
 10
18.935441618
 20
53.536299081
 11
19.2851494938
 21
53.536299081
  0
LINE
  5
25F
100
AcDbEntity
  8
0
100
AcDbLine
 62
7
  6
CONTINUOUS
 10
11.0825880525
 20
45.886299081
 11
10.8825880525
 21
45.686299081
  0
LINE
  5
260
100
AcDbEntity
  8
0
100
AcDbLine
 62
7
  6
CONTINUOUS
 10
18.6770743974
 20
54.586299081
 11
18.334245732
 21
54.586299081
  0
LINE
  5
261
100
AcDbEntity
  8
0
100
AcDbLine
 62
7
  6
CONTINUOUS
 10
14.2675880525
 20
54.586299081
 11
13.9675954099
 21
54.586299081
  0
LINE
  5
262
100
AcDbEntity
  8
0
100
AcDbLine
 62
7
  6
CONTINUOUS
 10
17.1425880525
 20
100.886299081
 11
16.2925880525
 21
102.3585422674
  0
LINE
  5
263
100
AcDbEntity
  8
0
100
AcDbLine
 62
7
  6
CONTINUOUS
 10
49.2425880525
 20
100.686299081
 11
49.2425880525
 21
97.286299081
  0
LINE
  5
264
100
AcDbEntity
  8
0
100
AcDbLine
 62
7
  6
CONTINUOUS
 10
32.6846476202
 20
26.5987015668
 11
32.6802811338
 21
26.586299081
  0
LINE
  5
265
100
AcDbEntity
  8
0
100
AcDbLine
 62
7
  6
CONTINUOUS
 10
11.0425880525
 20
33.286299081
 11
11.2425712889
 21
33.4862823174
  0
LINE
  5
266
100
AcDbEntity
  8
0
100
AcDbLine
 62
7
  6
CONTINUOUS
 10
54.16927681
 20
97.717328496
 11
54.16927681
 21
100.686299081
  0
LINE
  5
267
100
AcDbEntity
  8
0
100
AcDbLine
 62
7
  6
CONTINUOUS
 10
55.2425880511
 20
100.686299081
 11
55.2425880511
 21
97.811231062
  0
LINE
  5
268
100
AcDbEntity
  8
0
100
AcDbLine
 62
7
  6
CONTINUOUS
 10
81.3425880525
 20
100.886299081
 11
82.1925880525
 21
102.3585422674
  0
LINE
  5
269
100
AcDbEntity
  8
0
100
AcDbLine
 62
7
  6
CONTINUOUS
 10
33.3264087408
 20
26.598702335
 11
33.317265818
 21
26.586299081
  0
LINE
  5
26A
100
AcDbEntity
  8
0
100
AcDbLine
 62
7
  6
CONTINUOUS
 10
55.2425880511
 20
97.811231062
 11
49.2425880525
 21
97.286299081
  0
LINE
  5
26B
100
AcDbEntity
  8
0
100
AcDbLine
 62
7
  6
CONTINUOUS
 10
80.4131668755
 20
101.586299081
 11
80.4131668755
 21
108.586299081
  0
LINE
  5
26C
100
AcDbEntity
  8
0
100
AcDbLine
 62
7
  6
CONTINUOUS
 10
80.7800662808
 20
101.8389270252
 11
80.7800662808
 21
108.686299081
  0
LINE
  5
26D
100
AcDbEntity
  8
0
100
AcDbLine
 62
7
  6
CONTINUOUS
 10
81.0905476889
 20
108.686299081
 11
81.0905476889
 21
102.3585422674
  0
LINE
  5
26E
100
AcDbEntity
  8
0
100
AcDbLine
 62
7
  6
CONTINUOUS
 10
81.3425880525
 20
100.686299081
 11
81.3425880525
 21
100.886299081
  0
LINE
  5
26F
100
AcDbEntity
  8
0
100
AcDbLine
 62
7
  6
CONTINUOUS
 10
81.9372586026
 20
109.186299081
 11
81.9372586026
 21
102.3585422674
  0
LINE
  5
270
100
AcDbEntity
  8
0
100
AcDbLine
 62
7
  6
CONTINUOUS
 10
82.1254008222
 20
109.1863002814
 11
82.1254008222
 21
102.3585422674
  0
LINE
  5
271
100
AcDbEntity
  8
0
100
AcDbLine
 62
7
  6
CONTINUOUS
 10
82.1925880525
 20
102.3585422674
 11
82.1925880525
 21
109.686299081
  0
LINE
  5
272
100
AcDbEntity
  8
0
100
AcDbLine
 62
7
  6
CONTINUOUS
 10
14.2675957868
 20
100.686299081
 11
84.2175539363
 21
100.686299081
  0
LINE
  5
273
100
AcDbEntity
  8
0
100
AcDbLine
 62
7
  6
CONTINUOUS
 10
17.1425880525
 20
100.886299081
 11
81.3425880525
 21
100.886299081
  0
LINE
  5
274
100
AcDbEntity
  8
0
100
AcDbLine
 62
7
  6
CONTINUOUS
 10
80.4131668755
 20
101.586299081
 11
17.6568135328
 21
101.586299081
  0
LINE
  5
275
100
AcDbEntity
  8
0
100
AcDbLine
 62
7
  6
CONTINUOUS
 10
80.7800662808
 20
101.8389270252
 11
80.4131668755
 21
101.8389270252
  0
LINE
  5
276
100
AcDbEntity
  8
0
100
AcDbLine
 62
7
  6
CONTINUOUS
 10
82.1925880525
 20
102.3585422674
 11
82.1254008222
 21
102.3585422674
  0
LINE
  5
277
100
AcDbEntity
  8
0
100
AcDbLine
 62
7
  6
CONTINUOUS
 10
81.9372586026
 20
102.3585422674
 11
81.0905476889
 21
102.3585422674
  0
LINE
  5
278
100
AcDbEntity
  8
0
100
AcDbLine
 62
7
  6
CONTINUOUS
 10
17.3946284161
 20
102.3585422674
 11
16.5479175024
 21
102.3585422674
  0
LINE
  5
279
100
AcDbEntity
  8
0
100
AcDbLine
 62
7
  6
CONTINUOUS
 10
16.3597752833
 20
102.3585422674
 11
16.2925880525
 21
102.3585422674
  0
LINE
  5
27A
100
AcDbEntity
  8
0
100
AcDbLine
 62
7
  6
CONTINUOUS
 10
87.2394769111
 20
28.1054111094
 11
87.0044106775
 21
32.986299081
  0
LINE
  5
27B
100
AcDbEntity
  8
0
100
AcDbLine
 62
7
  6
CONTINUOUS
 10
87.2394769111
 20
28.1054111094
 11
87.2425880525
 21
28.011299081
  0
LINE
  5
27C
100
AcDbEntity
  8
0
100
AcDbLine
 62
7
  6
CONTINUOUS
 10
87.3045474305
 20
32.986299081
 11
87.2903543543
 21
33.486299081
  0
LINE
  5
27D
100
AcDbEntity
  8
0
100
AcDbLine
 62
7
  6
CONTINUOUS
 10
84.2175880525
 20
47.586299081
 11
84.2175880525
 21
100.686299081
  0
LINE
  5
27E
100
AcDbEntity
  8
0
100
AcDbLine
 62
7
  6
CONTINUOUS
 10
87.0425880525
 20
40.686299081
 11
87.0425880525
 21
33.486299081
  0
LINE
  5
27F
100
AcDbEntity
  8
0
100
AcDbLine
 62
7
  6
CONTINUOUS
 10
87.2903543543
 20
40.686299081
 11
87.3045474305
 21
41.186299081
  0
LINE
  5
280
100
AcDbEntity
  8
0
100
AcDbLine
 62
7
  6
CONTINUOUS
 10
87.2425880525
 20
46.161299081
 11
87.2394769111
 21
46.0671870526
  0
LINE
  5
281
100
AcDbEntity
  8
0
100
AcDbLine
 62
7
  6
CONTINUOUS
 10
87.0044106775
 20
41.186299081
 11
87.2394769111
 21
46.0671870526
  0
LINE
  5
282
100
AcDbEntity
  8
0
100
AcDbLine
 62
7
  6
CONTINUOUS
 10
17.6568135328
 20
108.586299081
 11
80.4131668755
 21
108.586299081
  0
LINE
  5
283
100
AcDbEntity
  8
0
100
AcDbLine
 62
7
  6
CONTINUOUS
 10
81.0905476889
 20
108.686299081
 11
17.3946284161
 21
108.686299081
  0
LINE
  5
284
100
AcDbEntity
  8
0
100
AcDbLine
 62
7
  6
CONTINUOUS
 10
16.3597748077
 20
109.186299081
 11
16.5479175024
 21
109.186299081
  0
LINE
  5
285
100
AcDbEntity
  8
0
100
AcDbLine
 62
7
  6
CONTINUOUS
 10
81.9372586026
 20
109.186299081
 11
82.1254008222
 21
109.186299081
  0
LINE
  5
286
100
AcDbEntity
  8
0
100
AcDbLine
 62
7
  6
CONTINUOUS
 10
16.2925889554
 20
109.686299081
 11
82.1920036801
 21
109.686299081
  0
LINE
  5
287
100
AcDbEntity
  8
0
100
AcDbLine
 62
7
  6
CONTINUOUS
 10
48.5321150357
 20
109.946299081
 11
49.9530612156
 21
109.946299081
  0
ARC
  5
288
100
AcDbEntity
  8
0
100
AcDbCircle
 62
7
  6
CONTINUOUS
 10
-1396.1117087407
 20
128.7500595053
 40
1410.9537547057
100
AcDbArc
 50
355.916928984
 51
356.1082490259
  0
ARC
  5
289
100
AcDbEntity
  8
0
100
AcDbCircle
 62
7
  6
CONTINUOUS
 10
80.3575880525
 20
-37.6617009188
 40
150.9999999998
100
AcDbArc
 50
102.1672780093
 51
102.579583822
  0
ARC
  5
28A
100
AcDbEntity
  8
0
100
AcDbCircle
 62
7
  6
CONTINUOUS
 10
18.1275880526
 20
-37.6617009188
 40
150.9999999998
100
AcDbArc
 50
77.420416178
 51
77.8327219908
  0
ARC
  5
28B
100
AcDbEntity
  8
0
100
AcDbCircle
 62
7
  6
CONTINUOUS
 10
-122.9564290328
 20
37.0846258392
 40
134.8320825923
100
AcDbArc
 50
1.7432410963
 51
3.7428597941
  0
ARC
  5
28C
100
AcDbEntity
  8
0
100
AcDbCircle
 62
7
  6
CONTINUOUS
 10
-122.9428477569
 20
37.1060458897
 40
134.5152427199
100
AcDbArc
 50
1.5251626565
 51
1.7382204974
  0
ARC
  5
28D
100
AcDbEntity
  8
0
100
AcDbCircle
 62
7
  6
CONTINUOUS
 10
208.7291321287
 20
37.08427305
 40
124.615519072
100
AcDbArc
 50
178.3436281423
 51
178.8027029932
  0
ARC
  5
28E
100
AcDbEntity
  8
0
100
AcDbCircle
 62
7
  6
CONTINUOUS
 10
-110.241974748
 20
37.0843347365
 40
124.6135368411
100
AcDbArc
 50
1.1972876814
 51
1.6563698384
  0
ARC
  5
28F
100
AcDbEntity
  8
0
100
AcDbCircle
 62
7
  6
CONTINUOUS
 10
-110.184462816
 20
37.0866464695
 40
124.5560022016
100
AcDbArc
 50
358.3436089525
 51
359.9998402012
  0
ARC
  5
290
100
AcDbEntity
  8
0
100
AcDbCircle
 62
7
  6
CONTINUOUS
 10
208.6696389011
 20
37.0866464692
 40
124.5560021818
100
AcDbArc
 50
180.0001597986
 51
181.6563910476
  0
ARC
  5
291
100
AcDbEntity
  8
0
100
AcDbCircle
 62
7
  6
CONTINUOUS
 10
-110.1569930316
 20
37.0863094529
 40
124.5285324167
100
AcDbArc
 50
359.9999952279
 51
1.1971963123
  0
ARC
  5
292
100
AcDbEntity
  8
0
100
AcDbCircle
 62
7
  6
CONTINUOUS
 10
208.6414097327
 20
37.0863221166
 40
124.5277730129
100
AcDbArc
 50
178.8028022089
 51
180.0000105988
  0
ARC
  5
293
100
AcDbEntity
  8
0
100
AcDbCircle
 62
7
  6
CONTINUOUS
 10
-108.9431153728
 20
37.0855317877
 40
123.8647213102
100
AcDbArc
 50
0.324542088
 51
1.8972278671
  0
ARC
  5
294
100
AcDbEntity
  8
0
100
AcDbCircle
 62
7
  6
CONTINUOUS
 10
207.4276762358
 20
37.0855048412
 40
123.8641062774
100
AcDbArc
 50
178.1027502375
 51
179.6754438452
  0
ARC
  5
295
100
AcDbEntity
  8
0
100
AcDbCircle
 62
7
  6
CONTINUOUS
 10
-108.9365294775
 20
37.0868866132
 40
123.8581320521
100
AcDbArc
 50
358.1027543651
 51
359.9997282123
  0
ARC
  5
296
100
AcDbEntity
  8
0
100
AcDbCircle
 62
7
  6
CONTINUOUS
 10
207.421704487
 20
37.0868557731
 40
123.8581309565
100
AcDbArc
 50
180.0002575213
 51
181.8972313775
  0
ARC
  5
297
100
AcDbEntity
  8
0
100
AcDbCircle
 62
7
  6
CONTINUOUS
 10
207.3716368947
 20
37.0862945581
 40
123.8080633629
100
AcDbArc
 50
179.6756624004
 51
179.9999979069
  0
ARC
  5
298
100
AcDbEntity
  8
0
100
AcDbCircle
 62
7
  6
CONTINUOUS
 10
-108.8834723173
 20
37.0862947674
 40
123.8050748905
100
AcDbArc
 50
0.0000019963
 51
0.3243453413
  0
ARC
  5
299
100
AcDbEntity
  8
0
100
AcDbCircle
 62
7
  6
CONTINUOUS
 10
-109.19198089
 20
37.0868437292
 40
123.7843154886
100
AcDbArc
 50
358.101642423
 51
1.8983575767
  0
ARC
  5
29A
100
AcDbEntity
  8
0
100
AcDbCircle
 62
7
  6
CONTINUOUS
 10
207.6771569949
 20
37.0857544328
 40
123.7843154885
100
AcDbArc
 50
178.101642423
 51
181.8983575767
  0
ARC
  5
29B
100
AcDbEntity
  8
0
100
AcDbCircle
 62
7
  6
CONTINUOUS
 10
204.6819592512
 20
37.0845962366
 40
121.4540954532
100
AcDbArc
 50
178.2298584696
 51
178.9377018455
  0
ARC
  5
29C
100
AcDbEntity
  8
0
100
AcDbCircle
 62
7
  6
CONTINUOUS
 10
-106.1967830646
 20
37.0845962369
 40
121.4540954098
100
AcDbArc
 50
1.0622981547
 51
1.7701415309
  0
ARC
  5
29D
100
AcDbEntity
  8
0
100
AcDbCircle
 62
7
  6
CONTINUOUS
 10
188.0018117924
 20
37.0703978181
 40
108.5105348627
100
AcDbArc
 50
177.0862399463
 51
178.011127797
  0
ARC
  5
29E
100
AcDbEntity
  8
0
100
AcDbCircle
 62
7
  6
CONTINUOUS
 10
-89.5166354991
 20
37.0794714725
 40
108.5102201222
100
AcDbArc
 50
1.9840840044
 51
2.9089938451
  0
ARC
  5
29F
100
AcDbEntity
  8
0
100
AcDbCircle
 62
7
  6
CONTINUOUS
 10
187.5512343515
 20
37.0789366115
 40
108.0598217703
100
AcDbArc
 50
178.8030079176
 51
179.7310036635
  0
ARC
  5
2A0
100
AcDbEntity
  8
0
100
AcDbCircle
 62
7
  6
CONTINUOUS
 10
-89.0657108165
 20
37.0875478545
 40
108.0592951913
100
AcDbArc
 50
0.2644561651
 51
1.192431024
  0
ARC
  5
2A1
100
AcDbEntity
  8
0
100
AcDbCircle
 62
7
  6
CONTINUOUS
 10
85.7791384692
 20
28.0612701242
 40
1.4749710439
100
AcDbArc
 50
270.0017807369
 51
277.4353104347
  0
ARC
  5
2A2
100
AcDbEntity
  8
0
100
AcDbCircle
 62
7
  6
CONTINUOUS
 10
12.6675880525
 20
28.011299081
 40
1.425
100
AcDbArc
 50
180.0
 51
270.0
  0
ARC
  5
2A3
100
AcDbEntity
  8
0
100
AcDbCircle
 62
7
  6
CONTINUOUS
 10
85.8175880525
 20
28.011299081
 40
1.425
100
AcDbArc
 50
277.5648039109
 51
360.0
  0
ARC
  5
2A4
100
AcDbEntity
  8
0
100
AcDbCircle
 62
7
  6
CONTINUOUS
 10
-21.3439756473
 20
53.435961479
 40
35.3303142553
100
AcDbArc
 50
0.000547495
 51
1.1059606552
  0
ARC
  5
2A5
100
AcDbEntity
  8
0
100
AcDbCircle
 62
7
  6
CONTINUOUS
 10
-21.0659228045
 20
53.4410025487
 40
35.0522159127
100
AcDbArc
 50
1.1064946641
 51
1.2524452825
  0
ARC
  5
2A6
100
AcDbEntity
  8
0
100
AcDbCircle
 62
7
  6
CONTINUOUS
 10
-20.722906604
 20
53.4357945558
 40
35.0094061346
100
AcDbArc
 50
0.0008256971
 51
1.1209052369
  0
ARC
  5
2A7
100
AcDbEntity
  8
0
100
AcDbCircle
 62
7
  6
CONTINUOUS
 10
-20.5271880344
 20
53.4394407264
 40
34.8136536908
100
AcDbArc
 50
1.1212067786
 51
1.2625155801
  0
ARC
  5
2A8
100
AcDbEntity
  8
0
100
AcDbCircle
 62
7
  6
CONTINUOUS
 10
48.1255028576
 20
104.9865074175
 40
34.0715897391
100
AcDbArc
 50
7.0805305528
 51
7.9285866803
  0
ARC
  5
2A9
100
AcDbEntity
  8
0
100
AcDbCircle
 62
7
  6
CONTINUOUS
 10
50.3594968499
 20
104.9864886089
 40
34.0714149196
100
AcDbArc
 50
172.0713404421
 51
172.9194297305
  0
ARC
  5
2AA
100
AcDbEntity
  8
0
100
AcDbCircle
 62
7
  6
CONTINUOUS
 10
49.010077551
 20
111.2994401131
 40
33.1826761323
100
AcDbArc
 50
356.3488183712
 51
357.2135274236
  0
ARC
  5
2AB
100
AcDbEntity
  8
0
100
AcDbCircle
 62
7
  6
CONTINUOUS
 10
49.4615275962
 20
111.2993338093
 40
33.169126256
100
AcDbArc
 50
182.7874279285
 51
183.6524992624
  0
ARC
  5
2AC
100
AcDbEntity
  8
0
100
AcDbCircle
 62
7
  6
CONTINUOUS
 10
87.2387896019
 20
98.00419591
 40
6.7390808735
100
AcDbArc
 50
154.3445952615
 51
154.680212615
  0
ARC
  5
2AD
100
AcDbEntity
  8
0
100
AcDbCircle
 62
7
  6
CONTINUOUS
 10
11.2463927628
 20
98.0041988602
 40
6.7390739533
100
AcDbArc
 50
25.3197874728
 51
25.6554063893
  0
ARC
  5
2AE
100
AcDbEntity
  8
0
100
AcDbCircle
 62
7
  6
CONTINUOUS
 10
12.6675880525
 20
46.161299081
 40
1.425
100
AcDbArc
 50
90.0
 51
180.0
  0
ARC
  5
2AF
100
AcDbEntity
  8
0
100
AcDbCircle
 62
7
  6
CONTINUOUS
 10
85.8175880525
 20
46.161299081
 40
1.425
100
AcDbArc
 50
0.0
 51
90.0
  0
SPLINE
  5
2B0
100
AcDbEntity
  8
0
100
AcDbSpline
 62
7
  6
CONTINUOUS
 70
0
 71
3
 72
9
 73
5
 74
0
 42
0.0000001
 43
0.0000001
 44
0.0000000001
 40
0.0
 40
0.0
 40
0.0
 40
0.0
 40
0.2228336568
 40
1.0
 40
1.0
 40
1.0
 40
1.0
 10
40.2478474444
 20
26.586299081
 30
0.0
 10
40.2457337563
 20
26.5862990795
 30
0.0
 10
40.2362122466
 20
26.5875060003
 30
0.0
 10
40.2279738657
 20
26.5935087977
 30
0.0
 10
40.2227412681
 20
26.5987014364
 30
0.0
  0
LINE
  5
2B1
100
AcDbEntity
  8
0
100
AcDbLine
 62
7
  6
CONTINUOUS
 10
11.4115743204
 20
40.686299081
 11
11.2098442651
 21
40.886299081
  0
LINE
  5
2B2
100
AcDbEntity
  8
0
100
AcDbLine
 62
7
  6
CONTINUOUS
 10
11.321336471
 20
33.4862997587
 11
11.2874837321
 21
32.986299081
  0
LINE
  5
2B3
100
AcDbEntity
  8
0
100
AcDbLine
 62
7
  6
CONTINUOUS
 10
11.2098442651
 20
45.686299081
 11
11.4115743204
 21
45.886299081
  0
SPLINE
  5
2B4
100
AcDbEntity
  8
0
100
AcDbSpline
 62
7
  6
CONTINUOUS
 70
0
 71
3
 72
11
 73
7
 74
0
 42
0.0000001
 43
0.0000001
 44
0.0000000001
 40
0.0
 40
0.0
 40
0.0
 40
0.0
 40
0.242366579
 40
0.4897925717
 40
0.74234282
 40
1.0
 40
1.0
 40
1.0
 40
1.0
 10
79.4925883773
 20
37.5862886591
 30
0.0
 10
79.2262605887
 20
37.8060492938
 30
0.0
 10
78.6810520585
 20
38.2417745963
 30
0.0
 10
77.8332058072
 20
38.8742600482
 30
0.0
 10
76.9479332226
 20
39.4920606886
 30
0.0
 10
76.339567815
 20
39.8900890577
 30
0.0
 10
76.0293225624
 20
40.0862807685
 30
0.0
  0
SPLINE
  5
2B5
100
AcDbEntity
  8
0
100
AcDbSpline
 62
7
  6
CONTINUOUS
 70
0
 71
3
 72
11
 73
7
 74
0
 42
0.0000001
 43
0.0000001
 44
0.0000000001
 40
0.0
 40
0.0
 40
0.0
 40
0.0
 40
0.2575619035
 40
0.5100738074
 40
0.7575505524
 40
1.0
 40
1.0
 40
1.0
 40
1.0
 10
76.0293081577
 20
40.0863022553
 30
0.0
 10
76.3511282423
 20
40.282040081
 30
0.0
 10
76.9824799379
 20
40.6795906181
 30
0.0
 10
77.9024252023
 20
41.2971995441
 30
0.0
 10
78.7850651243
 20
41.9298530754
 30
0.0
 10
79.3536435914
 20
42.3660731574
 30
0.0
 10
79.6315314348
 20
42.5862968429
 30
0.0
  0
SPLINE
  5
2B6
100
AcDbEntity
  8
0
100
AcDbSpline
 62
7
  6
CONTINUOUS
 70
0
 71
3
 72
9
 73
5
 74
0
 42
0.0000001
 43
0.0000001
 44
0.0000000001
 40
0.0
 40
0.0
 40
0.0
 40
0.0
 40
0.2577812757
 40
1.0
 40
1.0
 40
1.0
 40
1.0
 10
75.6014251866
 20
40.0863023954
 30
0.0
 10
75.9278598638
 20
40.2817146041
 30
0.0
 10
77.1827844087
 20
41.0585782351
 30
0.0
 10
78.3912913997
 20
41.9109850432
 30
0.0
 10
79.2537951044
 20
42.5862967377
 30
0.0
  0
SPLINE
  5
2B7
100
AcDbEntity
  8
0
100
AcDbSpline
 62
7
  6
CONTINUOUS
 70
0
 71
3
 72
10
 73
6
 74
0
 42
0.0000001
 43
0.0000001
 44
0.0000000001
 40
0.0
 40
0.0
 40
0.0
 40
0.0
 40
0.2423289745
 40
0.615332374
 40
1.0
 40
1.0
 40
1.0
 40
1.0
 10
79.1159624609
 20
37.5854393389
 30
0.0
 10
78.8457214543
 20
37.8056552685
 30
0.0
 10
78.1502124254
 20
38.3535115803
 30
0.0
 10
76.9840560789
 20
39.1967768777
 30
0.0
 10
76.071713747
 20
39.7939573638
 30
0.0
 10
75.6018595186
 20
40.086279924
 30
0.0
  0
SPLINE
  5
2B8
100
AcDbEntity
  8
0
100
AcDbSpline
 62
7
  6
CONTINUOUS
 70
0
 71
3
 72
11
 73
7
 74
0
 42
0.0000001
 43
0.0000001
 44
0.0000000001
 40
0.0
 40
0.0
 40
0.0
 40
0.0
 40
0.242416231
 40
0.4898663158
 40
0.7424041258
 40
1.0
 40
1.0
 40
1.0
 40
1.0
 10
18.8537740931
 20
42.5863087894
 30
0.0
 10
19.1316185784
 20
42.366120539
 30
0.0
 10
19.6999399505
 20
41.9297384701
 30
0.0
 10
20.5823855019
 20
41.2969293011
 30
0.0
 10
21.5024728
 20
40.6794793455
 30
0.0
 10
22.1340006615
 20
40.2820779516
 30
0.0
 10
22.4558564988
 20
40.0863184616
 30
0.0
  0
SPLINE
  5
2B9
100
AcDbEntity
  8
0
100
AcDbSpline
 62
7
  6
CONTINUOUS
 70
0
 71
3
 72
11
 73
7
 74
0
 42
0.0000001
 43
0.0000001
 44
0.0000000001
 40
0.0
 40
0.0
 40
0.0
 40
0.0
 40
0.2576236374
 40
0.5101484249
 40
0.757600771
 40
1.0
 40
1.0
 40
1.0
 40
1.0
 10
22.4558731268
 20
40.0862952603
 30
0.0
 10
22.145661561
 20
39.8901248154
 30
0.0
 10
21.5374671793
 20
39.4919557117
 30
0.0
 10
20.652332753
 20
38.8740042987
 30
0.0
 10
19.8042933859
 20
38.2416680095
 30
0.0
 10
19.2588310123
 20
37.8060971309
 30
0.0
 10
18.9924621084
 20
37.5863014869
 30
0.0
  0
SPLINE
  5
2BA
100
AcDbEntity
  8
0
100
AcDbSpline
 62
7
  6
CONTINUOUS
 70
0
 71
3
 72
9
 73
5
 74
0
 42
0.0000001
 43
0.0000001
 44
0.0000000001
 40
0.0
 40
0.0
 40
0.0
 40
0.0
 40
0.2578506766
 40
1.0
 40
1.0
 40
1.0
 40
1.0
 10
22.8837490285
 20
40.0862950921
 30
0.0
 10
22.568851992
 20
39.8903802396
 30
0.0
 10
21.3592439813
 20
39.1121197405
 30
0.0
 10
20.1969433749
 20
38.2597606497
 30
0.0
 10
19.3694604366
 20
37.5854521663
 30
0.0
  0
SPLINE
  5
2BB
100
AcDbEntity
  8
0
100
AcDbSpline
 62
7
  6
CONTINUOUS
 70
0
 71
3
 72
9
 73
5
 74
0
 42
0.0000001
 43
0.0000001
 44
0.0000000001
 40
0.0
 40
0.0
 40
0.0
 40
0.0
 40
0.2569588414
 40
1.0
 40
1.0
 40
1.0
 40
1.0
 10
32.1919166348
 20
26.5987014052
 30
0.0
 10
32.1973150576
 20
26.5966637468
 30
0.0
 10
32.2186342759
 20
26.5895936854
 30
0.0
 10
32.2412380599
 20
26.5862990766
 30
0.0
 10
32.2579235493
 20
26.586299081
 30
0.0
  0
SPLINE
  5
2BC
100
AcDbEntity
  8
0
100
AcDbSpline
 62
7
  6
CONTINUOUS
 70
0
 71
3
 72
10
 73
6
 74
0
 42
0.0000001
 43
0.0000001
 44
0.0000000001
 40
0.0
 40
0.0
 40
0.0
 40
0.0
 40
0.2423864676
 40
0.6154128845
 40
1.0
 40
1.0
 40
1.0
 40
1.0
 10
19.2311070151
 20
42.5863092509
 30
0.0
 10
19.512823456
 20
42.3657356523
 30
0.0
 10
20.2372315916
 20
41.8172864519
 30
0.0
 10
21.4495076141
 20
40.9741157844
 30
0.0
 10
22.3961977059
 20
40.3779070057
 30
0.0
 10
22.8832926709
 20
40.0863193519
 30
0.0
  0
SPLINE
  5
2BD
100
AcDbEntity
  8
0
100
AcDbSpline
 62
7
  6
CONTINUOUS
 70
0
 71
3
 72
14
 73
10
 74
0
 42
0.0000001
 43
0.0000001
 44
0.0000000001
 40
0.0
 40
0.0
 40
0.0
 40
0.0
 40
0.3305598161
 40
0.4797758336
 40
0.6128184866
 40
0.7287691336
 40
0.8290981198
 40
0.9175669352
 40
1.0
 40
1.0
 40
1.0
 40
1.0
 10
17.779544255
 20
53.536299081
 30
0.0
 10
17.779544255
 20
53.6785972957
 30
0.0
 10
17.8001248579
 20
53.8863860828
 30
0.0
 10
17.8727803622
 20
54.1405662807
 30
0.0
 10
17.9424183769
 20
54.297946196
 30
0.0
 10
18.0259150929
 20
54.424055953
 30
0.0
 10
18.1207628071
 20
54.5165280022
 30
0.0
 10
18.2246496019
 20
54.5734485858
 30
0.0
 10
18.2987605225
 20
54.5862991222
 30
0.0
 10
18.3342460152
 20
54.586299016
 30
0.0
  0
SPLINE
  5
2BE
100
AcDbEntity
  8
0
100
AcDbSpline
 62
7
  6
CONTINUOUS
 70
0
 71
3
 72
13
 73
9
 74
0
 42
0.0000001
 43
0.0000001
 44
0.0000000001
 40
0.0
 40
0.0
 40
0.0
 40
0.0
 40
0.3282818111
 40
0.6090083359
 40
0.7258137556
 40
0.827593634
 40
0.9173480455
 40
1.0
 40
1.0
 40
1.0
 40
1.0
 10
18.700762223
 20
53.536299081
 30
0.0
 10
18.700762223
 20
53.6249597601
 30
0.0
 10
18.6816838845
 20
53.7900220141
 30
0.0
 10
18.6107677237
 20
53.9760772829
 30
0.0
 10
18.5315562704
 20
54.0861169991
 30
0.0
 10
18.4696431458
 20
54.1428878527
 30
0.0
 10
18.4034143216
 20
54.17806819
 30
0.0
 10
18.3565681246
 20
54.1862988934
 30
0.0
 10
18.3342459058
 20
54.1862989606
 30
0.0
  0
SPLINE
  5
2BF
100
AcDbEntity
  8
0
100
AcDbSpline
 62
7
  6
CONTINUOUS
 70
0
 71
3
 72
10
 73
6
 74
0
 42
0.0000001
 43
0.0000001
 44
0.0000000001
 40
0.0
 40
0.0
 40
0.0
 40
0.0
 40
0.5243080583
 40
0.773430445
 40
1.0
 40
1.0
 40
1.0
 40
1.0
 10
16.5479175024
 20
102.3585422674
 30
0.0
 10
16.6898755944
 20
102.1112134631
 30
0.0
 10
16.8953518037
 20
101.7440618407
 30
0.0
 10
17.150642083
 20
101.2637886795
 30
0.0
 10
17.2677448794
 20
101.0330197683
 30
0.0
 10
17.3210901744
 20
100.9219324166
 30
0.0
  0
SPLINE
  5
2C0
100
AcDbEntity
  8
0
100
AcDbSpline
 62
7
  6
CONTINUOUS
 70
0
 71
3
 72
10
 73
6
 74
0
 42
0.0000001
 43
0.0000001
 44
0.0000000001
 40
0.0
 40
0.0
 40
0.0
 40
0.0
 40
0.2265695698
 40
0.475691967
 40
1.0
 40
1.0
 40
1.0
 40
1.0
 10
81.1640858684
 20
100.9219322875
 30
0.0
 10
81.2174311685
 20
101.0330196576
 30
0.0
 10
81.3345339818
 20
101.2637886013
 30
0.0
 10
81.5898242807
 20
101.7440618061
 30
0.0
 10
81.795300505
 20
102.1112134533
 30
0.0
 10
81.9372586026
 20
102.3585422674
 30
0.0
  0
SPLINE
  5
2C1
100
AcDbEntity
  8
0
100
AcDbSpline
 62
7
  6
CONTINUOUS
 70
0
 71
3
 72
14
 73
10
 74
0
 42
0.0000001
 43
0.0000001
 44
0.0000000001
 40
0.0
 40
0.0
 40
0.0
 40
0.0
 40
0.0166207858
 40
0.0661041866
 40
0.1479159103
 40
0.2613258776
 40
0.4049260696
 40
0.5771621687
 40
1.0
 40
1.0
 40
1.0
 40
1.0
 10
13.9675954556
 20
54.5862989892
 30
0.0
 10
13.9678383465
 20
54.5842117472
 30
0.0
 10
13.9676927782
 20
54.575827511
 30
0.0
 10
13.9686945628
 20
54.5571665094
 30
0.0
 10
13.969436821
 20
54.5262272405
 30
0.0
 10
13.9708412285
 20
54.4834180653
 30
0.0
 10
13.9723780892
 20
54.4291694736
 30
0.0
 10
13.9749432221
 20
54.3358166751
 30
0.0
 10
13.9767505774
 20
54.2606038454
 30
0.0
 10
13.9779189638
 20
54.2071582189
 30
0.0
  0
SPLINE
  5
2C2
100
AcDbEntity
  8
0
100
AcDbSpline
 62
7
  6
CONTINUOUS
 70
0
 71
3
 72
13
 73
9
 74
0
 42
0.0000001
 43
0.0000001
 44
0.0000000001
 40
0.0
 40
0.0
 40
0.0
 40
0.0
 40
0.0832187213
 40
0.1736579416
 40
0.2759625776
 40
0.3929499667
 40
0.6729799499
 40
1.0
 40
1.0
 40
1.0
 40
1.0
 10
18.6770746874
 20
54.5862990638
 30
0.0
 10
18.7136318167
 20
54.5862989552
 30
0.0
 10
18.7903538752
 20
54.5729574386
 30
0.0
 10
18.8991968
 20
54.5163160637
 30
0.0
 10
19.0015694437
 20
54.4249524458
 30
0.0
 10
19.1331837093
 20
54.248007395
 30
0.0
 10
19.2527041008
 20
53.947698915
 30
0.0
 10
19.2851494938
 20
53.6799556292
 30
0.0
 10
19.2851494938
 20
53.536299081
 30
0.0
  0
SPLINE
  5
2C3
100
AcDbEntity
  8
0
100
AcDbSpline
 62
7
  6
CONTINUOUS
 70
0
 71
3
 72
13
 73
9
 74
0
 42
0.0000001
 43
0.0000001
 44
0.0000000001
 40
0.0
 40
0.0
 40
0.0
 40
0.0
 40
0.0825292019
 40
0.1713476895
 40
0.2720674274
 40
0.3882740658
 40
0.6697827412
 40
1.0
 40
1.0
 40
1.0
 40
1.0
 10
18.3342459058
 20
54.1862989606
 30
0.0
 10
18.3121978092
 20
54.186299027
 30
0.0
 10
18.2660978516
 20
54.1782810496
 30
0.0
 10
18.2013481093
 20
54.1430617958
 30
0.0
 10
18.1418755806
 20
54.0859413246
 30
0.0
 10
18.0669945655
 20
53.9749134212
 30
0.0
 10
18.0024777877
 20
53.7883611771
 30
0.0
 10
17.9855388475
 20
53.6245183034
 30
0.0
 10
17.9855388475
 20
53.536299081
 30
0.0
  0
LINE
  5
2C4
100
AcDbEntity
  8
0
100
AcDbLine
 62
7
  6
CONTINUOUS
 10
17.6568113465
 20
101.9197367204
 11
17.3946284161
 21
102.3585422674
  0
SPLINE
  5
2C5
100
AcDbEntity
  8
0
100
AcDbSpline
 62
7
  6
CONTINUOUS
 70
0
 71
3
 72
9
 73
5
 74
0
 42
0.0000001
 43
0.0000001
 44
0.0000000001
 40
0.0
 40
0.0
 40
0.0
 40
0.0
 40
0.5298228287
 40
1.0
 40
1.0
 40
1.0
 40
1.0
 10
18.3245007087
 20
53.536299081
 30
0.0
 10
18.3245007087
 20
53.6123960372
 30
0.0
 10
18.3375535847
 20
53.7563178003
 30
0.0
 10
18.3787356278
 20
53.8954357954
 30
0.0
 10
18.4066665426
 20
53.9569190815
 30
0.0
  0
SPLINE
  5
2C6
100
AcDbEntity
  8
0
100
AcDbSpline
 62
7
  6
CONTINUOUS
 70
0
 71
3
 72
9
 73
5
 74
0
 42
0.0000001
 43
0.0000001
 44
0.0000000001
 40
0.0
 40
0.0
 40
0.0
 40
0.0
 40
0.2760209102
 40
1.0
 40
1.0
 40
1.0
 40
1.0
 10
18.4066665426
 20
53.9569190815
 30
0.0
 10
18.4136636978
 20
53.9723216595
 30
0.0
 10
18.4409922136
 20
54.0271257539
 30
0.0
 10
18.4768769648
 20
54.0782322818
 30
0.0
 10
18.5084827149
 20
54.1093777061
 30
0.0
  0
LINE
  5
2C7
100
AcDbEntity
  8
0
100
AcDbLine
 62
7
  6
CONTINUOUS
 10
81.0905476889
 20
102.3585422674
 11
80.7800662808
 21
101.8389270252
  0
SPLINE
  5
2C8
100
AcDbEntity
  8
0
100
AcDbSpline
 62
7
  6
CONTINUOUS
 70
0
 71
3
 72
9
 73
5
 74
0
 42
0.0000001
 43
0.0000001
 44
0.0000000001
 40
0.0
 40
0.0
 40
0.0
 40
0.0
 40
0.4620979714
 40
1.0
 40
1.0
 40
1.0
 40
1.0
 10
18.3342460152
 20
54.586299016
 30
0.0
 10
18.3868654019
 20
54.5862988587
 30
0.0
 10
18.501453888
 20
54.5561441367
 30
0.0
 10
18.592397586
 20
54.4834592674
 30
0.0
 10
18.6349530718
 20
54.4394053762
 30
0.0
  0
SPLINE
  5
2C9
100
AcDbEntity
  8
0
100
AcDbSpline
 62
7
  6
CONTINUOUS
 70
0
 71
3
 72
11
 73
7
 74
0
 42
0.0000001
 43
0.0000001
 44
0.0000000001
 40
0.0
 40
0.0
 40
0.0
 40
0.0
 40
0.2029086988
 40
0.4411894855
 40
0.710968767
 40
1.0
 40
1.0
 40
1.0
 40
1.0
 10
18.6349530718
 20
54.4394053762
 30
0.0
 10
18.680625013
 20
54.3921252971
 30
0.0
 10
18.7652337446
 20
54.2749381049
 30
0.0
 10
18.8591311306
 20
54.063265458
 30
0.0
 10
18.9211137706
 20
53.8113280007
 30
0.0
 10
18.935441618
 20
53.629937254
 30
0.0
 10
18.935441618
 20
53.536299081
 30
0.0
  0
SPLINE
  5
2CA
100
AcDbEntity
  8
0
100
AcDbSpline
 62
7
  6
CONTINUOUS
 70
0
 71
3
 72
14
 73
10
 74
0
 42
0.0000001
 43
0.0000001
 44
0.0000000001
 40
0.0
 40
0.0
 40
0.0
 40
0.0
 40
0.0166410755
 40
0.0661532187
 40
0.1479815774
 40
0.2613736582
 40
0.4049385951
 40
0.5771571397
 40
1.0
 40
1.0
 40
1.0
 40
1.0
 10
14.2675880889
 20
54.5862463239
 30
0.0
 10
14.2678454122
 20
54.5841548249
 30
0.0
 10
14.2676697852
 20
54.5757470327
 30
0.0
 10
14.2687086394
 20
54.5570516997
 30
0.0
 10
14.2694432373
 20
54.5260574215
 30
0.0
 10
14.270868544
 20
54.4831854254
 30
0.0
 10
14.2724182476
 20
54.428858749
 30
0.0
 10
14.2750101896
 20
54.3353629122
 30
0.0
 10
14.2768345331
 20
54.2600312209
 30
0.0
 10
14.2780142251
 20
54.2064993791
 30
0.0
  0
LINE
  5
2CB
100
AcDbEntity
  8
0
100
AcDbLine
 62
7
  6
CONTINUOUS
 10
82.1254008222
 20
102.3585422757
 11
82.0727848414
 21
102.2672876442
  0
LINE
  5
2CC
100
AcDbEntity
  8
0
100
AcDbLine
 62
7
  6
CONTINUOUS
 10
82.0727848414
 20
102.2672876442
 11
82.046436912
 21
102.2217045842
  0
SPLINE
  5
2CD
100
AcDbEntity
  8
0
100
AcDbSpline
 62
7
  6
CONTINUOUS
 70
0
 71
3
 72
10
 73
6
 74
0
 42
0.0000001
 43
0.0000001
 44
0.0000000001
 40
0.0
 40
0.0
 40
0.0
 40
0.0
 40
0.5198931397
 40
0.7699359133
 40
1.0
 40
1.0
 40
1.0
 40
1.0
 10
82.046436912
 20
102.221704497
 30
0.0
 10
81.9112673758
 20
101.9880622524
 30
0.0
 10
81.7093548239
 20
101.6430341057
 30
0.0
 10
81.4413675673
 20
101.1983518717
 30
0.0
 10
81.3098095832
 20
100.9865910129
 30
0.0
 10
81.2449305823
 20
100.886299081
 30
0.0
  0
SPLINE
  5
2CE
100
AcDbEntity
  8
0
100
AcDbSpline
 62
7
  6
CONTINUOUS
 70
0
 71
3
 72
10
 73
6
 74
0
 42
0.0000001
 43
0.0000001
 44
0.0000000001
 40
0.0
 40
0.0
 40
0.0
 40
0.0
 40
0.2300639288
 40
0.4801067146
 40
1.0
 40
1.0
 40
1.0
 40
1.0
 10
17.2402455227
 20
100.886299081
 30
0.0
 10
17.1753665663
 20
100.9865909441
 30
0.0
 10
17.0438086241
 20
101.19835174
 30
0.0
 10
16.7758213567
 20
101.6430339677
 30
0.0
 10
16.5739087668
 20
101.9880621874
 30
0.0
 10
16.4387391929
 20
102.2217044976
 30
0.0
  0
LINE
  5
2CF
100
AcDbEntity
  8
0
100
AcDbLine
 62
7
  6
CONTINUOUS
 10
16.4387391929
 20
102.2217044688
 11
16.4123913181
 21
102.2672876106
  0
LINE
  5
2D0
100
AcDbEntity
  8
0
100
AcDbLine
 62
7
  6
CONTINUOUS
 10
16.4123913181
 20
102.2672876106
 11
16.3597748077
 21
102.3585431129
  0
ENDSEC
  0
SECTION
  2
OBJECTS
  0
DICTIONARY
  5
C
100
AcDbDictionary
280
0
281
1
  3
ACAD_GROUP
350
D
  3
ACAD_MLINESTYLE
350
17
  3
ACAD_LAYOUT
350
1A
  3
ACAD_PLOTSETTINGS
350
19
  3
ACAD_PLOTSTYLENAME
350
E
  0
DICTIONARY
  5
D
102
{ACAD_REACTORS
330
C
102
}
100
AcDbDictionary
280
0
281
1
  0
ACDBDICTIONARYWDFLT
  5
E
102
{ACAD_REACTORS
330
C
102
}
100
AcDbDictionary
281
1
  3
Normal
350
F
100
AcDbDictionaryWithDefault
340
F
  0
DICTIONARY
  5
17
102
{ACAD_REACTORS
330
C
102
}
100
AcDbDictionary
280
0
281
1
  3
Standard
350
18
  0
DICTIONARY
  5
19
102
{ACAD_REACTORS
330
C
102
}
100
AcDbDictionary
281
1
  0
DICTIONARY
  5
1A
102
{ACAD_REACTORS
330
C
102
}
100
AcDbDictionary
281
1
  3
Model
350
2D1
  3
Layout1
350
2D2
  0
ACDBPLACEHOLDER
  5
F
102
{ACAD_REACTORS
330
E
102
}
  0
MLINESTYLE
  5
18
102
{ACAD_REACTORS
330
17
102
}
100
AcDbMlineStyle
  2
STANDARD
 70
0
  3

 62
256
 51
90.0
 52
90.0
 71
2
 49
0.5
 62
256
  6
BYLAYER
 49
-0.5
 62
256
  6
BYLAYER
  0
LAYOUT
  5
2D1
102
{ACAD_REACTORS
330
1A
102
}
100
AcDbPlotSettings
  1

  2
none_device
  4

  6

 40
0.0
 41
0.0
 42
0.0
 43
0.0
 44
210.0
 45
297.0
 46
0.0
 47
0.0
 48
0.0
 49
0.0
140
0.0
141
0.0
142
1.0
143
1.0
 70
1024
 72
1
 73
0
 74
0
  7

 75
0
147
1.0
148
0.0
149
0.0
100
AcDbLayout
  1
Model
 70
0
 71
0
 10
0.0
 20
0.0
 11
210.0
 21
297.0
 12
0.0
 22
0.0
 32
0.0
 14
0.0
 24
0.0
 34
0.0
 15
0.0
 25
0.0
 35
0.0
146
0.0
 13
0.0
 23
0.0
 33
0.0
 16
1.0
 26
0.0
 36
0.0
 17
0.0
 27
1.0
 37
0.0
 76
0
330
210
345
0
346
0
  0
LAYOUT
  5
2D2
102
{ACAD_REACTORS
330
1A
102
}
100
AcDbPlotSettings
  1

  2
none_device
  4

  6

 40
0.0
 41
0.0
 42
0.0
 43
0.0
 44
210.0
 45
297.0
 46
0.0
 47
0.0
 48
0.0
 49
0.0
140
0.0
141
0.0
142
1.0
143
1.0
 70
0
 72
1
 73
0
 74
0
  7

 75
0
147
1.0
148
0.0
149
0.0
100
AcDbLayout
  1
Layout1
 70
0
 71
1
 10
0.0
 20
0.0
 11
210.0
 21
297.0
 12
0.0
 22
0.0
 32
0.0
 14
0.0
 24
0.0
 34
0.0
 15
0.0
 25
0.0
 35
0.0
146
0.0
 13
0.0
 23
0.0
 33
0.0
 16
1.0
 26
0.0
 36
0.0
 17
0.0
 27
1.0
 37
0.0
 76
0
330
211
345
0
346
0
  0
ENDSEC
  0
EOF
