999
DXF file: C:\Users\sesa63760\Dev\_Creo\CAD\MCADID0004771_3D-CAD\drw0001_5.dxf
999
Pro/ENGINEER 2019471 by Parametric Technology Corporation
  0
SECTION
  2
HEADER
  9
$ACADVER
  1
AC1024
  9
$DWGCODEPAGE
  3
ANSI_1252
  9
$EXTMAX
 10
49.1783137497
 20
69.5521865889
 30
0.0
  9
$EXTMIN
 10
0.0
 20
0.0
 30
0.0
  9
$LIMMIN
 10
0.0
 20
0.0
  9
$LIMMAX
 10
49.1783137497
 20
69.5521865889
  9
$VIEWCTR
 10
24.5891568749
 20
34.7760932945
  9
$VIEWSIZE
 40
69.5521865889
  9
$CLAYER
  8
0
  9
$LTSCALE
 40
4.5337721628
  9
$CELTYPE
  6
BYLAYER
  9
$DIMSCALE
 40
1.0
  9
$DIMASZ
 40
0.5854561161
  9
$DIMEXO
 40
1.0
  9
$DIMDLI
 40
3.1324244034
  9
$DIMEXE
 40
1.0
  9
$DIMCEN
 40
0.7418899903
  9
$DIMLFAC
 40
1.0
  9
$DIMBLK
  1
_FILLED
  9
$DIMALT
 70
0
  9
$DIMALTF
 40
0.0393700787
  9
$DIMTXT
 40
0.8196385625
  9
$DIMTOL
 70
1
  9
$DIMLIM
 70
0
  9
$DIMTFAC
 40
1.0
  9
$DIMTP
 40
0.01
  9
$DIMTM
 40
0.01
  9
$DIMGAP
 40
0.625
  9
$DIMDSEP
 70
46
  9
$AUNITS
 70
0
  9
$PDMODE
 70
3
  9
$PDSIZE
 40
0.3125
  9
$HANDSEED
  5
27C
  9
$TILEMODE
 70
1
  9
$MEASUREMENT
 70
1
  9
$INSUNITS
 70
4
  0
ENDSEC
  0
SECTION
  2
CLASSES
  0
CLASS
  1
ACDBDICTIONARYWDFLT
  2
AcDbDictionaryWithDefault
  3
AutoCAD 2000
 90
0
 91
1
280
0
281
0
  0
CLASS
  1
ACDBPLACEHOLDER
  2
AcDbPlaceHolder
  3
AutoCAD 2000
 90
0
 91
1
280
0
281
0
  0
CLASS
  1
LAYOUT
  2
AcDbLayout
  3
AutoCAD 2000
 90
0
 91
0
280
0
281
0
  0
ENDSEC
  0
SECTION
  2
TABLES
  0
TABLE
  2
VPORT
  5
8
100
AcDbSymbolTable
 70
2
  0
VPORT
  5
1F4
100
AcDbSymbolTableRecord
100
AcDbViewportTableRecord
  2
*ACTIVE
 70
0
 10
0.0
 20
0.0
 11
1.0
 21
1.0
 12
24.5891568749
 22
34.7760932945
 13
0.0
 23
0.0
 14
1.0
 24
1.0
 15
0.0
 25
0.0
 16
0.0
 26
0.0
 36
1.0
 17
0.0
 27
0.0
 37
0.0
 40
69.5521865889
 41
0.7070707071
 42
50.0
 43
0.0
 44
0.0
 50
0.0
 51
0.0
 71
0
 72
100
 73
1
 74
1
 75
0
 76
0
 77
0
 78
0
  0
ENDTAB
  0
TABLE
  2
LTYPE
  5
5
100
AcDbSymbolTable
 70
6
  0
LTYPE
  5
14
100
AcDbSymbolTableRecord
100
AcDbLinetypeTableRecord
  2
BYBLOCK
 70
0
  3

 72
65
 73
0
 40
0.0
  0
LTYPE
  5
15
100
AcDbSymbolTableRecord
100
AcDbLinetypeTableRecord
  2
BYLAYER
 70
0
  3

 72
65
 73
0
 40
0.0
  0
LTYPE
  5
16
100
AcDbSymbolTableRecord
100
AcDbLinetypeTableRecord
  2
CONTINUOUS
 70
64
  3
Solid line
 72
65
 73
0
 40
0.0
  0
LTYPE
  5
1F5
100
AcDbSymbolTableRecord
100
AcDbLinetypeTableRecord
  2
CENTER
 70
64
  3
____ _ ____ _ ____ _ ____ _ ____ _ ____ _ ____
 72
65
 73
4
 40
0.6
 49
0.375
 74
0
 49
-0.075
 74
0
 49
0.075
 74
0
 49
-0.075
 74
0
  0
LTYPE
  5
1F6
100
AcDbSymbolTableRecord
100
AcDbLinetypeTableRecord
  2
HIDDEN
 70
64
  3
- - - - - - - - - - - - - - - - - - - -
 72
65
 73
2
 40
0.2
 49
0.1
 74
0
 49
-0.1
 74
0
  0
LTYPE
  5
1F7
100
AcDbSymbolTableRecord
100
AcDbLinetypeTableRecord
  2
PHANTOM
 70
64
  3
_____ _ _ _____ _ _ _____ _ _ _____
 72
65
 73
6
 40
0.8
 49
0.45
 74
0
 49
-0.05
 74
0
 49
0.1
 74
0
 49
-0.05
 74
0
 49
0.1
 74
0
 49
-0.05
 74
0
  0
LTYPE
  5
1F8
100
AcDbSymbolTableRecord
100
AcDbLinetypeTableRecord
  2
DOT
 70
64
  3
. . . . . . . . . . . . . . . . . . . .
 72
65
 73
2
 40
0.2
 49
0.1
 74
0
 49
-0.1
 74
0
  0
LTYPE
  5
1F9
100
AcDbSymbolTableRecord
100
AcDbLinetypeTableRecord
  2
DASHED
 70
64
  3
- - - - - - - - - - - - - - - - - - - -
 72
65
 73
2
 40
0.2
 49
0.1
 74
0
 49
-0.1
 74
0
  0
ENDTAB
  0
TABLE
  2
LAYER
  5
2
100
AcDbSymbolTable
 70
36
  0
LAYER
  5
10
100
AcDbSymbolTableRecord
100
AcDbLayerTableRecord
  2
0
 70
0
 62
7
  6
CONTINUOUS
370
-3
390
F
  0
LAYER
  5
1FA
100
AcDbSymbolTableRecord
100
AcDbLayerTableRecord
  2
DEFAULT_1
 70
0
 62
7
  6
CENTER
370
-3
390
F
  0
LAYER
  5
1FB
100
AcDbSymbolTableRecord
100
AcDbLayerTableRecord
  2
DEFAULT_2
 70
0
 62
7
  6
HIDDEN
370
-3
390
F
  0
LAYER
  5
1FC
100
AcDbSymbolTableRecord
100
AcDbLayerTableRecord
  2
DEFAULT_3
 70
0
 62
7
  6
PHANTOM
370
-3
390
F
  0
LAYER
  5
1FD
100
AcDbSymbolTableRecord
100
AcDbLayerTableRecord
  2
00_COMPONENTS
 70
0
 62
7
  6
CONTINUOUS
370
-3
390
F
  0
LAYER
  5
1FE
100
AcDbSymbolTableRecord
100
AcDbLayerTableRecord
  2
01_1_DEFAULT_DATUMS
 70
0
 62
7
  6
CONTINUOUS
370
-3
390
F
  0
LAYER
  5
1FF
100
AcDbSymbolTableRecord
100
AcDbLayerTableRecord
  2
01_PLANES
 70
0
 62
7
  6
CONTINUOUS
370
-3
390
F
  0
LAYER
  5
200
100
AcDbSymbolTableRecord
100
AcDbLayerTableRecord
  2
02_COORD_SYS
 70
0
 62
7
  6
CONTINUOUS
370
-3
390
F
  0
LAYER
  5
201
100
AcDbSymbolTableRecord
100
AcDbLayerTableRecord
  2
03_AXES
 70
0
 62
7
  6
CONTINUOUS
370
-3
390
F
  0
LAYER
  5
202
100
AcDbSymbolTableRecord
100
AcDbLayerTableRecord
  2
04_POINTS
 70
0
 62
7
  6
CONTINUOUS
370
-3
390
F
  0
LAYER
  5
203
100
AcDbSymbolTableRecord
100
AcDbLayerTableRecord
  2
05_CURVES
 70
0
 62
7
  6
CONTINUOUS
370
-3
390
F
  0
LAYER
  5
204
100
AcDbSymbolTableRecord
100
AcDbLayerTableRecord
  2
06_SURFS
 70
0
 62
7
  6
CONTINUOUS
370
-3
390
F
  0
LAYER
  5
205
100
AcDbSymbolTableRecord
100
AcDbLayerTableRecord
  2
07_COSMETICS
 70
0
 62
7
  6
CONTINUOUS
370
-3
390
F
  0
LAYER
  5
206
100
AcDbSymbolTableRecord
100
AcDbLayerTableRecord
  2
10_NOTES
 70
0
 62
7
  6
CONTINUOUS
370
-3
390
F
  0
LAYER
  5
207
100
AcDbSymbolTableRecord
100
AcDbLayerTableRecord
  2
11_NOTES_PUB
 70
0
 62
7
  6
CONTINUOUS
370
-3
390
F
  0
LAYER
  5
208
100
AcDbSymbolTableRecord
100
AcDbLayerTableRecord
  2
13_REF_GTOL
 70
0
 62
7
  6
CONTINUOUS
370
-3
390
F
  0
LAYER
  5
209
100
AcDbSymbolTableRecord
100
AcDbLayerTableRecord
  2
16_MISC
 70
0
 62
7
  6
CONTINUOUS
370
-3
390
F
  0
LAYER
  5
20A
100
AcDbSymbolTableRecord
100
AcDbLayerTableRecord
  2
17_NO_PRINT
 70
0
 62
7
  6
CONTINUOUS
370
-3
390
F
  0
LAYER
  5
20B
100
AcDbSymbolTableRecord
100
AcDbLayerTableRecord
  2
18_DATUM_CAMS_JOINTS
 70
0
 62
7
  6
CONTINUOUS
370
-3
390
F
  0
LAYER
  5
20C
100
AcDbSymbolTableRecord
100
AcDbLayerTableRecord
  2
19_DATUM_FUNCTIONAL
 70
0
 62
7
  6
CONTINUOUS
370
-3
390
F
  0
LAYER
  5
20D
100
AcDbSymbolTableRecord
100
AcDbLayerTableRecord
  2
20_DATUM_KINEMATIC_SCHEME
 70
0
 62
7
  6
CONTINUOUS
370
-3
390
F
  0
ENDTAB
  0
TABLE
  2
STYLE
  5
3
100
AcDbSymbolTable
 70
1
  0
STYLE
  5
11
100
AcDbSymbolTableRecord
100
AcDbTextStyleTableRecord
  2
STANDARD
 70
0
 40
0.0
 41
1.0
 50
0.0
 71
0
 42
0.2
  3
ARIAL.TTF
  4

  0
STYLE
  5
20E
100
AcDbSymbolTableRecord
100
AcDbTextStyleTableRecord
  2
TEXTSTYLE_1
 70
0
 40
0.0
 41
0.8
 50
0.0
 71
0
 42
0.2
  3
gdt
  4

  0
ENDTAB
  0
TABLE
  2
VIEW
  5
6
100
AcDbSymbolTable
 70
0
  0
ENDTAB
  0
TABLE
  2
UCS
  5
7
100
AcDbSymbolTable
 70
0
  0
ENDTAB
  0
TABLE
  2
APPID
  5
9
100
AcDbSymbolTable
 70
1
  0
APPID
  5
20F
100
AcDbSymbolTableRecord
100
AcDbRegAppTableRecord
  2
ACAD
 70
0
  0
ENDTAB
  0
TABLE
  2
BLOCK_RECORD
  5
1
100
AcDbSymbolTable
 70
0
  0
BLOCK_RECORD
  5
210
100
AcDbSymbolTableRecord
100
AcDbBlockTableRecord
  2
*Model_Space
  0
BLOCK_RECORD
  5
211
100
AcDbSymbolTableRecord
100
AcDbBlockTableRecord
  2
*Paper_Space
  0
BLOCK_RECORD
  5
212
100
AcDbSymbolTableRecord
100
AcDbBlockTableRecord
  2
_FILLED
  0
ENDTAB
  0
TABLE
  2
DIMSTYLE
  5
A
100
AcDbSymbolTable
 70
1
100
AcDbDimStyleTable
 71
0
  0
DIMSTYLE
105
213
100
AcDbSymbolTableRecord
100
AcDbDimStyleTableRecord
  2
STANDARD
 70
0
  3

  4

 40
1.0
 41
0.5854561161
 42
1.0
 43
0.38
 44
1.0
 45
0.0
 46
0.0
 47
0.01
 48
0.01
140
0.8196385625
141
0.09
142
0.0
143
25.4
144
1.0
145
0.0
146
1.0
147
0.625
 71
1
 72
0
 73
0
 74
0
 75
0
 76
0
 77
1
 78
8
 79
2
170
0
171
1
172
0
173
0
174
0
175
0
176
0
177
0
178
0
270
2
179
2
271
2
272
2
273
2
274
2
275
0
280
0
281
0
282
0
283
1
284
8
285
0
286
0
287
3
288
0
340
11
278
46
341
212
342
212
343
212
344
212
  0
ENDTAB
  0
ENDSEC
  0
SECTION
  2
BLOCKS
  0
BLOCK
  5
20
100
AcDbEntity
  8
0
100
AcDbBlockBegin
  2
*Model_Space
 70
0
 10
0.0
 20
0.0
 30
0.0
  3
*Model_Space
  1

  0
ENDBLK
  5
21
100
AcDbEntity
  8
0
100
AcDbBlockEnd
  0
BLOCK
  5
1C
100
AcDbEntity
  8
0
100
AcDbBlockBegin
  2
*Paper_Space
 70
0
 10
0.0
 20
0.0
 30
0.0
  3
*Paper_Space
  1

  0
ENDBLK
  5
1D
100
AcDbEntity
  8
0
100
AcDbBlockEnd
  0
BLOCK
  5
214
100
AcDbEntity
  8
0
100
AcDbBlockBegin
  2
_FILLED
 70
64
 10
0.0
 20
0.0
  3
_FILLED
  1

  0
SOLID
  5
215
100
AcDbEntity
  8
0
  6
BYBLOCK
 62
0
100
AcDbTrace
 10
0.0
 20
0.0
 11
-1.0
 21
0.25
 12
-1.0
 22
-0.25
 13
-1.0
 23
-0.25
  0
ENDBLK
  5
216
100
AcDbEntity
  8
0
  6
BYBLOCK
 62
0
100
AcDbBlockEnd
  0
ENDSEC
  0
SECTION
  2
ENTITIES
  0
LINE
  5
217
100
AcDbEntity
  8
0
100
AcDbLine
 62
7
  6
BYLAYER
 10
12.6452064376
 20
5.6612244898
 11
37.3952064376
 21
5.6612244898
  0
LINE
  5
218
100
AcDbEntity
  8
0
100
AcDbLine
 62
7
  6
BYLAYER
 10
32.7952064376
 20
7.1612244898
 11
12.1452064376
 21
7.1612244898
  0
LINE
  5
219
100
AcDbEntity
  8
0
100
AcDbLine
 62
7
  6
BYLAYER
 10
32.7952064376
 20
8.1612244898
 11
37.7952064376
 21
8.1612244898
  0
LINE
  5
21A
100
AcDbEntity
  8
0
100
AcDbLine
 62
7
  6
BYLAYER
 10
38.3952064376
 20
8.4112244898
 11
38.0452064376
 21
8.4112244898
  0
LINE
  5
21B
100
AcDbEntity
  8
0
100
AcDbLine
 62
7
  6
BYLAYER
 10
16.6452064376
 20
62.0112244898
 11
17.4452064376
 21
62.8112244898
  0
LINE
  5
21C
100
AcDbEntity
  8
0
100
AcDbLine
 62
7
  6
BYLAYER
 10
20.1952064376
 20
64.0612244898
 11
19.9952064376
 21
63.8612244898
  0
LINE
  5
21D
100
AcDbEntity
  8
0
100
AcDbLine
 62
7
  6
BYLAYER
 10
19.9952064376
 20
63.4112244898
 11
19.3952064376
 21
62.8112244898
  0
LINE
  5
21E
100
AcDbEntity
  8
0
100
AcDbLine
 62
7
  6
BYLAYER
 10
32.7952064376
 20
12.1612244898
 11
37.7952064376
 21
12.1612244898
  0
LINE
  5
21F
100
AcDbEntity
  8
0
100
AcDbLine
 62
7
  6
BYLAYER
 10
32.7952064376
 20
13.7612244898
 11
37.3952064376
 21
13.7612244898
  0
LINE
  5
220
100
AcDbEntity
  8
0
100
AcDbLine
 62
7
  6
BYLAYER
 10
27.6452064376
 20
58.6112244898
 11
26.8452064376
 21
57.8112244898
  0
LINE
  5
221
100
AcDbEntity
  8
0
100
AcDbLine
 62
7
  6
BYLAYER
 10
12.1452064376
 20
6.1612244898
 11
12.1452064376
 21
42.1612244898
  0
LINE
  5
222
100
AcDbEntity
  8
0
100
AcDbLine
 62
7
  6
BYLAYER
 10
12.1452064376
 20
42.7112244898
 11
12.1452064376
 21
44.7112244898
  0
LINE
  5
223
100
AcDbEntity
  8
0
100
AcDbLine
 62
7
  6
BYLAYER
 10
12.6452064376
 20
5.6612244898
 11
12.6452064376
 21
38.6612244898
  0
LINE
  5
224
100
AcDbEntity
  8
0
100
AcDbLine
 62
7
  6
BYLAYER
 10
12.1452064376
 20
44.7112244898
 11
12.2746230357
 21
47.8689894857
  0
LINE
  5
225
100
AcDbEntity
  8
0
100
AcDbLine
 62
7
  6
BYLAYER
 10
13.6452064376
 20
42.1612244898
 11
13.6452064376
 21
42.7112244898
  0
LINE
  5
226
100
AcDbEntity
  8
0
100
AcDbLine
 62
7
  6
BYLAYER
 10
14.6452064376
 20
48.8112244898
 11
14.6452064376
 21
48.3112244898
  0
LINE
  5
227
100
AcDbEntity
  8
0
100
AcDbLine
 62
7
  6
BYLAYER
 10
16.0852064376
 20
56.7584643281
 11
16.0852064376
 21
57.1660998283
  0
LINE
  5
228
100
AcDbEntity
  8
0
100
AcDbLine
 62
7
  6
BYLAYER
 10
16.1452064376
 20
50.8112244898
 11
16.1452064376
 21
48.8112244898
  0
LINE
  5
229
100
AcDbEntity
  8
0
100
AcDbLine
 62
7
  6
BYLAYER
 10
16.6457123412
 20
58.6112244898
 11
16.6457123412
 21
62.0112244898
  0
LINE
  5
22A
100
AcDbEntity
  8
0
100
AcDbLine
 62
7
  6
BYLAYER
 10
17.6452064376
 20
48.8112244898
 11
17.6452064376
 21
50.8112244898
  0
LINE
  5
22B
100
AcDbEntity
  8
0
100
AcDbLine
 62
7
  6
BYLAYER
 10
19.1452064376
 20
56.7584643281
 11
19.1452064376
 21
50.8112244898
  0
LINE
  5
22C
100
AcDbEntity
  8
0
100
AcDbLine
 62
7
  6
BYLAYER
 10
38.1952064376
 20
11.7612244898
 11
37.7952064376
 21
12.1612244898
  0
LINE
  5
22D
100
AcDbEntity
  8
0
100
AcDbLine
 62
7
  6
BYLAYER
 10
19.3308566576
 20
62.0112244898
 11
19.3308566576
 21
58.6112244898
  0
LINE
  5
22E
100
AcDbEntity
  8
0
100
AcDbLine
 62
7
  6
BYLAYER
 10
19.4600621211
 20
58.6112244898
 11
19.4600621211
 21
62.0112244898
  0
LINE
  5
22F
100
AcDbEntity
  8
0
100
AcDbLine
 62
7
  6
BYLAYER
 10
19.9952064376
 20
63.8612244898
 11
19.9952064376
 21
63.4112244898
  0
LINE
  5
230
100
AcDbEntity
  8
0
100
AcDbLine
 62
7
  6
BYLAYER
 10
32.7952064376
 20
30.5612244898
 11
37.3952064376
 21
30.5612244898
  0
LINE
  5
231
100
AcDbEntity
  8
0
100
AcDbLine
 62
7
  6
BYLAYER
 10
21.6452064376
 20
62.8612244898
 11
21.6452064376
 21
64.0612244898
  0
LINE
  5
232
100
AcDbEntity
  8
0
100
AcDbLine
 62
7
  6
BYLAYER
 10
22.6452064376
 20
62.8612244898
 11
22.6452064376
 21
64.0612244898
  0
LINE
  5
233
100
AcDbEntity
  8
0
100
AcDbLine
 62
7
  6
BYLAYER
 10
32.7952064376
 20
32.1612244898
 11
37.7952064376
 21
32.1612244898
  0
LINE
  5
234
100
AcDbEntity
  8
0
100
AcDbLine
 62
7
  6
BYLAYER
 10
24.2952064376
 20
63.4112244898
 11
24.2952064376
 21
63.8612244898
  0
LINE
  5
235
100
AcDbEntity
  8
0
100
AcDbLine
 62
7
  6
BYLAYER
 10
24.830350754
 20
62.0112244898
 11
24.830350754
 21
58.6112244898
  0
LINE
  5
236
100
AcDbEntity
  8
0
100
AcDbLine
 62
7
  6
BYLAYER
 10
24.9595562175
 20
58.6112244898
 11
24.9595562175
 21
62.0112244898
  0
LINE
  5
237
100
AcDbEntity
  8
0
100
AcDbLine
 62
7
  6
BYLAYER
 10
25.1452064376
 20
50.8112244898
 11
25.1452064376
 21
56.7584643281
  0
LINE
  5
238
100
AcDbEntity
  8
0
100
AcDbLine
 62
7
  6
BYLAYER
 10
26.624926858
 20
50.8112244898
 11
26.624926858
 21
48.8112244898
  0
LINE
  5
239
100
AcDbEntity
  8
0
100
AcDbLine
 62
7
  6
BYLAYER
 10
26.6336081118
 20
48.3112244898
 11
26.6336081118
 21
48.8112244898
  0
LINE
  5
23A
100
AcDbEntity
  8
0
100
AcDbLine
 62
7
  6
BYLAYER
 10
27.6447005339
 20
62.0112244898
 11
27.6447005339
 21
58.6112244898
  0
LINE
  5
23B
100
AcDbEntity
  8
0
100
AcDbLine
 62
7
  6
BYLAYER
 10
38.3952064376
 20
35.9112244898
 11
38.0452064376
 21
35.9112244898
  0
LINE
  5
23C
100
AcDbEntity
  8
0
100
AcDbLine
 62
7
  6
BYLAYER
 10
32.7952064376
 20
36.1612244898
 11
37.7952064376
 21
36.1612244898
  0
LINE
  5
23D
100
AcDbEntity
  8
0
100
AcDbLine
 62
7
  6
BYLAYER
 10
12.1452064376
 20
37.1612244898
 11
32.7952064376
 21
37.1612244898
  0
LINE
  5
23E
100
AcDbEntity
  8
0
100
AcDbLine
 62
7
  6
BYLAYER
 10
28.1452064376
 20
50.8112244898
 11
28.1452064376
 21
48.8112244898
  0
LINE
  5
23F
100
AcDbEntity
  8
0
100
AcDbLine
 62
7
  6
BYLAYER
 10
28.1538876914
 20
48.8112244898
 11
28.1538876914
 21
48.3112244898
  0
LINE
  5
240
100
AcDbEntity
  8
0
100
AcDbLine
 62
7
  6
BYLAYER
 10
28.2052064376
 20
56.7584643281
 11
28.2052064376
 21
57.1660998283
  0
LINE
  5
241
100
AcDbEntity
  8
0
100
AcDbLine
 62
7
  6
BYLAYER
 10
29.6452064376
 20
48.8112244898
 11
29.6452064376
 21
48.3112244898
  0
LINE
  5
242
100
AcDbEntity
  8
0
100
AcDbLine
 62
7
  6
BYLAYER
 10
12.6452064376
 20
38.6612244898
 11
37.3952064376
 21
38.6612244898
  0
LINE
  5
243
100
AcDbEntity
  8
0
100
AcDbLine
 62
7
  6
BYLAYER
 10
30.6452064376
 20
42.7112244898
 11
30.6452064376
 21
42.1612244898
  0
LINE
  5
244
100
AcDbEntity
  8
0
100
AcDbLine
 62
7
  6
BYLAYER
 10
31.9976654539
 20
48.3112244898
 11
32.1452064376
 21
44.7112244898
  0
LINE
  5
245
100
AcDbEntity
  8
0
100
AcDbLine
 62
7
  6
BYLAYER
 10
32.1452064376
 20
44.7112244898
 11
32.1452064376
 21
42.7112244898
  0
LINE
  5
246
100
AcDbEntity
  8
0
100
AcDbLine
 62
7
  6
BYLAYER
 10
32.1452064376
 20
42.1612244898
 11
32.1452064376
 21
38.6612244898
  0
LINE
  5
247
100
AcDbEntity
  8
0
100
AcDbLine
 62
7
  6
BYLAYER
 10
32.7952064376
 20
5.6612244898
 11
32.7952064376
 21
13.7612244898
  0
LINE
  5
248
100
AcDbEntity
  8
0
100
AcDbLine
 62
7
  6
BYLAYER
 10
32.7952064376
 20
30.5612244898
 11
32.7952064376
 21
38.6612244898
  0
LINE
  5
249
100
AcDbEntity
  8
0
100
AcDbLine
 62
7
  6
BYLAYER
 10
12.1453738075
 20
42.1612244898
 11
32.1450390676
 21
42.1612244898
  0
LINE
  5
24A
100
AcDbEntity
  8
0
100
AcDbLine
 62
7
  6
BYLAYER
 10
32.1452064376
 20
42.7112244898
 11
12.1452064376
 21
42.7112244898
  0
LINE
  5
24B
100
AcDbEntity
  8
0
100
AcDbLine
 62
7
  6
BYLAYER
 10
38.1952064376
 20
32.5612244898
 11
37.7952064376
 21
32.1612244898
  0
LINE
  5
24C
100
AcDbEntity
  8
0
100
AcDbLine
 62
7
  6
BYLAYER
 10
12.1452064376
 20
44.7112244898
 11
32.1452064376
 21
44.7112244898
  0
LINE
  5
24D
100
AcDbEntity
  8
0
100
AcDbLine
 62
7
  6
BYLAYER
 10
38.1952064376
 20
35.7612244898
 11
37.7952064376
 21
36.1612244898
  0
LINE
  5
24E
100
AcDbEntity
  8
0
100
AcDbLine
 62
7
  6
BYLAYER
 10
17.4452064376
 20
57.8112244898
 11
16.6452064376
 21
58.6112244898
  0
LINE
  5
24F
100
AcDbEntity
  8
0
100
AcDbLine
 62
7
  6
BYLAYER
 10
37.3952064376
 20
8.1612244898
 11
37.3952064376
 21
5.6612244898
  0
LINE
  5
250
100
AcDbEntity
  8
0
100
AcDbLine
 62
7
  6
BYLAYER
 10
37.3952064376
 20
13.7612244898
 11
37.3952064376
 21
30.5612244898
  0
LINE
  5
251
100
AcDbEntity
  8
0
100
AcDbLine
 62
7
  6
BYLAYER
 10
37.3952064376
 20
36.1612244898
 11
37.3952064376
 21
38.6612244898
  0
LINE
  5
252
100
AcDbEntity
  8
0
100
AcDbLine
 62
7
  6
BYLAYER
 10
37.7952064376
 20
36.1612244898
 11
37.7952064376
 21
32.1612244898
  0
LINE
  5
253
100
AcDbEntity
  8
0
100
AcDbLine
 62
7
  6
BYLAYER
 10
37.7952064376
 20
12.1612244898
 11
37.7952064376
 21
8.1612244898
  0
LINE
  5
254
100
AcDbEntity
  8
0
100
AcDbLine
 62
7
  6
BYLAYER
 10
38.1952064376
 20
35.7611619809
 11
38.1952064376
 21
32.5612869987
  0
LINE
  5
255
100
AcDbEntity
  8
0
100
AcDbLine
 62
7
  6
BYLAYER
 10
38.1952064376
 20
11.7611619809
 11
38.1952064376
 21
8.5612869987
  0
LINE
  5
256
100
AcDbEntity
  8
0
100
AcDbLine
 62
7
  6
BYLAYER
 10
38.3952064376
 20
35.9110469755
 11
38.3952064376
 21
8.4114020041
  0
LINE
  5
257
100
AcDbEntity
  8
0
100
AcDbLine
 62
7
  6
BYLAYER
 10
12.3026021656
 20
48.3112244898
 11
31.9976654539
 21
48.3112244898
  0
LINE
  5
258
100
AcDbEntity
  8
0
100
AcDbLine
 62
7
  6
BYLAYER
 10
14.6452799572
 20
48.8112244898
 11
16.1452064376
 21
48.8112244898
  0
LINE
  5
259
100
AcDbEntity
  8
0
100
AcDbLine
 62
7
  6
BYLAYER
 10
17.6452064376
 20
48.8112244898
 11
26.6336081118
 21
48.8112244898
  0
LINE
  5
25A
100
AcDbEntity
  8
0
100
AcDbLine
 62
7
  6
BYLAYER
 10
28.1452064376
 20
48.8112244898
 11
29.6451333824
 21
48.8112244898
  0
LINE
  5
25B
100
AcDbEntity
  8
0
100
AcDbLine
 62
7
  6
BYLAYER
 10
16.1452064376
 20
50.8112244898
 11
28.1452064376
 21
50.8112244898
  0
LINE
  5
25C
100
AcDbEntity
  8
0
100
AcDbLine
 62
7
  6
BYLAYER
 10
24.8952064376
 20
62.8112244898
 11
24.2952064376
 21
63.4112244898
  0
LINE
  5
25D
100
AcDbEntity
  8
0
100
AcDbLine
 62
7
  6
BYLAYER
 10
24.2952064376
 20
63.8612244898
 11
24.0952064376
 21
64.0612244898
  0
LINE
  5
25E
100
AcDbEntity
  8
0
100
AcDbLine
 62
7
  6
BYLAYER
 10
26.8452064376
 20
62.8112244898
 11
27.6452064376
 21
62.0112244898
  0
LINE
  5
25F
100
AcDbEntity
  8
0
100
AcDbLine
 62
7
  6
BYLAYER
 10
28.2052064376
 20
56.7584643281
 11
16.0852064376
 21
56.7584643281
  0
LINE
  5
260
100
AcDbEntity
  8
0
100
AcDbLine
 62
7
  6
BYLAYER
 10
16.0852064376
 20
57.1660998283
 11
28.2052064376
 21
57.1660998283
  0
LINE
  5
261
100
AcDbEntity
  8
0
100
AcDbLine
 62
7
  6
BYLAYER
 10
26.8452064376
 20
57.8112244898
 11
17.4452064376
 21
57.8112244898
  0
LINE
  5
262
100
AcDbEntity
  8
0
100
AcDbLine
 62
7
  6
BYLAYER
 10
24.9595562175
 20
58.6112244898
 11
24.830350754
 21
58.6112244898
  0
LINE
  5
263
100
AcDbEntity
  8
0
100
AcDbLine
 62
7
  6
BYLAYER
 10
19.4600621211
 20
58.6112244898
 11
19.3308566576
 21
58.6112244898
  0
LINE
  5
264
100
AcDbEntity
  8
0
100
AcDbLine
 62
7
  6
BYLAYER
 10
38.1952064376
 20
8.5612244898
 11
37.7952064376
 21
8.1612244898
  0
LINE
  5
265
100
AcDbEntity
  8
0
100
AcDbLine
 62
7
  6
BYLAYER
 10
19.3308566576
 20
62.0112244898
 11
19.4600621211
 21
62.0112244898
  0
LINE
  5
266
100
AcDbEntity
  8
0
100
AcDbLine
 62
7
  6
BYLAYER
 10
24.830350754
 20
62.0112244898
 11
24.9595562175
 21
62.0112244898
  0
LINE
  5
267
100
AcDbEntity
  8
0
100
AcDbLine
 62
7
  6
BYLAYER
 10
17.4452064376
 20
62.8112244898
 11
26.8452064376
 21
62.8112244898
  0
LINE
  5
268
100
AcDbEntity
  8
0
100
AcDbLine
 62
7
  6
BYLAYER
 10
21.6452064376
 20
62.8612244898
 11
22.6452064376
 21
62.8612244898
  0
LINE
  5
269
100
AcDbEntity
  8
0
100
AcDbLine
 62
7
  6
BYLAYER
 10
24.2952064376
 20
63.4112244898
 11
22.6452064376
 21
63.4112244898
  0
LINE
  5
26A
100
AcDbEntity
  8
0
100
AcDbLine
 62
7
  6
BYLAYER
 10
21.6452064376
 20
63.4112244898
 11
19.9952064376
 21
63.4112244898
  0
LINE
  5
26B
100
AcDbEntity
  8
0
100
AcDbLine
 62
7
  6
BYLAYER
 10
19.9952064376
 20
63.8612244898
 11
21.6452064376
 21
63.8612244898
  0
LINE
  5
26C
100
AcDbEntity
  8
0
100
AcDbLine
 62
7
  6
BYLAYER
 10
22.6452064376
 20
63.8612244898
 11
24.2952064376
 21
63.8612244898
  0
LINE
  5
26D
100
AcDbEntity
  8
0
100
AcDbLine
 62
7
  6
BYLAYER
 10
20.1952064376
 20
64.0612244898
 11
21.6452064376
 21
64.0612244898
  0
LINE
  5
26E
100
AcDbEntity
  8
0
100
AcDbLine
 62
7
  6
BYLAYER
 10
22.6452064376
 20
64.0612244898
 11
24.0952064376
 21
64.0612244898
  0
ARC
  5
26F
100
AcDbEntity
  8
0
100
AcDbCircle
 62
7
  6
BYLAYER
 10
26.2146025107
 20
54.4175472026
 40
3.3936772872
100
AcDbArc
 50
54.0865477245
 51
90.0
  0
ARC
  5
270
100
AcDbEntity
  8
0
100
AcDbCircle
 62
7
  6
BYLAYER
 10
18.0758103644
 20
54.4175472026
 40
3.3936772872
100
AcDbArc
 50
90.0
 51
125.9134522755
  0
ARC
  5
271
100
AcDbEntity
  8
0
100
AcDbCircle
 62
7
  6
BYLAYER
 10
12.6452064376
 20
38.1612244898
 40
0.5
100
AcDbArc
 50
90.0
 51
180.0
  0
ARC
  5
272
100
AcDbEntity
  8
0
100
AcDbCircle
 62
7
  6
BYLAYER
 10
12.6452064376
 20
6.1612244898
 40
0.5
100
AcDbArc
 50
180.0
 51
270.0
  0
SPLINE
  5
273
100
AcDbEntity
  8
0
100
AcDbSpline
 62
7
  6
BYLAYER
 70
0
 71
3
 72
19
 73
15
 74
0
 42
0.0000001
 43
0.0000001
 44
0.0000000001
 40
0.0
 40
0.0
 40
0.0
 40
0.0
 40
0.1249968604
 40
0.2499739531
 40
0.3124818274
 40
0.3749886817
 40
0.4374946147
 40
0.5000000059
 40
0.5625053946
 40
0.6250113269
 40
0.6875181798
 40
0.750026052
 40
0.8750031413
 40
1.0
 40
1.0
 40
1.0
 40
1.0
 10
24.830350754
 20
58.6112244898
 30
0.0
 10
24.6207683693
 20
58.5089046809
 30
0.0
 10
24.1942684879
 20
58.3188239903
 30
0.0
 10
23.6411766878
 20
58.1307266542
 30
0.0
 10
23.1879400278
 20
58.0193757868
 30
0.0
 10
22.8432727523
 20
57.9576719816
 30
0.0
 10
22.4951609053
 20
57.9197568176
 30
0.0
 10
22.1452064091
 20
57.9069583433
 30
0.0
 10
21.7952519143
 20
57.9197568223
 30
0.0
 10
21.4471400765
 20
57.9576719889
 30
0.0
 10
21.102472809
 20
58.0193757945
 30
0.0
 10
20.6492361624
 20
58.1307266623
 30
0.0
 10
20.0961443754
 20
58.3188239952
 30
0.0
 10
19.6696445028
 20
58.5089046823
 30
0.0
 10
19.4600621211
 20
58.6112244898
 30
0.0
  0
SPLINE
  5
274
100
AcDbEntity
  8
0
100
AcDbSpline
 62
7
  6
BYLAYER
 70
0
 71
3
 72
23
 73
19
 74
0
 42
0.0000001
 43
0.0000001
 44
0.0000000001
 40
0.0
 40
0.0
 40
0.0
 40
0.0
 40
0.0698215608
 40
0.1375824136
 40
0.2031205819
 40
0.2663451705
 40
0.3272939682
 40
0.3861978871
 40
0.4435297875
 40
0.5000000054
 40
0.5564702209
 40
0.613802121
 40
0.6727060386
 40
0.7336548345
 40
0.7968794226
 40
0.8624175883
 40
0.9301784389
 40
1.0
 40
1.0
 40
1.0
 40
1.0
 10
27.6447005339
 20
58.6112244898
 30
0.0
 10
27.593011402
 20
58.5607543884
 30
0.0
 10
27.4889609999
 20
58.4635103795
 30
0.0
 10
27.3278525991
 20
58.3283719316
 30
0.0
 10
27.1637520164
 20
58.2080052077
 30
0.0
 10
26.9965974159
 20
58.1046358348
 30
0.0
 10
26.8264424513
 20
58.0206233205
 30
0.0
 10
26.6535402065
 20
57.9583363221
 30
0.0
 10
26.4784534603
 20
57.9199144218
 30
0.0
 10
26.3021283614
 20
57.9069124217
 30
0.0
 10
26.1258032633
 20
57.9199144266
 30
0.0
 10
25.9507165219
 20
57.9583363294
 30
0.0
 10
25.777814281
 20
58.0206233282
 30
0.0
 10
25.6076593209
 20
58.1046358433
 30
0.0
 10
25.4405047251
 20
58.208005214
 30
0.0
 10
25.2764041476
 20
58.3283719356
 30
0.0
 10
25.1152957505
 20
58.4635103807
 30
0.0
 10
25.0112453497
 20
58.5607543882
 30
0.0
 10
24.9595562175
 20
58.6112244898
 30
0.0
  0
SPLINE
  5
275
100
AcDbEntity
  8
0
100
AcDbSpline
 62
7
  6
BYLAYER
 70
0
 71
3
 72
23
 73
19
 74
0
 42
0.0000001
 43
0.0000001
 44
0.0000000001
 40
0.0
 40
0.0
 40
0.0
 40
0.0
 40
0.0698215608
 40
0.1375824136
 40
0.2031205819
 40
0.2663451705
 40
0.3272939682
 40
0.3861978871
 40
0.4435297875
 40
0.5000000054
 40
0.5564702209
 40
0.613802121
 40
0.6727060386
 40
0.7336548345
 40
0.7968794226
 40
0.8624175883
 40
0.9301784389
 40
1.0
 40
1.0
 40
1.0
 40
1.0
 10
19.3308566576
 20
58.6112244898
 30
0.0
 10
19.2791675257
 20
58.5607543884
 30
0.0
 10
19.1751171235
 20
58.4635103795
 30
0.0
 10
19.0140087227
 20
58.3283719316
 30
0.0
 10
18.8499081401
 20
58.2080052077
 30
0.0
 10
18.6827535396
 20
58.1046358348
 30
0.0
 10
18.512598575
 20
58.0206233205
 30
0.0
 10
18.3396963302
 20
57.9583363221
 30
0.0
 10
18.164609584
 20
57.9199144218
 30
0.0
 10
17.988284485
 20
57.9069124217
 30
0.0
 10
17.8119593869
 20
57.9199144266
 30
0.0
 10
17.6368726456
 20
57.9583363294
 30
0.0
 10
17.4639704046
 20
58.0206233282
 30
0.0
 10
17.2938154446
 20
58.1046358433
 30
0.0
 10
17.1266608488
 20
58.208005214
 30
0.0
 10
16.9625602713
 20
58.3283719356
 30
0.0
 10
16.8014518741
 20
58.4635103807
 30
0.0
 10
16.6974014733
 20
58.5607543882
 30
0.0
 10
16.6457123412
 20
58.6112244898
 30
0.0
  0
SPLINE
  5
276
100
AcDbEntity
  8
0
100
AcDbSpline
 62
7
  6
BYLAYER
 70
0
 71
3
 72
23
 73
19
 74
0
 42
0.0000001
 43
0.0000001
 44
0.0000000001
 40
0.0
 40
0.0
 40
0.0
 40
0.0
 40
0.0698215608
 40
0.1375824136
 40
0.2031205819
 40
0.2663451705
 40
0.3272939682
 40
0.3861978871
 40
0.4435297875
 40
0.5000000054
 40
0.5564702209
 40
0.613802121
 40
0.6727060386
 40
0.7336548345
 40
0.7968794226
 40
0.8624175883
 40
0.9301784389
 40
1.0
 40
1.0
 40
1.0
 40
1.0
 10
16.6457123412
 20
62.0112244898
 30
0.0
 10
16.6974014731
 20
62.0616945912
 30
0.0
 10
16.8014518752
 20
62.1589386001
 30
0.0
 10
16.9625602761
 20
62.294077048
 30
0.0
 10
17.1266608587
 20
62.4144437719
 30
0.0
 10
17.2938154592
 20
62.5178131448
 30
0.0
 10
17.4639704238
 20
62.6018256591
 30
0.0
 10
17.6368726686
 20
62.6641126575
 30
0.0
 10
17.8119594148
 20
62.7025345578
 30
0.0
 10
17.9882845137
 20
62.7155365579
 30
0.0
 10
18.1646096118
 20
62.702534553
 30
0.0
 10
18.3396963532
 20
62.6641126502
 30
0.0
 10
18.5125985941
 20
62.6018256514
 30
0.0
 10
18.6827535542
 20
62.5178131363
 30
0.0
 10
18.84990815
 20
62.4144437656
 30
0.0
 10
19.0140087275
 20
62.294077044
 30
0.0
 10
19.1751171246
 20
62.1589385989
 30
0.0
 10
19.2791675254
 20
62.0616945914
 30
0.0
 10
19.3308566576
 20
62.0112244898
 30
0.0
  0
SPLINE
  5
277
100
AcDbEntity
  8
0
100
AcDbSpline
 62
7
  6
BYLAYER
 70
0
 71
3
 72
19
 73
15
 74
0
 42
0.0000001
 43
0.0000001
 44
0.0000000001
 40
0.0
 40
0.0
 40
0.0
 40
0.0
 40
0.1249968604
 40
0.2499739531
 40
0.3124818274
 40
0.3749886817
 40
0.4374946147
 40
0.5000000059
 40
0.5625053946
 40
0.6250113269
 40
0.6875181798
 40
0.750026052
 40
0.8750031413
 40
1.0
 40
1.0
 40
1.0
 40
1.0
 10
19.4600621211
 20
62.0112244898
 30
0.0
 10
19.6696445058
 20
62.1135442987
 30
0.0
 10
20.0961443872
 20
62.3036249893
 30
0.0
 10
20.6492361873
 20
62.4917223254
 30
0.0
 10
21.1024728473
 20
62.6030731928
 30
0.0
 10
21.4471401228
 20
62.664776998
 30
0.0
 10
21.7952519698
 20
62.702692162
 30
0.0
 10
22.1452064659
 20
62.7154906363
 30
0.0
 10
22.4951609608
 20
62.7026921573
 30
0.0
 10
22.8432727986
 20
62.6647769907
 30
0.0
 10
23.1879400661
 20
62.6030731851
 30
0.0
 10
23.6411767127
 20
62.4917223172
 30
0.0
 10
24.1942684997
 20
62.3036249844
 30
0.0
 10
24.6207683723
 20
62.1135442973
 30
0.0
 10
24.830350754
 20
62.0112244898
 30
0.0
  0
SPLINE
  5
278
100
AcDbEntity
  8
0
100
AcDbSpline
 62
7
  6
BYLAYER
 70
0
 71
3
 72
23
 73
19
 74
0
 42
0.0000001
 43
0.0000001
 44
0.0000000001
 40
0.0
 40
0.0
 40
0.0
 40
0.0
 40
0.0698215608
 40
0.1375824136
 40
0.2031205819
 40
0.2663451705
 40
0.3272939682
 40
0.3861978871
 40
0.4435297875
 40
0.5000000054
 40
0.5564702209
 40
0.613802121
 40
0.6727060386
 40
0.7336548345
 40
0.7968794226
 40
0.8624175883
 40
0.9301784389
 40
1.0
 40
1.0
 40
1.0
 40
1.0
 10
24.9595562175
 20
62.0112244898
 30
0.0
 10
25.0112453494
 20
62.0616945912
 30
0.0
 10
25.1152957516
 20
62.1589386001
 30
0.0
 10
25.2764041524
 20
62.294077048
 30
0.0
 10
25.440504735
 20
62.4144437719
 30
0.0
 10
25.6076593355
 20
62.5178131448
 30
0.0
 10
25.7778143001
 20
62.6018256591
 30
0.0
 10
25.950716545
 20
62.6641126575
 30
0.0
 10
26.1258032911
 20
62.7025345578
 30
0.0
 10
26.30212839
 20
62.7155365579
 30
0.0
 10
26.4784534882
 20
62.702534553
 30
0.0
 10
26.6535402295
 20
62.6641126502
 30
0.0
 10
26.8264424705
 20
62.6018256514
 30
0.0
 10
26.9965974305
 20
62.5178131363
 30
0.0
 10
27.1637520263
 20
62.4144437656
 30
0.0
 10
27.3278526039
 20
62.294077044
 30
0.0
 10
27.488961001
 20
62.1589385989
 30
0.0
 10
27.5930114018
 20
62.0616945914
 30
0.0
 10
27.6447005339
 20
62.0112244898
 30
0.0
  0
ELLIPSE
  5
279
100
AcDbEntity
  8
0
100
AcDbEllipse
 62
7
  6
BYLAYER
 10
22.1209533127
 20
48.0555505541
 30
0.0
 11
7.0241205583
 21
7.3399569034
 31
0.0
 40
0.9416961723
 41
-4.0048040025
 42
-3.9600424208
  0
ENDSEC
  0
SECTION
  2
OBJECTS
  0
DICTIONARY
  5
C
100
AcDbDictionary
280
0
281
1
  3
ACAD_GROUP
350
D
  3
ACAD_MLINESTYLE
350
17
  3
ACAD_LAYOUT
350
1A
  3
ACAD_PLOTSETTINGS
350
19
  3
ACAD_PLOTSTYLENAME
350
E
  0
DICTIONARY
  5
D
102
{ACAD_REACTORS
330
C
102
}
100
AcDbDictionary
280
0
281
1
  0
ACDBDICTIONARYWDFLT
  5
E
102
{ACAD_REACTORS
330
C
102
}
100
AcDbDictionary
281
1
  3
Normal
350
F
100
AcDbDictionaryWithDefault
340
F
  0
DICTIONARY
  5
17
102
{ACAD_REACTORS
330
C
102
}
100
AcDbDictionary
280
0
281
1
  3
Standard
350
18
  0
DICTIONARY
  5
19
102
{ACAD_REACTORS
330
C
102
}
100
AcDbDictionary
281
1
  0
DICTIONARY
  5
1A
102
{ACAD_REACTORS
330
C
102
}
100
AcDbDictionary
281
1
  3
Model
350
27A
  3
Layout1
350
27B
  0
ACDBPLACEHOLDER
  5
F
102
{ACAD_REACTORS
330
E
102
}
  0
MLINESTYLE
  5
18
102
{ACAD_REACTORS
330
17
102
}
100
AcDbMlineStyle
  2
STANDARD
 70
0
  3

 62
256
 51
90.0
 52
90.0
 71
2
 49
0.5
 62
256
  6
BYLAYER
 49
-0.5
 62
256
  6
BYLAYER
  0
LAYOUT
  5
27A
102
{ACAD_REACTORS
330
1A
102
}
100
AcDbPlotSettings
  1

  2
none_device
  4

  6

 40
0.0
 41
0.0
 42
0.0
 43
0.0
 44
210.0
 45
297.0
 46
0.0
 47
0.0
 48
0.0
 49
0.0
140
0.0
141
0.0
142
1.0
143
1.0
 70
1024
 72
1
 73
0
 74
0
  7

 75
0
147
1.0
148
0.0
149
0.0
100
AcDbLayout
  1
Model
 70
0
 71
0
 10
0.0
 20
0.0
 11
210.0
 21
297.0
 12
0.0
 22
0.0
 32
0.0
 14
0.0
 24
0.0
 34
0.0
 15
0.0
 25
0.0
 35
0.0
146
0.0
 13
0.0
 23
0.0
 33
0.0
 16
1.0
 26
0.0
 36
0.0
 17
0.0
 27
1.0
 37
0.0
 76
0
330
210
345
0
346
0
  0
LAYOUT
  5
27B
102
{ACAD_REACTORS
330
1A
102
}
100
AcDbPlotSettings
  1

  2
none_device
  4

  6

 40
0.0
 41
0.0
 42
0.0
 43
0.0
 44
210.0
 45
297.0
 46
0.0
 47
0.0
 48
0.0
 49
0.0
140
0.0
141
0.0
142
1.0
143
1.0
 70
0
 72
1
 73
0
 74
0
  7

 75
0
147
1.0
148
0.0
149
0.0
100
AcDbLayout
  1
Layout1
 70
0
 71
1
 10
0.0
 20
0.0
 11
210.0
 21
297.0
 12
0.0
 22
0.0
 32
0.0
 14
0.0
 24
0.0
 34
0.0
 15
0.0
 25
0.0
 35
0.0
146
0.0
 13
0.0
 23
0.0
 33
0.0
 16
1.0
 26
0.0
 36
0.0
 17
0.0
 27
1.0
 37
0.0
 76
0
330
211
345
0
346
0
  0
ENDSEC
  0
EOF
